ISO-10303-21;
HEADER;
/* Generated by software containing ST-Developer
 * from STEP Tools, Inc. (www.steptools.com) 
 */
/* OPTION: using custom schema-name function */

FILE_DESCRIPTION(
/* description */ (''),
/* implementation_level */ '2;1');

FILE_NAME(
/* name */ 'AEMR-RP10T3-D32-M16-L43-Z03-H.stp',
/* time_stamp */ '2023-10-21T12:05:45+03:00',
/* author */ (''),
/* organization */ (''),
/* preprocessor_version */ 'ST-DEVELOPER v19.4',
/* originating_system */ 'SIEMENS PLM Software NX2306.5001',
/* authorisation */ '');

FILE_SCHEMA (('AUTOMOTIVE_DESIGN { 1 0 10303 214 3 1 1 1 }'));
ENDSEC;

DATA;
#10=PROPERTY_DEFINITION_REPRESENTATION(#14,#12);
#11=PROPERTY_DEFINITION_REPRESENTATION(#15,#13);
#12=REPRESENTATION('',(#16),#494);
#13=REPRESENTATION('',(#17),#494);
#14=PROPERTY_DEFINITION('pmi validation property','',#21);
#15=PROPERTY_DEFINITION('pmi validation property','',#21);
#16=VALUE_REPRESENTATION_ITEM('number of annotations',COUNT_MEASURE(0.));
#17=VALUE_REPRESENTATION_ITEM('number of views',COUNT_MEASURE(0.));
#18=SHAPE_REPRESENTATION_RELATIONSHIP('None',
'relationship between AEMR-RP10T3-D32-M16-L43-Z03-H-LIGHT_x_t_objects-
None and AEMR-RP10T3-D32-M16-L43-Z03-H-LIGHT_x_t_objects-None',#30,#19);
#19=ADVANCED_BREP_SHAPE_REPRESENTATION(
'AEMR-RP10T3-D32-M16-L43-Z03-H-LIGHT_x_t_objects-None',(#68,#69),#494);
#20=SHAPE_DEFINITION_REPRESENTATION(#21,#30);
#21=PRODUCT_DEFINITION_SHAPE('','',#22);
#22=PRODUCT_DEFINITION(' ','',#24,#23);
#23=PRODUCT_DEFINITION_CONTEXT('part definition',#29,'design');
#24=PRODUCT_DEFINITION_FORMATION_WITH_SPECIFIED_SOURCE(' ',' ',#26,
 .NOT_KNOWN.);
#25=PRODUCT_RELATED_PRODUCT_CATEGORY('part','',(#26));
#26=PRODUCT('AEMR-RP10T3-D32-M16-L43-Z03-H-LIGHT_x_t_objects',
'AEMR-RP10T3-D32-M16-L43-Z03-H-LIGHT_x_t_objects',' ',(#27));
#27=PRODUCT_CONTEXT(' ',#29,'mechanical');
#28=APPLICATION_PROTOCOL_DEFINITION('international standard',
'automotive_design',2010,#29);
#29=APPLICATION_CONTEXT(
'core data for automotive mechanical design processes');
#30=SHAPE_REPRESENTATION(
'AEMR-RP10T3-D32-M16-L43-Z03-H-LIGHT_x_t_objects-None',(#232),#494);
#31=COLOUR_RGB('silver gray',0.6,0.6,0.6);
#32=TOROIDAL_SURFACE('',#256,8.7,0.4);
#33=SURFACE_OF_REVOLUTION('',#35,#34);
#34=AXIS1_PLACEMENT('',#461,#286);
#35=B_SPLINE_CURVE_WITH_KNOTS('',3,(#395,#396,#397,#398,#399,#400,#401,
#402,#403,#404,#405,#406,#407,#408,#409,#410,#411,#412,#413,#414,#415,#416,
#417,#418,#419,#420,#421,#422,#423,#424,#425,#426,#427,#428,#429,#430,#431,
#432,#433,#434,#435,#436,#437,#438,#439,#440,#441,#442,#443,#444,#445,#446,
#447,#448,#449,#450,#451,#452,#453,#454,#455,#456,#457,#458,#459,#460),
 .UNSPECIFIED.,.T.,.F.,(2,2,2,2,2,2,2,2,2,2,2,2,2,2,2,2,2,2,2,2,2,2,2,2,
2,2,2,2,2,2,2,2,2,2,2),(-0.03125,0.,0.03125,0.0625,0.09375,0.125,0.15625,
0.1875,0.21875,0.25,0.28125,0.3125,0.34375,0.375,0.40625,0.4375,0.46875,
0.5,0.53125,0.5625,0.59375,0.625,0.65625,0.6875,0.71875,0.75,0.78125,0.8125,
0.84375,0.875,0.90625,0.9375,0.96875,1.,1.03125),.UNSPECIFIED.);
#36=PLANE('',#239);
#37=PLANE('',#241);
#38=PLANE('',#252);
#39=FACE_OUTER_BOUND('',#126,.T.);
#40=FACE_OUTER_BOUND('',#127,.T.);
#41=CONICAL_SURFACE('',#238,5.875,45.);
#42=CONICAL_SURFACE('',#246,14.5,45.);
#43=CONICAL_SURFACE('',#250,14.,45.0000000000004);
#44=CONICAL_SURFACE('',#254,8.80352761804101,74.9999999999999);
#45=CONICAL_SURFACE('',#260,8.5,15.0000000000001);
#46=CONICAL_SURFACE('',#263,7.875,29.9999999999999);
#47=CYLINDRICAL_SURFACE('',#236,7.875);
#48=CYLINDRICAL_SURFACE('',#244,14.);
#49=CYLINDRICAL_SURFACE('',#248,14.5);
#50=CYLINDRICAL_SURFACE('',#258,8.3);
#51=CYLINDRICAL_SURFACE('',#262,8.5);
#52=PRESENTATION_LAYER_ASSIGNMENT('1','Layer 1',(#68,#69));
#53=STYLED_ITEM('',(#55),#68);
#54=STYLED_ITEM('',(#56),#69);
#55=PRESENTATION_STYLE_ASSIGNMENT((#57));
#56=PRESENTATION_STYLE_ASSIGNMENT((#58));
#57=SURFACE_STYLE_USAGE(.BOTH.,#59);
#58=SURFACE_STYLE_USAGE(.BOTH.,#60);
#59=SURFACE_SIDE_STYLE('',(#61));
#60=SURFACE_SIDE_STYLE('',(#62));
#61=SURFACE_STYLE_FILL_AREA(#63);
#62=SURFACE_STYLE_FILL_AREA(#64);
#63=FILL_AREA_STYLE('',(#65));
#64=FILL_AREA_STYLE('',(#66));
#65=FILL_AREA_STYLE_COLOUR('',#67);
#66=FILL_AREA_STYLE_COLOUR('',#31);
#67=DRAUGHTING_PRE_DEFINED_COLOUR('yellow');
#68=MANIFOLD_SOLID_BREP('',#70);
#69=MANIFOLD_SOLID_BREP('',#71);
#70=CLOSED_SHELL('',(#72));
#71=CLOSED_SHELL('',(#73,#74,#75,#76,#77,#78,#79,#80,#81,#82,#83,#84,#85,
#86,#87,#88));
#72=ADVANCED_FACE('',(#90,#91),#89,.F.);
#73=ADVANCED_FACE('',(#92,#93),#47,.T.);
#74=ADVANCED_FACE('',(#94,#95),#41,.T.);
#75=ADVANCED_FACE('',(#39),#36,.F.);
#76=ADVANCED_FACE('',(#40),#37,.F.);
#77=ADVANCED_FACE('',(#96,#97),#33,.T.);
#78=ADVANCED_FACE('',(#98,#99),#48,.T.);
#79=ADVANCED_FACE('',(#100,#101),#42,.T.);
#80=ADVANCED_FACE('',(#102,#103),#49,.T.);
#81=ADVANCED_FACE('',(#104,#105),#43,.T.);
#82=ADVANCED_FACE('',(#106,#107),#38,.F.);
#83=ADVANCED_FACE('',(#108,#109),#44,.F.);
#84=ADVANCED_FACE('',(#110,#111),#32,.F.);
#85=ADVANCED_FACE('',(#112,#113),#50,.T.);
#86=ADVANCED_FACE('',(#114,#115),#45,.T.);
#87=ADVANCED_FACE('',(#116,#117),#51,.T.);
#88=ADVANCED_FACE('',(#118,#119),#46,.T.);
#89=(
BOUNDED_SURFACE()
B_SPLINE_SURFACE(3,3,((#332,#333,#334,#335,#336,#337,#338),(#339,#340,#341,
#342,#343,#344,#345),(#346,#347,#348,#349,#350,#351,#352),(#353,#354,#355,
#356,#357,#358,#359),(#360,#361,#362,#363,#364,#365,#366),(#367,#368,#369,
#370,#371,#372,#373),(#374,#375,#376,#377,#378,#379,#380)),
 .UNSPECIFIED.,.T.,.T.,.F.)
B_SPLINE_SURFACE_WITH_KNOTS((1,3,3,3,1),(1,3,3,3,1),(-0.5,0.,0.5,1.,1.5),
(-0.5,0.,0.5,1.,1.5),.UNSPECIFIED.)
GEOMETRIC_REPRESENTATION_ITEM()
RATIONAL_B_SPLINE_SURFACE(((1.,0.333333333333334,0.333333333333334,1.,0.333333333333334,
0.333333333333334,1.),(0.333333333333334,0.111111111111111,0.111111111111111,
0.333333333333334,0.111111111111111,0.111111111111111,0.333333333333334),
(0.333333333333334,0.111111111111111,0.111111111111111,0.333333333333334,
0.111111111111111,0.111111111111111,0.333333333333334),(1.,0.333333333333334,
0.333333333333334,1.,0.333333333333334,0.333333333333334,1.),(0.333333333333334,
0.111111111111111,0.111111111111111,0.333333333333334,0.111111111111111,
0.111111111111111,0.333333333333334),(0.333333333333334,0.111111111111111,
0.111111111111111,0.333333333333334,0.111111111111111,0.111111111111111,
0.333333333333334),(1.,0.333333333333334,0.333333333333334,1.,0.333333333333334,
0.333333333333334,1.)))
REPRESENTATION_ITEM('')
SURFACE()
);
#90=FACE_BOUND('',#120,.T.);
#91=FACE_BOUND('',#121,.T.);
#92=FACE_BOUND('',#122,.T.);
#93=FACE_BOUND('',#123,.T.);
#94=FACE_BOUND('',#124,.T.);
#95=FACE_BOUND('',#125,.T.);
#96=FACE_BOUND('',#128,.T.);
#97=FACE_BOUND('',#129,.T.);
#98=FACE_BOUND('',#130,.T.);
#99=FACE_BOUND('',#131,.T.);
#100=FACE_BOUND('',#132,.T.);
#101=FACE_BOUND('',#133,.T.);
#102=FACE_BOUND('',#134,.T.);
#103=FACE_BOUND('',#135,.T.);
#104=FACE_BOUND('',#136,.T.);
#105=FACE_BOUND('',#137,.T.);
#106=FACE_BOUND('',#138,.T.);
#107=FACE_BOUND('',#139,.T.);
#108=FACE_BOUND('',#140,.T.);
#109=FACE_BOUND('',#141,.T.);
#110=FACE_BOUND('',#142,.T.);
#111=FACE_BOUND('',#143,.T.);
#112=FACE_BOUND('',#144,.T.);
#113=FACE_BOUND('',#145,.T.);
#114=FACE_BOUND('',#146,.T.);
#115=FACE_BOUND('',#147,.T.);
#116=FACE_BOUND('',#148,.T.);
#117=FACE_BOUND('',#149,.T.);
#118=FACE_BOUND('',#150,.T.);
#119=FACE_BOUND('',#151,.T.);
#120=EDGE_LOOP('',(#152));
#121=EDGE_LOOP('',(#153));
#122=EDGE_LOOP('',(#154));
#123=EDGE_LOOP('',(#155));
#124=EDGE_LOOP('',(#156));
#125=EDGE_LOOP('',(#157));
#126=EDGE_LOOP('',(#158));
#127=EDGE_LOOP('',(#159));
#128=EDGE_LOOP('',(#160));
#129=EDGE_LOOP('',(#161));
#130=EDGE_LOOP('',(#162));
#131=EDGE_LOOP('',(#163));
#132=EDGE_LOOP('',(#164));
#133=EDGE_LOOP('',(#165));
#134=EDGE_LOOP('',(#166));
#135=EDGE_LOOP('',(#167));
#136=EDGE_LOOP('',(#168));
#137=EDGE_LOOP('',(#169));
#138=EDGE_LOOP('',(#170));
#139=EDGE_LOOP('',(#171));
#140=EDGE_LOOP('',(#172));
#141=EDGE_LOOP('',(#173));
#142=EDGE_LOOP('',(#174));
#143=EDGE_LOOP('',(#175));
#144=EDGE_LOOP('',(#176));
#145=EDGE_LOOP('',(#177));
#146=EDGE_LOOP('',(#178));
#147=EDGE_LOOP('',(#179));
#148=EDGE_LOOP('',(#180));
#149=EDGE_LOOP('',(#181));
#150=EDGE_LOOP('',(#182));
#151=EDGE_LOOP('',(#183));
#152=ORIENTED_EDGE('',*,*,#200,.T.);
#153=ORIENTED_EDGE('',*,*,#200,.F.);
#154=ORIENTED_EDGE('',*,*,#201,.F.);
#155=ORIENTED_EDGE('',*,*,#202,.T.);
#156=ORIENTED_EDGE('',*,*,#202,.F.);
#157=ORIENTED_EDGE('',*,*,#203,.T.);
#158=ORIENTED_EDGE('',*,*,#203,.F.);
#159=ORIENTED_EDGE('',*,*,#204,.T.);
#160=ORIENTED_EDGE('',*,*,#204,.F.);
#161=ORIENTED_EDGE('',*,*,#205,.T.);
#162=ORIENTED_EDGE('',*,*,#205,.F.);
#163=ORIENTED_EDGE('',*,*,#206,.T.);
#164=ORIENTED_EDGE('',*,*,#206,.F.);
#165=ORIENTED_EDGE('',*,*,#207,.T.);
#166=ORIENTED_EDGE('',*,*,#207,.F.);
#167=ORIENTED_EDGE('',*,*,#208,.T.);
#168=ORIENTED_EDGE('',*,*,#208,.F.);
#169=ORIENTED_EDGE('',*,*,#209,.T.);
#170=ORIENTED_EDGE('',*,*,#209,.F.);
#171=ORIENTED_EDGE('',*,*,#210,.T.);
#172=ORIENTED_EDGE('',*,*,#210,.F.);
#173=ORIENTED_EDGE('',*,*,#211,.T.);
#174=ORIENTED_EDGE('',*,*,#211,.F.);
#175=ORIENTED_EDGE('',*,*,#212,.T.);
#176=ORIENTED_EDGE('',*,*,#212,.F.);
#177=ORIENTED_EDGE('',*,*,#213,.T.);
#178=ORIENTED_EDGE('',*,*,#213,.F.);
#179=ORIENTED_EDGE('',*,*,#214,.T.);
#180=ORIENTED_EDGE('',*,*,#214,.F.);
#181=ORIENTED_EDGE('',*,*,#215,.T.);
#182=ORIENTED_EDGE('',*,*,#215,.F.);
#183=ORIENTED_EDGE('',*,*,#201,.T.);
#184=VERTEX_POINT('',#331);
#185=VERTEX_POINT('',#382);
#186=VERTEX_POINT('',#384);
#187=VERTEX_POINT('',#387);
#188=VERTEX_POINT('',#391);
#189=VERTEX_POINT('',#394);
#190=VERTEX_POINT('',#463);
#191=VERTEX_POINT('',#466);
#192=VERTEX_POINT('',#469);
#193=VERTEX_POINT('',#472);
#194=VERTEX_POINT('',#475);
#195=VERTEX_POINT('',#478);
#196=VERTEX_POINT('',#481);
#197=VERTEX_POINT('',#484);
#198=VERTEX_POINT('',#487);
#199=VERTEX_POINT('',#490);
#200=EDGE_CURVE('',#184,#184,#216,.T.);
#201=EDGE_CURVE('',#185,#185,#217,.T.);
#202=EDGE_CURVE('',#186,#186,#218,.T.);
#203=EDGE_CURVE('',#187,#187,#219,.T.);
#204=EDGE_CURVE('',#188,#188,#220,.T.);
#205=EDGE_CURVE('',#189,#189,#221,.T.);
#206=EDGE_CURVE('',#190,#190,#222,.T.);
#207=EDGE_CURVE('',#191,#191,#223,.T.);
#208=EDGE_CURVE('',#192,#192,#224,.T.);
#209=EDGE_CURVE('',#193,#193,#225,.T.);
#210=EDGE_CURVE('',#194,#194,#226,.T.);
#211=EDGE_CURVE('',#195,#195,#227,.T.);
#212=EDGE_CURVE('',#196,#196,#228,.T.);
#213=EDGE_CURVE('',#197,#197,#229,.T.);
#214=EDGE_CURVE('',#198,#198,#230,.T.);
#215=EDGE_CURVE('',#199,#199,#231,.T.);
#216=CIRCLE('',#233,5.);
#217=CIRCLE('',#234,7.875);
#218=CIRCLE('',#235,7.875);
#219=CIRCLE('',#237,5.875);
#220=CIRCLE('',#240,8.02578649236405);
#221=CIRCLE('',#242,14.);
#222=CIRCLE('',#243,14.);
#223=CIRCLE('',#245,14.5);
#224=CIRCLE('',#247,14.5);
#225=CIRCLE('',#249,14.);
#226=CIRCLE('',#251,10.);
#227=CIRCLE('',#253,8.80352761804101);
#228=CIRCLE('',#255,8.3);
#229=CIRCLE('',#257,8.3);
#230=CIRCLE('',#259,8.5);
#231=CIRCLE('',#261,8.5);
#232=AXIS2_PLACEMENT_3D('',#329,#264,#265);
#233=AXIS2_PLACEMENT_3D('',#330,#266,#267);
#234=AXIS2_PLACEMENT_3D('',#381,#268,#269);
#235=AXIS2_PLACEMENT_3D('',#383,#270,#271);
#236=AXIS2_PLACEMENT_3D('',#385,#272,#273);
#237=AXIS2_PLACEMENT_3D('',#386,#274,#275);
#238=AXIS2_PLACEMENT_3D('',#388,#276,#277);
#239=AXIS2_PLACEMENT_3D('',#389,#278,#279);
#240=AXIS2_PLACEMENT_3D('',#390,#280,#281);
#241=AXIS2_PLACEMENT_3D('',#392,#282,#283);
#242=AXIS2_PLACEMENT_3D('',#393,#284,#285);
#243=AXIS2_PLACEMENT_3D('',#462,#287,#288);
#244=AXIS2_PLACEMENT_3D('',#464,#289,#290);
#245=AXIS2_PLACEMENT_3D('',#465,#291,#292);
#246=AXIS2_PLACEMENT_3D('',#467,#293,#294);
#247=AXIS2_PLACEMENT_3D('',#468,#295,#296);
#248=AXIS2_PLACEMENT_3D('',#470,#297,#298);
#249=AXIS2_PLACEMENT_3D('',#471,#299,#300);
#250=AXIS2_PLACEMENT_3D('',#473,#301,#302);
#251=AXIS2_PLACEMENT_3D('',#474,#303,#304);
#252=AXIS2_PLACEMENT_3D('',#476,#305,#306);
#253=AXIS2_PLACEMENT_3D('',#477,#307,#308);
#254=AXIS2_PLACEMENT_3D('',#479,#309,#310);
#255=AXIS2_PLACEMENT_3D('',#480,#311,#312);
#256=AXIS2_PLACEMENT_3D('',#482,#313,#314);
#257=AXIS2_PLACEMENT_3D('',#483,#315,#316);
#258=AXIS2_PLACEMENT_3D('',#485,#317,#318);
#259=AXIS2_PLACEMENT_3D('',#486,#319,#320);
#260=AXIS2_PLACEMENT_3D('',#488,#321,#322);
#261=AXIS2_PLACEMENT_3D('',#489,#323,#324);
#262=AXIS2_PLACEMENT_3D('',#491,#325,#326);
#263=AXIS2_PLACEMENT_3D('',#492,#327,#328);
#264=DIRECTION('',(0.,0.,1.));
#265=DIRECTION('',(1.,0.,0.));
#266=DIRECTION('',(0.0174524064372835,-0.0697458494953012,0.99741211642316));
#267=DIRECTION('',(0.,-0.997564050259825,-0.0697564737441255));
#268=DIRECTION('',(-1.,0.,0.));
#269=DIRECTION('',(0.,0.,1.));
#270=DIRECTION('',(-1.,0.,0.));
#271=DIRECTION('',(0.,0.,1.));
#272=DIRECTION('',(-1.,0.,0.));
#273=DIRECTION('',(0.,0.,1.));
#274=DIRECTION('',(-1.,0.,0.));
#275=DIRECTION('',(0.,0.,1.));
#276=DIRECTION('',(-1.,0.,0.));
#277=DIRECTION('',(5.5186928029087E-17,0.,1.));
#278=DIRECTION('',(-1.,0.,0.));
#279=DIRECTION('',(0.,0.,1.));
#280=DIRECTION('',(-1.,0.,0.));
#281=DIRECTION('',(0.,0.,1.));
#282=DIRECTION('',(1.,0.,0.));
#283=DIRECTION('',(0.,0.,-1.));
#284=DIRECTION('',(-1.,0.,0.));
#285=DIRECTION('',(0.,0.,1.));
#286=DIRECTION('',(-1.,0.,0.));
#287=DIRECTION('',(-1.,0.,0.));
#288=DIRECTION('',(0.,0.,1.));
#289=DIRECTION('',(-1.,0.,0.));
#290=DIRECTION('',(0.,0.,1.));
#291=DIRECTION('',(-1.,0.,0.));
#292=DIRECTION('',(0.,0.,1.));
#293=DIRECTION('',(1.,0.,0.));
#294=DIRECTION('',(-2.05191539790258E-17,0.,-1.));
#295=DIRECTION('',(-1.,0.,0.));
#296=DIRECTION('',(0.,0.,1.));
#297=DIRECTION('',(-1.,0.,0.));
#298=DIRECTION('',(0.,0.,1.));
#299=DIRECTION('',(-1.,0.,0.));
#300=DIRECTION('',(0.,0.,1.));
#301=DIRECTION('',(-1.,0.,0.));
#302=DIRECTION('',(4.10585438101014E-17,0.,1.));
#303=DIRECTION('',(-1.,0.,0.));
#304=DIRECTION('',(0.,0.,1.));
#305=DIRECTION('',(-1.,0.,0.));
#306=DIRECTION('',(0.,0.,1.));
#307=DIRECTION('',(-1.,0.,0.));
#308=DIRECTION('',(0.,0.,1.));
#309=DIRECTION('',(1.,0.,0.));
#310=DIRECTION('',(-9.27447754198718E-18,0.,-1.));
#311=DIRECTION('',(-1.,0.,0.));
#312=DIRECTION('',(0.,0.,1.));
#313=DIRECTION('',(-1.,0.,0.));
#314=DIRECTION('',(0.,0.,1.));
#315=DIRECTION('',(-1.,0.,0.));
#316=DIRECTION('',(0.,0.,1.));
#317=DIRECTION('',(-1.,0.,0.));
#318=DIRECTION('',(0.,0.,1.));
#319=DIRECTION('',(-1.,0.,0.));
#320=DIRECTION('',(0.,0.,1.));
#321=DIRECTION('',(1.,0.,0.));
#322=DIRECTION('',(5.02001387154422E-17,0.,-1.));
#323=DIRECTION('',(-1.,0.,0.));
#324=DIRECTION('',(0.,0.,1.));
#325=DIRECTION('',(-1.,0.,0.));
#326=DIRECTION('',(0.,0.,1.));
#327=DIRECTION('',(-1.,0.,0.));
#328=DIRECTION('',(8.29975393827574E-17,0.,1.));
#329=CARTESIAN_POINT('',(0.,0.,0.));
#330=CARTESIAN_POINT('',(4.99923847578196,-11.0062320583429,-0.0870494662617863));
#331=CARTESIAN_POINT('',(4.99923847578196,-15.994052309642,-0.435831834982414));
#332=CARTESIAN_POINT('',(4.99923847578196,-15.9940523096421,-0.435831834982414));
#333=CARTESIAN_POINT('',(4.99923847578195,-15.1223886396772,-32.4239364542665));
#334=CARTESIAN_POINT('',(4.99923847578195,16.8657159796069,-31.5522727843017));
#335=CARTESIAN_POINT('',(4.99923847578196,15.9940523096421,0.435831834982414));
#336=CARTESIAN_POINT('',(4.99923847578195,15.1223886396772,32.4239364542665));
#337=CARTESIAN_POINT('',(4.99923847578195,-16.8657159796069,31.5522727843017));
#338=CARTESIAN_POINT('',(4.99923847578196,-15.9940523096421,-0.435831834982414));
#339=CARTESIAN_POINT('',(14.9977154273459,-15.9818781263279,-0.609930767505985));
#340=CARTESIAN_POINT('',(14.9977154273459,-14.7620165913159,-32.5736870201619));
#341=CARTESIAN_POINT('',(14.9977154273459,17.2017396613399,-31.3538254851499));
#342=CARTESIAN_POINT('',(14.9977154273459,15.9818781263279,0.609930767505985));
#343=CARTESIAN_POINT('',(14.9977154273459,14.7620165913159,32.5736870201619));
#344=CARTESIAN_POINT('',(14.9977154273459,-17.2017396613399,31.3538254851499));
#345=CARTESIAN_POINT('',(14.9977154273459,-15.9818781263279,-0.609930767505985));
#346=CARTESIAN_POINT('',(14.9977154273459,-6.00623762372967,0.087633969935269));
#347=CARTESIAN_POINT('',(14.9977154273459,-6.18150556360021,-11.9248412775241));
#348=CARTESIAN_POINT('',(14.9977154273459,5.83096968385913,-12.1001092173946));
#349=CARTESIAN_POINT('',(14.9977154273459,6.00623762372967,-0.087633969935269));
#350=CARTESIAN_POINT('',(14.9977154273459,6.18150556360021,11.9248412775241));
#351=CARTESIAN_POINT('',(14.9977154273459,-5.83096968385913,12.1001092173946));
#352=CARTESIAN_POINT('',(14.9977154273459,-6.00623762372967,0.087633969935269));
#353=CARTESIAN_POINT('',(4.99923847578196,-6.01841180704381,0.261732902458842));
#354=CARTESIAN_POINT('',(4.99923847578195,-6.54187761196149,-11.7750907116288));
#355=CARTESIAN_POINT('',(4.99923847578195,5.49494600212612,-12.2985565165465));
#356=CARTESIAN_POINT('',(4.99923847578196,6.01841180704381,-0.261732902458842));
#357=CARTESIAN_POINT('',(4.99923847578195,6.54187761196149,11.7750907116288));
#358=CARTESIAN_POINT('',(4.99923847578195,-5.49494600212612,12.2985565165465));
#359=CARTESIAN_POINT('',(4.99923847578196,-6.01841180704381,0.261732902458842));
#360=CARTESIAN_POINT('',(-4.99923847578196,-6.03058599035794,0.435831834982413));
#361=CARTESIAN_POINT('',(-4.99923847578197,-6.90224966032278,-11.6253401457335));
#362=CARTESIAN_POINT('',(-4.99923847578197,5.15892232039312,-12.4970038156983));
#363=CARTESIAN_POINT('',(-4.99923847578196,6.03058599035794,-0.435831834982413));
#364=CARTESIAN_POINT('',(-4.99923847578197,6.90224966032278,11.6253401457335));
#365=CARTESIAN_POINT('',(-4.99923847578197,-5.15892232039312,12.4970038156983));
#366=CARTESIAN_POINT('',(-4.99923847578196,-6.03058599035794,0.435831834982413));
#367=CARTESIAN_POINT('',(-4.99923847578196,-16.0062264929562,-0.261732902458842));
#368=CARTESIAN_POINT('',(-4.99923847578197,-15.4827606880385,-32.2741858883713));
#369=CARTESIAN_POINT('',(-4.99923847578197,16.5296922978739,-31.7507200834536));
#370=CARTESIAN_POINT('',(-4.99923847578196,16.0062264929562,0.261732902458842));
#371=CARTESIAN_POINT('',(-4.99923847578197,15.4827606880385,32.2741858883713));
#372=CARTESIAN_POINT('',(-4.99923847578197,-16.5296922978739,31.7507200834536));
#373=CARTESIAN_POINT('',(-4.99923847578196,-16.0062264929562,-0.261732902458842));
#374=CARTESIAN_POINT('',(4.99923847578196,-15.9940523096421,-0.435831834982414));
#375=CARTESIAN_POINT('',(4.99923847578195,-15.1223886396772,-32.4239364542665));
#376=CARTESIAN_POINT('',(4.99923847578195,16.8657159796069,-31.5522727843017));
#377=CARTESIAN_POINT('',(4.99923847578196,15.9940523096421,0.435831834982414));
#378=CARTESIAN_POINT('',(4.99923847578195,15.1223886396772,32.4239364542665));
#379=CARTESIAN_POINT('',(4.99923847578195,-16.8657159796069,31.5522727843017));
#380=CARTESIAN_POINT('',(4.99923847578196,-15.9940523096421,-0.435831834982414));
#381=CARTESIAN_POINT('',(50.0825317547306,0.,0.));
#382=CARTESIAN_POINT('',(50.0825317547306,0.,7.875));
#383=CARTESIAN_POINT('',(66.,0.,0.));
#384=CARTESIAN_POINT('',(66.,0.,7.875));
#385=CARTESIAN_POINT('',(0.,0.,0.));
#386=CARTESIAN_POINT('',(68.,0.,0.));
#387=CARTESIAN_POINT('',(68.,0.,5.875));
#388=CARTESIAN_POINT('',(68.,0.,0.));
#389=CARTESIAN_POINT('',(68.,0.,0.));
#390=CARTESIAN_POINT('',(3.00000000003251,0.,0.));
#391=CARTESIAN_POINT('',(3.00000000003251,0.,8.02578649236405));
#392=CARTESIAN_POINT('',(3.00000000001625,8.02578649237954,0.));
#393=CARTESIAN_POINT('',(8.12867022409209,0.,0.));
#394=CARTESIAN_POINT('',(8.12867022409209,0.,14.));
#395=CARTESIAN_POINT('',(4.66388579825477,7.60292739581385,0.));
#396=CARTESIAN_POINT('',(5.19601904619712,7.60694383419017,0.));
#397=CARTESIAN_POINT('',(5.45993395275514,7.63193208747488,0.));
#398=CARTESIAN_POINT('',(5.98235519173567,7.72798277099016,0.));
#399=CARTESIAN_POINT('',(6.2385378392768,7.79889215226699,0.));
#400=CARTESIAN_POINT('',(6.73114461572208,7.98431449368596,0.));
#401=CARTESIAN_POINT('',(6.97055030585211,8.09998663521546,0.));
#402=CARTESIAN_POINT('',(7.42406429000233,8.37593734946798,0.));
#403=CARTESIAN_POINT('',(7.63482546774886,8.53379730737559,0.));
#404=CARTESIAN_POINT('',(8.02334861160405,8.89053896400619,0.));
#405=CARTESIAN_POINT('',(8.20195145575202,9.0913996229997,0.));
#406=CARTESIAN_POINT('',(8.50894478450557,9.51943563149928,0.));
#407=CARTESIAN_POINT('',(8.63950729691568,9.74804553085774,0.));
#408=CARTESIAN_POINT('',(8.8524772026554,10.2359041100095,0.));
#409=CARTESIAN_POINT('',(8.93167246262642,10.4883348660436,0.));
#410=CARTESIAN_POINT('',(9.03564587235166,11.0036044905954,0.));
#411=CARTESIAN_POINT('',(9.06061997745105,11.2707318149484,0.));
#412=CARTESIAN_POINT('',(9.0540662637267,11.7989935562325,0.));
#413=CARTESIAN_POINT('',(9.02342241023797,12.059773295221,0.));
#414=CARTESIAN_POINT('',(8.90861986834389,12.5747797977411,0.));
#415=CARTESIAN_POINT('',(8.8234422390711,12.8294504368329,0.));
#416=CARTESIAN_POINT('',(8.60752260350552,13.3086583152258,0.));
#417=CARTESIAN_POINT('',(8.47629486823975,13.5364086618025,0.));
#418=CARTESIAN_POINT('',(8.16678076216717,13.9679358345344,0.));
#419=CARTESIAN_POINT('',(7.99135853875909,14.1671174812426,0.));
#420=CARTESIAN_POINT('',(7.60823261661061,14.5260499309081,0.));
#421=CARTESIAN_POINT('',(7.39814315869573,14.6880528383752,0.));
#422=CARTESIAN_POINT('',(6.94823724265668,14.9701813593758,0.));
#423=CARTESIAN_POINT('',(6.71308377316225,15.0877634771469,0.));
#424=CARTESIAN_POINT('',(6.22321667737247,15.2778991477067,0.));
#425=CARTESIAN_POINT('',(5.96563374233627,15.3508282123964,0.));
#426=CARTESIAN_POINT('',(5.44588463420891,15.4460444181396,0.));
#427=CARTESIAN_POINT('',(5.18425335005305,15.4689213326519,0.));
#428=CARTESIAN_POINT('',(4.65752160327654,15.4658361815476,0.));
#429=CARTESIAN_POINT('',(4.3904434596165,15.4390871205949,0.));
#430=CARTESIAN_POINT('',(3.87363665338396,15.3376611420383,0.));
#431=CARTESIAN_POINT('',(3.62161589220266,15.2633259002626,0.));
#432=CARTESIAN_POINT('',(3.13056238447558,15.0665865818483,0.));
#433=CARTESIAN_POINT('',(2.89297012918607,14.9441139672005,0.));
#434=CARTESIAN_POINT('',(2.45045743001129,14.6602092144651,0.));
#435=CARTESIAN_POINT('',(2.24290369176267,14.4977929890228,0.));
#436=CARTESIAN_POINT('',(1.8572075947378,14.1303156416487,0.));
#437=CARTESIAN_POINT('',(1.68499627075373,13.9309330925669,0.));
#438=CARTESIAN_POINT('',(1.38096421297299,13.5015495036081,0.));
#439=CARTESIAN_POINT('',(1.24808710433443,13.2687946310794,0.));
#440=CARTESIAN_POINT('',(1.03328583440114,12.7859807732121,0.));
#441=CARTESIAN_POINT('',(0.95069412403264,12.5362677319106,0.));
#442=CARTESIAN_POINT('',(0.836380929379835,12.0198101245286,0.));
#443=CARTESIAN_POINT('',(0.805574567679941,11.753792034265,0.));
#444=CARTESIAN_POINT('',(0.799478519366392,11.227754635971,0.));
#445=CARTESIAN_POINT('',(0.823831527286279,10.962829053213,0.));
#446=CARTESIAN_POINT('',(0.928649524747201,10.4423732454162,0.));
#447=CARTESIAN_POINT('',(1.00769554515066,10.1916184711955,0.));
#448=CARTESIAN_POINT('',(1.21824648850221,9.70876528729292,0.));
#449=CARTESIAN_POINT('',(1.35164117184749,9.47502185657879,0.));
#450=CARTESIAN_POINT('',(1.6591034356075,9.04855874127717,0.));
#451=CARTESIAN_POINT('',(1.83392333781609,8.85301318877299,0.));
#452=CARTESIAN_POINT('',(2.22531123223743,8.49693393714306,0.));
#453=CARTESIAN_POINT('',(2.44046475480983,8.33861600301552,0.));
#454=CARTESIAN_POINT('',(2.89077319613923,8.07038930972701,0.));
#455=CARTESIAN_POINT('',(3.12816038616586,7.95838038485186,0.));
#456=CARTESIAN_POINT('',(3.62693104421004,7.77772272296009,0.));
#457=CARTESIAN_POINT('',(3.88378200626743,7.71102472430248,0.));
#458=CARTESIAN_POINT('',(4.40146549203877,7.62391448973766,0.));
#459=CARTESIAN_POINT('',(4.66388579825477,7.60292739581385,0.));
#460=CARTESIAN_POINT('',(5.19601904619712,7.60694383419017,0.));
#461=CARTESIAN_POINT('',(0.,0.,0.));
#462=CARTESIAN_POINT('',(38.,0.,0.));
#463=CARTESIAN_POINT('',(38.,0.,14.));
#464=CARTESIAN_POINT('',(0.,0.,0.));
#465=CARTESIAN_POINT('',(38.5,0.,0.));
#466=CARTESIAN_POINT('',(38.5,0.,14.5));
#467=CARTESIAN_POINT('',(38.5,0.,0.));
#468=CARTESIAN_POINT('',(42.5,0.,0.));
#469=CARTESIAN_POINT('',(42.5,0.,14.5));
#470=CARTESIAN_POINT('',(0.,0.,0.));
#471=CARTESIAN_POINT('',(43.,0.,0.));
#472=CARTESIAN_POINT('',(43.,0.,14.));
#473=CARTESIAN_POINT('',(43.,0.,0.));
#474=CARTESIAN_POINT('',(43.,0.,0.));
#475=CARTESIAN_POINT('',(43.,0.,10.));
#476=CARTESIAN_POINT('',(43.,14.,0.));
#477=CARTESIAN_POINT('',(42.6794061914879,0.,0.));
#478=CARTESIAN_POINT('',(42.6794061914879,0.,8.80352761804101));
#479=CARTESIAN_POINT('',(42.6794061914879,0.,0.));
#480=CARTESIAN_POINT('',(43.0657765220036,0.,0.));
#481=CARTESIAN_POINT('',(43.0657765220036,0.,8.3));
#482=CARTESIAN_POINT('',(43.0657765220036,0.,0.));
#483=CARTESIAN_POINT('',(43.4535898384862,0.,0.));
#484=CARTESIAN_POINT('',(43.4535898384862,0.,8.3));
#485=CARTESIAN_POINT('',(0.,0.,0.));
#486=CARTESIAN_POINT('',(44.2,0.,0.));
#487=CARTESIAN_POINT('',(44.2,0.,8.5));
#488=CARTESIAN_POINT('',(44.2,0.,0.));
#489=CARTESIAN_POINT('',(49.,0.,0.));
#490=CARTESIAN_POINT('',(49.,0.,8.5));
#491=CARTESIAN_POINT('',(0.,0.,0.));
#492=CARTESIAN_POINT('',(50.0825317547306,0.,0.));
#493=MECHANICAL_DESIGN_GEOMETRIC_PRESENTATION_REPRESENTATION('',(#53,#54),
#494);
#494=(
GEOMETRIC_REPRESENTATION_CONTEXT(3)
GLOBAL_UNCERTAINTY_ASSIGNED_CONTEXT((#495))
GLOBAL_UNIT_ASSIGNED_CONTEXT((#501,#497,#496))
REPRESENTATION_CONTEXT('AEMR-RP10T3-D32-M16-L43-Z03-H',
'TOP_LEVEL_ASSEMBLY_PART')
);
#495=UNCERTAINTY_MEASURE_WITH_UNIT(LENGTH_MEASURE(2.E-5),#501,
'DISTANCE_ACCURACY_VALUE','Maximum Tolerance applied to model');
#496=(
NAMED_UNIT(*)
SI_UNIT($,.STERADIAN.)
SOLID_ANGLE_UNIT()
);
#497=(
CONVERSION_BASED_UNIT('DEGREE',#499)
NAMED_UNIT(#498)
PLANE_ANGLE_UNIT()
);
#498=DIMENSIONAL_EXPONENTS(0.,0.,0.,0.,0.,0.,0.);
#499=PLANE_ANGLE_MEASURE_WITH_UNIT(PLANE_ANGLE_MEASURE(0.0174532925),#500);
#500=(
NAMED_UNIT(*)
PLANE_ANGLE_UNIT()
SI_UNIT($,.RADIAN.)
);
#501=(
LENGTH_UNIT()
NAMED_UNIT(*)
SI_UNIT(.MILLI.,.METRE.)
);
ENDSEC;
END-ISO-10303-21;
