ISO-10303-21;
HEADER;
/* Generated by software containing ST-Developer
 * from STEP Tools, Inc. (www.steptools.com) 
 */
/* OPTION: using custom schema-name function */

FILE_DESCRIPTION(
/* description */ (''),
/* implementation_level */ '2;1');

FILE_NAME(
/* name */ 'AEMR-RP10T3A-D42-M16-L43-Z05-H.stp',
/* time_stamp */ '2023-10-21T11:55:10+03:00',
/* author */ (''),
/* organization */ (''),
/* preprocessor_version */ 'ST-DEVELOPER v19.4',
/* originating_system */ 'SIEMENS PLM Software NX2306.5001',
/* authorisation */ '');

FILE_SCHEMA (('AUTOMOTIVE_DESIGN { 1 0 10303 214 3 1 1 1 }'));
ENDSEC;

DATA;
#10=PROPERTY_DEFINITION_REPRESENTATION(#14,#12);
#11=PROPERTY_DEFINITION_REPRESENTATION(#15,#13);
#12=REPRESENTATION('',(#16),#532);
#13=REPRESENTATION('',(#17),#532);
#14=PROPERTY_DEFINITION('pmi validation property','',#21);
#15=PROPERTY_DEFINITION('pmi validation property','',#21);
#16=VALUE_REPRESENTATION_ITEM('number of annotations',COUNT_MEASURE(0.));
#17=VALUE_REPRESENTATION_ITEM('number of views',COUNT_MEASURE(0.));
#18=SHAPE_REPRESENTATION_RELATIONSHIP('None',
'relationship between AEMR-RP10T3A-D42-M16-L43-Z05-H-LIGHT_x_t_objects
-None and AEMR-RP10T3A-D42-M16-L43-Z05-H-LIGHT_x_t_objects-None',#30,#19);
#19=ADVANCED_BREP_SHAPE_REPRESENTATION(
'AEMR-RP10T3A-D42-M16-L43-Z05-H-LIGHT_x_t_objects-None',(#49,#50),#532);
#20=SHAPE_DEFINITION_REPRESENTATION(#21,#30);
#21=PRODUCT_DEFINITION_SHAPE('','',#22);
#22=PRODUCT_DEFINITION(' ','',#24,#23);
#23=PRODUCT_DEFINITION_CONTEXT('part definition',#29,'design');
#24=PRODUCT_DEFINITION_FORMATION_WITH_SPECIFIED_SOURCE(' ',' ',#26,
 .NOT_KNOWN.);
#25=PRODUCT_RELATED_PRODUCT_CATEGORY('part','',(#26));
#26=PRODUCT('AEMR-RP10T3A-D42-M16-L43-Z05-H-LIGHT_x_t_objects',
'AEMR-RP10T3A-D42-M16-L43-Z05-H-LIGHT_x_t_objects',' ',(#27));
#27=PRODUCT_CONTEXT(' ',#29,'mechanical');
#28=APPLICATION_PROTOCOL_DEFINITION('international standard',
'automotive_design',2010,#29);
#29=APPLICATION_CONTEXT(
'core data for automotive mechanical design processes');
#30=SHAPE_REPRESENTATION(
'AEMR-RP10T3A-D42-M16-L43-Z05-H-LIGHT_x_t_objects-None',(#254),#532);
#31=DRAUGHTING_PRE_DEFINED_COLOUR('yellow');
#32=(
BOUNDED_SURFACE()
B_SPLINE_SURFACE(3,3,((#482,#483,#484,#485,#486,#487,#488),(#489,#490,#491,
#492,#493,#494,#495),(#496,#497,#498,#499,#500,#501,#502),(#503,#504,#505,
#506,#507,#508,#509),(#510,#511,#512,#513,#514,#515,#516),(#517,#518,#519,
#520,#521,#522,#523),(#524,#525,#526,#527,#528,#529,#530)),
 .UNSPECIFIED.,.T.,.T.,.F.)
B_SPLINE_SURFACE_WITH_KNOTS((1,3,3,3,1),(1,3,3,3,1),(-0.5,0.,0.5,1.,1.5),
(-0.5,0.,0.5,1.,1.5),.UNSPECIFIED.)
GEOMETRIC_REPRESENTATION_ITEM()
RATIONAL_B_SPLINE_SURFACE(((1.,0.333333333333334,0.333333333333334,1.,0.333333333333334,
0.333333333333334,1.),(0.333333333333334,0.111111111111111,0.111111111111111,
0.333333333333334,0.111111111111111,0.111111111111111,0.333333333333334),
(0.333333333333334,0.111111111111111,0.111111111111111,0.333333333333334,
0.111111111111111,0.111111111111111,0.333333333333334),(1.,0.333333333333334,
0.333333333333334,1.,0.333333333333334,0.333333333333334,1.),(0.333333333333334,
0.111111111111111,0.111111111111111,0.333333333333334,0.111111111111111,
0.111111111111111,0.333333333333334),(0.333333333333334,0.111111111111111,
0.111111111111111,0.333333333333334,0.111111111111111,0.111111111111111,
0.333333333333334),(1.,0.333333333333334,0.333333333333334,1.,0.333333333333334,
0.333333333333334,1.)))
REPRESENTATION_ITEM('')
SURFACE()
);
#33=PRESENTATION_LAYER_ASSIGNMENT('1','Layer 1',(#49,#50));
#34=STYLED_ITEM('',(#36),#49);
#35=STYLED_ITEM('',(#37),#50);
#36=PRESENTATION_STYLE_ASSIGNMENT((#38));
#37=PRESENTATION_STYLE_ASSIGNMENT((#39));
#38=SURFACE_STYLE_USAGE(.BOTH.,#40);
#39=SURFACE_STYLE_USAGE(.BOTH.,#41);
#40=SURFACE_SIDE_STYLE('',(#42));
#41=SURFACE_SIDE_STYLE('',(#43));
#42=SURFACE_STYLE_FILL_AREA(#44);
#43=SURFACE_STYLE_FILL_AREA(#45);
#44=FILL_AREA_STYLE('',(#46));
#45=FILL_AREA_STYLE('',(#47));
#46=FILL_AREA_STYLE_COLOUR('',#48);
#47=FILL_AREA_STYLE_COLOUR('',#31);
#48=COLOUR_RGB('silver gray',0.6,0.6,0.6);
#49=MANIFOLD_SOLID_BREP('',#51);
#50=MANIFOLD_SOLID_BREP('',#52);
#51=CLOSED_SHELL('',(#73,#74,#75,#76,#77,#78,#79,#80,#81,#82,#83,#84,#85,
#86,#87,#88,#89,#90));
#52=CLOSED_SHELL('',(#91));
#53=FACE_OUTER_BOUND('',#148,.T.);
#54=FACE_OUTER_BOUND('',#149,.T.);
#55=SURFACE_OF_REVOLUTION('',#57,#56);
#56=AXIS1_PLACEMENT('',#459,#332);
#57=B_SPLINE_CURVE_WITH_KNOTS('',3,(#395,#396,#397,#398,#399,#400,#401,
#402,#403,#404,#405,#406,#407,#408,#409,#410,#411,#412,#413,#414,#415,#416,
#417,#418,#419,#420,#421,#422,#423,#424,#425,#426,#427,#428,#429,#430,#431,
#432,#433,#434,#435,#436,#437,#438,#439,#440,#441,#442,#443,#444,#445,#446,
#447,#448,#449,#450,#451,#452,#453,#454,#455,#456,#457,#458),
 .UNSPECIFIED.,.T.,.F.,(2,2,2,2,2,2,2,2,2,2,2,2,2,2,2,2,2,2,2,2,2,2,2,2,
2,2,2,2,2,2,2,2,2,2),(-0.03125,0.,0.0625,0.09375,0.125,0.15625,0.1875,0.21875,
0.25,0.28125,0.3125,0.34375,0.375,0.40625,0.4375,0.46875,0.5,0.53125,0.5625,
0.59375,0.625,0.65625,0.6875,0.71875,0.75,0.78125,0.8125,0.84375,0.875,
0.90625,0.9375,0.96875,1.,1.0625),.UNSPECIFIED.);
#58=CYLINDRICAL_SURFACE('',#265,14.5);
#59=CYLINDRICAL_SURFACE('',#269,14.);
#60=CYLINDRICAL_SURFACE('',#281,7.875);
#61=CYLINDRICAL_SURFACE('',#285,8.5);
#62=CYLINDRICAL_SURFACE('',#288,8.3);
#63=PLANE('',#261);
#64=PLANE('',#275);
#65=PLANE('',#277);
#66=CONICAL_SURFACE('',#259,8.80352761804101,74.9999999999995);
#67=CONICAL_SURFACE('',#263,14.,45.0000000000007);
#68=CONICAL_SURFACE('',#267,14.5,44.9999999999992);
#69=CONICAL_SURFACE('',#273,14.9046106882113,19.9999999999997);
#70=CONICAL_SURFACE('',#279,5.875,45.0000000000002);
#71=CONICAL_SURFACE('',#283,7.875,30.0000000000005);
#72=CONICAL_SURFACE('',#287,8.5,15.);
#73=ADVANCED_FACE('',(#94,#95),#92,.F.);
#74=ADVANCED_FACE('',(#96,#97),#66,.F.);
#75=ADVANCED_FACE('',(#98,#99),#63,.F.);
#76=ADVANCED_FACE('',(#100,#101),#67,.T.);
#77=ADVANCED_FACE('',(#102,#103),#58,.T.);
#78=ADVANCED_FACE('',(#104,#105),#68,.T.);
#79=ADVANCED_FACE('',(#106,#107),#59,.T.);
#80=ADVANCED_FACE('',(#108,#109),#93,.F.);
#81=ADVANCED_FACE('',(#110,#111),#69,.T.);
#82=ADVANCED_FACE('',(#112,#113),#55,.T.);
#83=ADVANCED_FACE('',(#53),#64,.F.);
#84=ADVANCED_FACE('',(#54),#65,.F.);
#85=ADVANCED_FACE('',(#114,#115),#70,.T.);
#86=ADVANCED_FACE('',(#116,#117),#60,.T.);
#87=ADVANCED_FACE('',(#118,#119),#71,.T.);
#88=ADVANCED_FACE('',(#120,#121),#61,.T.);
#89=ADVANCED_FACE('',(#122,#123),#72,.T.);
#90=ADVANCED_FACE('',(#124,#125),#62,.T.);
#91=ADVANCED_FACE('',(#126,#127),#32,.F.);
#92=TOROIDAL_SURFACE('',#257,8.7,0.4);
#93=TOROIDAL_SURFACE('',#271,29.,15.);
#94=FACE_BOUND('',#128,.T.);
#95=FACE_BOUND('',#129,.T.);
#96=FACE_BOUND('',#130,.T.);
#97=FACE_BOUND('',#131,.T.);
#98=FACE_BOUND('',#132,.T.);
#99=FACE_BOUND('',#133,.T.);
#100=FACE_BOUND('',#134,.T.);
#101=FACE_BOUND('',#135,.T.);
#102=FACE_BOUND('',#136,.T.);
#103=FACE_BOUND('',#137,.T.);
#104=FACE_BOUND('',#138,.T.);
#105=FACE_BOUND('',#139,.T.);
#106=FACE_BOUND('',#140,.T.);
#107=FACE_BOUND('',#141,.T.);
#108=FACE_BOUND('',#142,.T.);
#109=FACE_BOUND('',#143,.T.);
#110=FACE_BOUND('',#144,.T.);
#111=FACE_BOUND('',#145,.T.);
#112=FACE_BOUND('',#146,.T.);
#113=FACE_BOUND('',#147,.T.);
#114=FACE_BOUND('',#150,.T.);
#115=FACE_BOUND('',#151,.T.);
#116=FACE_BOUND('',#152,.T.);
#117=FACE_BOUND('',#153,.T.);
#118=FACE_BOUND('',#154,.T.);
#119=FACE_BOUND('',#155,.T.);
#120=FACE_BOUND('',#156,.T.);
#121=FACE_BOUND('',#157,.T.);
#122=FACE_BOUND('',#158,.T.);
#123=FACE_BOUND('',#159,.T.);
#124=FACE_BOUND('',#160,.T.);
#125=FACE_BOUND('',#161,.T.);
#126=FACE_BOUND('',#162,.T.);
#127=FACE_BOUND('',#163,.T.);
#128=EDGE_LOOP('',(#164));
#129=EDGE_LOOP('',(#165));
#130=EDGE_LOOP('',(#166));
#131=EDGE_LOOP('',(#167));
#132=EDGE_LOOP('',(#168));
#133=EDGE_LOOP('',(#169));
#134=EDGE_LOOP('',(#170));
#135=EDGE_LOOP('',(#171));
#136=EDGE_LOOP('',(#172));
#137=EDGE_LOOP('',(#173));
#138=EDGE_LOOP('',(#174));
#139=EDGE_LOOP('',(#175));
#140=EDGE_LOOP('',(#176));
#141=EDGE_LOOP('',(#177));
#142=EDGE_LOOP('',(#178));
#143=EDGE_LOOP('',(#179));
#144=EDGE_LOOP('',(#180));
#145=EDGE_LOOP('',(#181));
#146=EDGE_LOOP('',(#182));
#147=EDGE_LOOP('',(#183));
#148=EDGE_LOOP('',(#184));
#149=EDGE_LOOP('',(#185));
#150=EDGE_LOOP('',(#186));
#151=EDGE_LOOP('',(#187));
#152=EDGE_LOOP('',(#188));
#153=EDGE_LOOP('',(#189));
#154=EDGE_LOOP('',(#190));
#155=EDGE_LOOP('',(#191));
#156=EDGE_LOOP('',(#192));
#157=EDGE_LOOP('',(#193));
#158=EDGE_LOOP('',(#194));
#159=EDGE_LOOP('',(#195));
#160=EDGE_LOOP('',(#196));
#161=EDGE_LOOP('',(#197));
#162=EDGE_LOOP('',(#198));
#163=EDGE_LOOP('',(#199));
#164=ORIENTED_EDGE('',*,*,#218,.F.);
#165=ORIENTED_EDGE('',*,*,#219,.T.);
#166=ORIENTED_EDGE('',*,*,#220,.F.);
#167=ORIENTED_EDGE('',*,*,#218,.T.);
#168=ORIENTED_EDGE('',*,*,#221,.F.);
#169=ORIENTED_EDGE('',*,*,#220,.T.);
#170=ORIENTED_EDGE('',*,*,#222,.F.);
#171=ORIENTED_EDGE('',*,*,#221,.T.);
#172=ORIENTED_EDGE('',*,*,#223,.F.);
#173=ORIENTED_EDGE('',*,*,#222,.T.);
#174=ORIENTED_EDGE('',*,*,#224,.F.);
#175=ORIENTED_EDGE('',*,*,#223,.T.);
#176=ORIENTED_EDGE('',*,*,#225,.F.);
#177=ORIENTED_EDGE('',*,*,#224,.T.);
#178=ORIENTED_EDGE('',*,*,#226,.F.);
#179=ORIENTED_EDGE('',*,*,#225,.T.);
#180=ORIENTED_EDGE('',*,*,#227,.F.);
#181=ORIENTED_EDGE('',*,*,#226,.T.);
#182=ORIENTED_EDGE('',*,*,#228,.F.);
#183=ORIENTED_EDGE('',*,*,#227,.T.);
#184=ORIENTED_EDGE('',*,*,#228,.T.);
#185=ORIENTED_EDGE('',*,*,#229,.F.);
#186=ORIENTED_EDGE('',*,*,#230,.F.);
#187=ORIENTED_EDGE('',*,*,#229,.T.);
#188=ORIENTED_EDGE('',*,*,#231,.F.);
#189=ORIENTED_EDGE('',*,*,#230,.T.);
#190=ORIENTED_EDGE('',*,*,#232,.F.);
#191=ORIENTED_EDGE('',*,*,#231,.T.);
#192=ORIENTED_EDGE('',*,*,#233,.F.);
#193=ORIENTED_EDGE('',*,*,#232,.T.);
#194=ORIENTED_EDGE('',*,*,#234,.F.);
#195=ORIENTED_EDGE('',*,*,#233,.T.);
#196=ORIENTED_EDGE('',*,*,#219,.F.);
#197=ORIENTED_EDGE('',*,*,#234,.T.);
#198=ORIENTED_EDGE('',*,*,#235,.T.);
#199=ORIENTED_EDGE('',*,*,#235,.F.);
#200=VERTEX_POINT('',#365);
#201=VERTEX_POINT('',#367);
#202=VERTEX_POINT('',#370);
#203=VERTEX_POINT('',#373);
#204=VERTEX_POINT('',#376);
#205=VERTEX_POINT('',#379);
#206=VERTEX_POINT('',#382);
#207=VERTEX_POINT('',#385);
#208=VERTEX_POINT('',#388);
#209=VERTEX_POINT('',#391);
#210=VERTEX_POINT('',#394);
#211=VERTEX_POINT('',#462);
#212=VERTEX_POINT('',#465);
#213=VERTEX_POINT('',#468);
#214=VERTEX_POINT('',#471);
#215=VERTEX_POINT('',#474);
#216=VERTEX_POINT('',#477);
#217=VERTEX_POINT('',#481);
#218=EDGE_CURVE('',#200,#200,#236,.T.);
#219=EDGE_CURVE('',#201,#201,#237,.T.);
#220=EDGE_CURVE('',#202,#202,#238,.T.);
#221=EDGE_CURVE('',#203,#203,#239,.T.);
#222=EDGE_CURVE('',#204,#204,#240,.T.);
#223=EDGE_CURVE('',#205,#205,#241,.T.);
#224=EDGE_CURVE('',#206,#206,#242,.T.);
#225=EDGE_CURVE('',#207,#207,#243,.T.);
#226=EDGE_CURVE('',#208,#208,#244,.T.);
#227=EDGE_CURVE('',#209,#209,#245,.T.);
#228=EDGE_CURVE('',#210,#210,#246,.T.);
#229=EDGE_CURVE('',#211,#211,#247,.T.);
#230=EDGE_CURVE('',#212,#212,#248,.T.);
#231=EDGE_CURVE('',#213,#213,#249,.T.);
#232=EDGE_CURVE('',#214,#214,#250,.T.);
#233=EDGE_CURVE('',#215,#215,#251,.T.);
#234=EDGE_CURVE('',#216,#216,#252,.T.);
#235=EDGE_CURVE('',#217,#217,#253,.T.);
#236=CIRCLE('',#255,8.80352761804101);
#237=CIRCLE('',#256,8.3);
#238=CIRCLE('',#258,10.);
#239=CIRCLE('',#260,14.);
#240=CIRCLE('',#262,14.5);
#241=CIRCLE('',#264,14.5);
#242=CIRCLE('',#266,14.);
#243=CIRCLE('',#268,14.);
#244=CIRCLE('',#270,14.9046106882113);
#245=CIRCLE('',#272,19.7074510107872);
#246=CIRCLE('',#274,12.449729753182);
#247=CIRCLE('',#276,5.875);
#248=CIRCLE('',#278,7.875);
#249=CIRCLE('',#280,7.875);
#250=CIRCLE('',#282,8.5);
#251=CIRCLE('',#284,8.5);
#252=CIRCLE('',#286,8.3);
#253=CIRCLE('',#289,5.);
#254=AXIS2_PLACEMENT_3D('',#363,#290,#291);
#255=AXIS2_PLACEMENT_3D('',#364,#292,#293);
#256=AXIS2_PLACEMENT_3D('',#366,#294,#295);
#257=AXIS2_PLACEMENT_3D('',#368,#296,#297);
#258=AXIS2_PLACEMENT_3D('',#369,#298,#299);
#259=AXIS2_PLACEMENT_3D('',#371,#300,#301);
#260=AXIS2_PLACEMENT_3D('',#372,#302,#303);
#261=AXIS2_PLACEMENT_3D('',#374,#304,#305);
#262=AXIS2_PLACEMENT_3D('',#375,#306,#307);
#263=AXIS2_PLACEMENT_3D('',#377,#308,#309);
#264=AXIS2_PLACEMENT_3D('',#378,#310,#311);
#265=AXIS2_PLACEMENT_3D('',#380,#312,#313);
#266=AXIS2_PLACEMENT_3D('',#381,#314,#315);
#267=AXIS2_PLACEMENT_3D('',#383,#316,#317);
#268=AXIS2_PLACEMENT_3D('',#384,#318,#319);
#269=AXIS2_PLACEMENT_3D('',#386,#320,#321);
#270=AXIS2_PLACEMENT_3D('',#387,#322,#323);
#271=AXIS2_PLACEMENT_3D('',#389,#324,#325);
#272=AXIS2_PLACEMENT_3D('',#390,#326,#327);
#273=AXIS2_PLACEMENT_3D('',#392,#328,#329);
#274=AXIS2_PLACEMENT_3D('',#393,#330,#331);
#275=AXIS2_PLACEMENT_3D('',#460,#333,#334);
#276=AXIS2_PLACEMENT_3D('',#461,#335,#336);
#277=AXIS2_PLACEMENT_3D('',#463,#337,#338);
#278=AXIS2_PLACEMENT_3D('',#464,#339,#340);
#279=AXIS2_PLACEMENT_3D('',#466,#341,#342);
#280=AXIS2_PLACEMENT_3D('',#467,#343,#344);
#281=AXIS2_PLACEMENT_3D('',#469,#345,#346);
#282=AXIS2_PLACEMENT_3D('',#470,#347,#348);
#283=AXIS2_PLACEMENT_3D('',#472,#349,#350);
#284=AXIS2_PLACEMENT_3D('',#473,#351,#352);
#285=AXIS2_PLACEMENT_3D('',#475,#353,#354);
#286=AXIS2_PLACEMENT_3D('',#476,#355,#356);
#287=AXIS2_PLACEMENT_3D('',#478,#357,#358);
#288=AXIS2_PLACEMENT_3D('',#479,#359,#360);
#289=AXIS2_PLACEMENT_3D('',#480,#361,#362);
#290=DIRECTION('',(0.,0.,1.));
#291=DIRECTION('',(1.,0.,0.));
#292=DIRECTION('',(-1.,0.,0.));
#293=DIRECTION('',(0.,0.,1.));
#294=DIRECTION('',(-1.,0.,0.));
#295=DIRECTION('',(0.,0.,1.));
#296=DIRECTION('',(-1.,0.,0.));
#297=DIRECTION('',(0.,0.,1.));
#298=DIRECTION('',(-1.,0.,0.));
#299=DIRECTION('',(0.,0.,1.));
#300=DIRECTION('',(1.,0.,0.));
#301=DIRECTION('',(-9.2744775419874E-18,0.,-1.));
#302=DIRECTION('',(-1.,0.,0.));
#303=DIRECTION('',(0.,0.,1.));
#304=DIRECTION('',(-1.,0.,0.));
#305=DIRECTION('',(0.,0.,1.));
#306=DIRECTION('',(-1.,0.,0.));
#307=DIRECTION('',(0.,0.,1.));
#308=DIRECTION('',(-1.,0.,0.));
#309=DIRECTION('',(4.1058543810101E-17,0.,1.));
#310=DIRECTION('',(-1.,0.,0.));
#311=DIRECTION('',(0.,0.,1.));
#312=DIRECTION('',(-1.,0.,0.));
#313=DIRECTION('',(0.,0.,1.));
#314=DIRECTION('',(-1.,0.,0.));
#315=DIRECTION('',(0.,0.,1.));
#316=DIRECTION('',(1.,0.,0.));
#317=DIRECTION('',(-2.05191539790264E-17,0.,-1.));
#318=DIRECTION('',(-1.,0.,0.));
#319=DIRECTION('',(0.,0.,1.));
#320=DIRECTION('',(-1.,0.,0.));
#321=DIRECTION('',(0.,0.,1.));
#322=DIRECTION('',(-1.,0.,0.));
#323=DIRECTION('',(0.,0.,1.));
#324=DIRECTION('',(-1.,0.,0.));
#325=DIRECTION('',(0.,0.,1.));
#326=DIRECTION('',(-1.,0.,0.));
#327=DIRECTION('',(0.,0.,1.));
#328=DIRECTION('',(-1.,0.,0.));
#329=DIRECTION('',(-4.57861876838395E-17,0.,1.));
#330=DIRECTION('',(-1.,0.,0.));
#331=DIRECTION('',(0.,0.,1.));
#332=DIRECTION('',(-1.,0.,0.));
#333=DIRECTION('',(1.,0.,0.));
#334=DIRECTION('',(0.,0.,-1.));
#335=DIRECTION('',(-1.,0.,0.));
#336=DIRECTION('',(0.,0.,1.));
#337=DIRECTION('',(-1.,0.,0.));
#338=DIRECTION('',(0.,0.,1.));
#339=DIRECTION('',(-1.,0.,0.));
#340=DIRECTION('',(0.,0.,1.));
#341=DIRECTION('',(-1.,0.,0.));
#342=DIRECTION('',(5.51869280290865E-17,0.,1.));
#343=DIRECTION('',(-1.,0.,0.));
#344=DIRECTION('',(0.,0.,1.));
#345=DIRECTION('',(-1.,0.,0.));
#346=DIRECTION('',(0.,0.,1.));
#347=DIRECTION('',(-1.,0.,0.));
#348=DIRECTION('',(0.,0.,1.));
#349=DIRECTION('',(-1.,0.,0.));
#350=DIRECTION('',(7.11407480423617E-17,0.,1.));
#351=DIRECTION('',(-1.,0.,0.));
#352=DIRECTION('',(0.,0.,1.));
#353=DIRECTION('',(-1.,0.,0.));
#354=DIRECTION('',(0.,0.,1.));
#355=DIRECTION('',(-1.,0.,0.));
#356=DIRECTION('',(0.,0.,1.));
#357=DIRECTION('',(1.,0.,0.));
#358=DIRECTION('',(5.02001387154426E-17,0.,-1.));
#359=DIRECTION('',(-1.,0.,0.));
#360=DIRECTION('',(0.,0.,1.));
#361=DIRECTION('',(0.,0.,1.));
#362=DIRECTION('',(1.,0.,0.));
#363=CARTESIAN_POINT('',(0.,0.,0.));
#364=CARTESIAN_POINT('',(42.6794061914879,0.,0.));
#365=CARTESIAN_POINT('',(42.6794061914879,0.,8.80352761804101));
#366=CARTESIAN_POINT('',(43.0657765220036,0.,0.));
#367=CARTESIAN_POINT('',(43.0657765220036,0.,8.3));
#368=CARTESIAN_POINT('',(43.0657765220036,0.,0.));
#369=CARTESIAN_POINT('',(43.,0.,0.));
#370=CARTESIAN_POINT('',(43.,0.,10.));
#371=CARTESIAN_POINT('',(42.6794061914879,0.,0.));
#372=CARTESIAN_POINT('',(43.,0.,0.));
#373=CARTESIAN_POINT('',(43.,0.,14.));
#374=CARTESIAN_POINT('',(43.,14.,0.));
#375=CARTESIAN_POINT('',(42.5,0.,0.));
#376=CARTESIAN_POINT('',(42.5,0.,14.5));
#377=CARTESIAN_POINT('',(43.,0.,0.));
#378=CARTESIAN_POINT('',(38.5,0.,0.));
#379=CARTESIAN_POINT('',(38.5,0.,14.5));
#380=CARTESIAN_POINT('',(0.,0.,0.));
#381=CARTESIAN_POINT('',(38.,0.,0.));
#382=CARTESIAN_POINT('',(38.,0.,14.));
#383=CARTESIAN_POINT('',(38.5,0.,0.));
#384=CARTESIAN_POINT('',(25.1481939339579,0.,0.));
#385=CARTESIAN_POINT('',(25.1481939339579,0.,14.));
#386=CARTESIAN_POINT('',(0.,0.,0.));
#387=CARTESIAN_POINT('',(20.017891784073,0.,0.));
#388=CARTESIAN_POINT('',(20.017891784073,0.,14.9046106882113));
#389=CARTESIAN_POINT('',(25.1481939339579,0.,0.));
#390=CARTESIAN_POINT('',(6.82219644854956,0.,0.));
#391=CARTESIAN_POINT('',(6.82219644854956,0.,19.7074510107872));
#392=CARTESIAN_POINT('',(20.017891784073,0.,0.));
#393=CARTESIAN_POINT('',(3.00000000002378,0.,0.));
#394=CARTESIAN_POINT('',(3.00000000002378,0.,12.449729753182));
#395=CARTESIAN_POINT('',(0.871689827276746,16.2976536811956,0.));
#396=CARTESIAN_POINT('',(0.871689827276746,15.482612073607,0.));
#397=CARTESIAN_POINT('',(0.982189858965357,14.9430460895266,0.));
#398=CARTESIAN_POINT('',(1.29413117153229,14.2025574682691,0.));
#399=CARTESIAN_POINT('',(1.42423682934542,13.9630427028108,0.));
#400=CARTESIAN_POINT('',(1.72772250863827,13.5171319134928,0.));
#401=CARTESIAN_POINT('',(1.89957919879143,13.3117720938207,0.));
#402=CARTESIAN_POINT('',(2.28277184249777,12.9355888720238,0.));
#403=CARTESIAN_POINT('',(2.49619935286335,12.7639538074019,0.));
#404=CARTESIAN_POINT('',(2.94532795664001,12.4702039595748,0.));
#405=CARTESIAN_POINT('',(3.18260139667073,12.3460080821201,0.));
#406=CARTESIAN_POINT('',(3.68281151366246,12.1434115444872,0.));
#407=CARTESIAN_POINT('',(3.94389910798304,12.0664046754612,0.));
#408=CARTESIAN_POINT('',(4.46979499947922,11.9648419143325,0.));
#409=CARTESIAN_POINT('',(4.73758220734518,11.939191606975,0.));
#410=CARTESIAN_POINT('',(5.28030571803556,11.9403513022793,0.));
#411=CARTESIAN_POINT('',(5.5473571373249,11.9670532673626,0.));
#412=CARTESIAN_POINT('',(6.07314138778978,12.0708706995752,0.));
#413=CARTESIAN_POINT('',(6.33457384610475,12.149242106985,0.));
#414=CARTESIAN_POINT('',(6.83316368668551,12.3536874092723,0.));
#415=CARTESIAN_POINT('',(7.07000571657094,12.4788686045944,0.));
#416=CARTESIAN_POINT('',(7.51875801034061,12.7751959907197,0.));
#417=CARTESIAN_POINT('',(7.73120436550686,12.9476984594207,0.));
#418=CARTESIAN_POINT('',(8.11231753452856,13.3251751242352,0.));
#419=CARTESIAN_POINT('',(8.28357010814078,13.5315227908426,0.));
#420=CARTESIAN_POINT('',(8.58613744831592,13.9806498374065,0.));
#421=CARTESIAN_POINT('',(8.71406671496994,14.2190092943051,0.));
#422=CARTESIAN_POINT('',(8.91979409003152,14.7135965127759,0.));
#423=CARTESIAN_POINT('',(8.99896714713606,14.9737242841917,0.));
#424=CARTESIAN_POINT('',(9.10365296580617,15.503645573998,0.));
#425=CARTESIAN_POINT('',(9.12913329350085,15.7703443655056,0.));
#426=CARTESIAN_POINT('',(9.12744692457483,16.3071484806168,0.));
#427=CARTESIAN_POINT('',(9.09937557540275,16.5796223001876,0.));
#428=CARTESIAN_POINT('',(8.99167333909281,17.1056609630932,0.));
#429=CARTESIAN_POINT('',(8.91248238391906,17.361537583404,0.));
#430=CARTESIAN_POINT('',(8.70282232508928,17.8588367057043,0.));
#431=CARTESIAN_POINT('',(8.57263556695428,18.0979807878577,0.));
#432=CARTESIAN_POINT('',(8.27188554888619,18.5411662933112,0.));
#433=CARTESIAN_POINT('',(8.09976580331664,18.7483474124642,0.));
#434=CARTESIAN_POINT('',(7.71348679991369,19.1292539734244,0.));
#435=CARTESIAN_POINT('',(7.5047856957414,19.2978084246789,0.));
#436=CARTESIAN_POINT('',(7.05747572204213,19.5928300776745,0.));
#437=CARTESIAN_POINT('',(6.81598222566668,19.7203029266037,0.));
#438=CARTESIAN_POINT('',(6.31725889000983,19.9238479849131,0.));
#439=CARTESIAN_POINT('',(6.06066842772804,20.0004606000478,0.));
#440=CARTESIAN_POINT('',(5.53313784971379,20.1037416730497,0.));
#441=CARTESIAN_POINT('',(5.26070170449832,20.1298498149961,0.));
#442=CARTESIAN_POINT('',(4.72429956193821,20.128880078709,0.));
#443=CARTESIAN_POINT('',(4.45757776752169,20.1026355998956,0.));
#444=CARTESIAN_POINT('',(3.92716678219598,19.9973379439173,0.));
#445=CARTESIAN_POINT('',(3.66760464514268,19.9186528694369,0.));
#446=CARTESIAN_POINT('',(3.17240344222214,19.7145256689918,0.));
#447=CARTESIAN_POINT('',(2.93314721152979,19.5876663840618,0.));
#448=CARTESIAN_POINT('',(2.48233624895441,19.2882422163947,0.));
#449=CARTESIAN_POINT('',(2.27465083125539,19.1186993747433,0.));
#450=CARTESIAN_POINT('',(1.89388450005606,18.7408873325461,0.));
#451=CARTESIAN_POINT('',(1.71940151826096,18.53004231722,0.));
#452=CARTESIAN_POINT('',(1.41911916009066,18.0840157256488,0.));
#453=CARTESIAN_POINT('',(1.29193256502752,17.8482833521156,0.));
#454=CARTESIAN_POINT('',(1.08395250532594,17.3511122872055,0.));
#455=CARTESIAN_POINT('',(1.00412525752658,17.0900843443363,0.));
#456=CARTESIAN_POINT('',(0.898648352847568,16.5647315384329,0.));
#457=CARTESIAN_POINT('',(0.871689827276746,16.2976536811956,0.));
#458=CARTESIAN_POINT('',(0.871689827276746,15.482612073607,0.));
#459=CARTESIAN_POINT('',(0.,0.,0.));
#460=CARTESIAN_POINT('',(3.00000000001189,12.449729753195,0.));
#461=CARTESIAN_POINT('',(68.,0.,0.));
#462=CARTESIAN_POINT('',(68.,0.,5.875));
#463=CARTESIAN_POINT('',(68.,0.,0.));
#464=CARTESIAN_POINT('',(66.,0.,0.));
#465=CARTESIAN_POINT('',(66.,0.,7.875));
#466=CARTESIAN_POINT('',(68.,0.,0.));
#467=CARTESIAN_POINT('',(50.0825317547305,0.,0.));
#468=CARTESIAN_POINT('',(50.0825317547305,0.,7.875));
#469=CARTESIAN_POINT('',(0.,0.,0.));
#470=CARTESIAN_POINT('',(49.,0.,0.));
#471=CARTESIAN_POINT('',(49.,0.,8.5));
#472=CARTESIAN_POINT('',(50.0825317547305,0.,0.));
#473=CARTESIAN_POINT('',(44.2,0.,0.));
#474=CARTESIAN_POINT('',(44.2,0.,8.5));
#475=CARTESIAN_POINT('',(0.,0.,0.));
#476=CARTESIAN_POINT('',(43.4535898384862,0.,0.));
#477=CARTESIAN_POINT('',(43.4535898384862,0.,8.3));
#478=CARTESIAN_POINT('',(44.2,0.,0.));
#479=CARTESIAN_POINT('',(0.,0.,0.));
#480=CARTESIAN_POINT('',(5.,-15.90443068,2.));
#481=CARTESIAN_POINT('',(10.,-15.90443068,2.));
#482=CARTESIAN_POINT('',(10.,-15.90443068,2.));
#483=CARTESIAN_POINT('',(10.,-19.90443068,-29.80886136));
#484=CARTESIAN_POINT('',(10.,11.90443068,-33.8088613599999));
#485=CARTESIAN_POINT('',(10.,15.90443068,-2.));
#486=CARTESIAN_POINT('',(10.,19.90443068,29.80886136));
#487=CARTESIAN_POINT('',(10.,-11.90443068,33.8088613599999));
#488=CARTESIAN_POINT('',(10.,-15.90443068,2.));
#489=CARTESIAN_POINT('',(10.,-5.90443068,2.));
#490=CARTESIAN_POINT('',(10.,-9.90443068000001,-9.80886136));
#491=CARTESIAN_POINT('',(10.,1.90443068,-13.80886136));
#492=CARTESIAN_POINT('',(10.,5.90443068,-2.));
#493=CARTESIAN_POINT('',(10.,9.90443068000001,9.80886136));
#494=CARTESIAN_POINT('',(10.,-1.90443068,13.80886136));
#495=CARTESIAN_POINT('',(10.,-5.90443068,2.));
#496=CARTESIAN_POINT('',(-5.10076676829453E-16,-5.90443068,2.));
#497=CARTESIAN_POINT('',(-5.10076676829455E-16,-9.90443068000001,-9.80886136));
#498=CARTESIAN_POINT('',(-5.10076676829455E-16,1.90443068,-13.80886136));
#499=CARTESIAN_POINT('',(-5.10076676829453E-16,5.90443068,-2.));
#500=CARTESIAN_POINT('',(-5.10076676829455E-16,9.90443068000001,9.80886136));
#501=CARTESIAN_POINT('',(-5.10076676829455E-16,-1.90443068,13.80886136));
#502=CARTESIAN_POINT('',(-5.10076676829453E-16,-5.90443068,2.));
#503=CARTESIAN_POINT('',(-1.7347234759768E-15,-15.90443068,2.));
#504=CARTESIAN_POINT('',(-1.73472347597681E-15,-19.90443068,-29.80886136));
#505=CARTESIAN_POINT('',(-1.73472347597681E-15,11.90443068,-33.8088613599999));
#506=CARTESIAN_POINT('',(-1.7347234759768E-15,15.90443068,-2.));
#507=CARTESIAN_POINT('',(-1.73472347597681E-15,19.90443068,29.80886136));
#508=CARTESIAN_POINT('',(-1.73472347597681E-15,-11.90443068,33.8088613599999));
#509=CARTESIAN_POINT('',(-1.7347234759768E-15,-15.90443068,2.));
#510=CARTESIAN_POINT('',(-2.95937027512416E-15,-25.90443068,2.));
#511=CARTESIAN_POINT('',(-2.95937027512416E-15,-29.90443068,-49.8088613600001));
#512=CARTESIAN_POINT('',(-2.95937027512416E-15,21.90443068,-53.8088613600001));
#513=CARTESIAN_POINT('',(-2.95937027512416E-15,25.90443068,-2.));
#514=CARTESIAN_POINT('',(-2.95937027512416E-15,29.90443068,49.8088613600001));
#515=CARTESIAN_POINT('',(-2.95937027512416E-15,-21.90443068,53.8088613600001));
#516=CARTESIAN_POINT('',(-2.95937027512416E-15,-25.90443068,2.));
#517=CARTESIAN_POINT('',(10.,-25.90443068,2.));
#518=CARTESIAN_POINT('',(10.,-29.90443068,-49.8088613600001));
#519=CARTESIAN_POINT('',(10.,21.90443068,-53.8088613600001));
#520=CARTESIAN_POINT('',(10.,25.90443068,-2.));
#521=CARTESIAN_POINT('',(10.,29.90443068,49.8088613600001));
#522=CARTESIAN_POINT('',(10.,-21.90443068,53.8088613600001));
#523=CARTESIAN_POINT('',(10.,-25.90443068,2.));
#524=CARTESIAN_POINT('',(10.,-15.90443068,2.));
#525=CARTESIAN_POINT('',(10.,-19.90443068,-29.80886136));
#526=CARTESIAN_POINT('',(10.,11.90443068,-33.8088613599999));
#527=CARTESIAN_POINT('',(10.,15.90443068,-2.));
#528=CARTESIAN_POINT('',(10.,19.90443068,29.80886136));
#529=CARTESIAN_POINT('',(10.,-11.90443068,33.8088613599999));
#530=CARTESIAN_POINT('',(10.,-15.90443068,2.));
#531=MECHANICAL_DESIGN_GEOMETRIC_PRESENTATION_REPRESENTATION('',(#34,#35),
#532);
#532=(
GEOMETRIC_REPRESENTATION_CONTEXT(3)
GLOBAL_UNCERTAINTY_ASSIGNED_CONTEXT((#533))
GLOBAL_UNIT_ASSIGNED_CONTEXT((#539,#535,#534))
REPRESENTATION_CONTEXT('AEMR-RP10T3A-D42-M16-L43-Z05-H',
'TOP_LEVEL_ASSEMBLY_PART')
);
#533=UNCERTAINTY_MEASURE_WITH_UNIT(LENGTH_MEASURE(2.E-5),#539,
'DISTANCE_ACCURACY_VALUE','Maximum Tolerance applied to model');
#534=(
NAMED_UNIT(*)
SI_UNIT($,.STERADIAN.)
SOLID_ANGLE_UNIT()
);
#535=(
CONVERSION_BASED_UNIT('DEGREE',#537)
NAMED_UNIT(#536)
PLANE_ANGLE_UNIT()
);
#536=DIMENSIONAL_EXPONENTS(0.,0.,0.,0.,0.,0.,0.);
#537=PLANE_ANGLE_MEASURE_WITH_UNIT(PLANE_ANGLE_MEASURE(0.0174532925),#538);
#538=(
NAMED_UNIT(*)
PLANE_ANGLE_UNIT()
SI_UNIT($,.RADIAN.)
);
#539=(
LENGTH_UNIT()
NAMED_UNIT(*)
SI_UNIT(.MILLI.,.METRE.)
);
ENDSEC;
END-ISO-10303-21;
