ISO-10303-21;
HEADER;
/* Generated by software containing ST-Developer
 * from STEP Tools, Inc. (www.steptools.com) 
 */
/* OPTION: using custom schema-name function */

FILE_DESCRIPTION(
/* description */ (''),
/* implementation_level */ '2;1');

FILE_NAME(
/* name */ 'AEMR-RP10T3M-D25-M12-L35-Z02-H.stp',
/* time_stamp */ '2023-10-21T12:16:11+03:00',
/* author */ (''),
/* organization */ (''),
/* preprocessor_version */ 'ST-DEVELOPER v19.4',
/* originating_system */ 'SIEMENS PLM Software NX2306.5001',
/* authorisation */ '');

FILE_SCHEMA (('AUTOMOTIVE_DESIGN { 1 0 10303 214 3 1 1 1 }'));
ENDSEC;

DATA;
#10=PROPERTY_DEFINITION_REPRESENTATION(#14,#12);
#11=PROPERTY_DEFINITION_REPRESENTATION(#15,#13);
#12=REPRESENTATION('',(#16),#576);
#13=REPRESENTATION('',(#17),#576);
#14=PROPERTY_DEFINITION('pmi validation property','',#21);
#15=PROPERTY_DEFINITION('pmi validation property','',#21);
#16=VALUE_REPRESENTATION_ITEM('number of annotations',COUNT_MEASURE(0.));
#17=VALUE_REPRESENTATION_ITEM('number of views',COUNT_MEASURE(0.));
#18=SHAPE_REPRESENTATION_RELATIONSHIP('None',
'relationship between AEMR-RP10T3M-D25-M12-L35-Z02-H-LIGHT_x_t_objects
-None and AEMR-RP10T3M-D25-M12-L35-Z02-H-LIGHT_x_t_objects-None',#30,#19);
#19=ADVANCED_BREP_SHAPE_REPRESENTATION(
'AEMR-RP10T3M-D25-M12-L35-Z02-H-LIGHT_x_t_objects-None',(#78,#79),#576);
#20=SHAPE_DEFINITION_REPRESENTATION(#21,#30);
#21=PRODUCT_DEFINITION_SHAPE('','',#22);
#22=PRODUCT_DEFINITION(' ','',#24,#23);
#23=PRODUCT_DEFINITION_CONTEXT('part definition',#29,'design');
#24=PRODUCT_DEFINITION_FORMATION_WITH_SPECIFIED_SOURCE(' ',' ',#26,
 .NOT_KNOWN.);
#25=PRODUCT_RELATED_PRODUCT_CATEGORY('part','',(#26));
#26=PRODUCT('AEMR-RP10T3M-D25-M12-L35-Z02-H-LIGHT_x_t_objects',
'AEMR-RP10T3M-D25-M12-L35-Z02-H-LIGHT_x_t_objects',' ',(#27));
#27=PRODUCT_CONTEXT(' ',#29,'mechanical');
#28=APPLICATION_PROTOCOL_DEFINITION('international standard',
'automotive_design',2010,#29);
#29=APPLICATION_CONTEXT(
'core data for automotive mechanical design processes');
#30=SHAPE_REPRESENTATION(
'AEMR-RP10T3M-D25-M12-L35-Z02-H-LIGHT_x_t_objects-None',(#302),#576);
#31=COLOUR_RGB('silver gray',0.6,0.6,0.6);
#32=FACE_OUTER_BOUND('',#180,.T.);
#33=FACE_OUTER_BOUND('',#181,.T.);
#34=PLANE('',#317);
#35=PLANE('',#334);
#36=PLANE('',#336);
#37=PLANE('',#341);
#38=CONICAL_SURFACE('',#311,10.5,44.9999999999997);
#39=CONICAL_SURFACE('',#315,10.,45.);
#40=CONICAL_SURFACE('',#319,6.51945927106677,80.);
#41=CONICAL_SURFACE('',#325,6.25,14.9999999999999);
#42=CONICAL_SURFACE('',#329,5.875,30.);
#43=CONICAL_SURFACE('',#333,4.675,45.0000000000002);
#44=CYLINDRICAL_SURFACE('',#309,9.9);
#45=CYLINDRICAL_SURFACE('',#313,10.5);
#46=CYLINDRICAL_SURFACE('',#323,6.05);
#47=CYLINDRICAL_SURFACE('',#327,6.25);
#48=CYLINDRICAL_SURFACE('',#331,5.875);
#49=TOROIDAL_SURFACE('',#307,10.9,1.00000000000004);
#50=TOROIDAL_SURFACE('',#321,6.45,0.4);
#51=TOROIDAL_SURFACE('',#338,5.01038835451453,1.);
#52=TOROIDAL_SURFACE('',#343,1702.81845233798,1691.61553813067);
#53=SURFACE_OF_REVOLUTION('',#59,#56);
#54=SURFACE_OF_REVOLUTION('',#60,#57);
#55=SURFACE_OF_REVOLUTION('',#61,#58);
#56=AXIS1_PLACEMENT('',#495,#352);
#57=AXIS1_PLACEMENT('',#557,#421);
#58=AXIS1_PLACEMENT('',#573,#428);
#59=B_SPLINE_CURVE_WITH_KNOTS('',3,(#487,#488,#489,#490,#491,#492,#493,
#494),.UNSPECIFIED.,.F.,.F.,(4,2,2,4),(0.,0.5,0.75,1.),.UNSPECIFIED.);
#60=B_SPLINE_CURVE_WITH_KNOTS('',3,(#547,#548,#549,#550,#551,#552,#553,
#554,#555,#556),.UNSPECIFIED.,.F.,.F.,(4,2,2,2,4),(0.,0.25,0.5,0.75,1.),
 .UNSPECIFIED.);
#61=B_SPLINE_CURVE_WITH_KNOTS('',3,(#563,#564,#565,#566,#567,#568,#569,
#570,#571,#572),.UNSPECIFIED.,.F.,.F.,(4,2,2,2,4),(0.,0.25,0.5,0.75,1.),
 .UNSPECIFIED.);
#62=PRESENTATION_LAYER_ASSIGNMENT('1','Layer 1',(#78,#79));
#63=STYLED_ITEM('',(#65),#78);
#64=STYLED_ITEM('',(#66),#79);
#65=PRESENTATION_STYLE_ASSIGNMENT((#67));
#66=PRESENTATION_STYLE_ASSIGNMENT((#68));
#67=SURFACE_STYLE_USAGE(.BOTH.,#69);
#68=SURFACE_STYLE_USAGE(.BOTH.,#70);
#69=SURFACE_SIDE_STYLE('',(#71));
#70=SURFACE_SIDE_STYLE('',(#72));
#71=SURFACE_STYLE_FILL_AREA(#73);
#72=SURFACE_STYLE_FILL_AREA(#74);
#73=FILL_AREA_STYLE('',(#75));
#74=FILL_AREA_STYLE('',(#76));
#75=FILL_AREA_STYLE_COLOUR('',#77);
#76=FILL_AREA_STYLE_COLOUR('',#31);
#77=DRAUGHTING_PRE_DEFINED_COLOUR('yellow');
#78=MANIFOLD_SOLID_BREP('',#80);
#79=MANIFOLD_SOLID_BREP('',#81);
#80=CLOSED_SHELL('',(#82));
#81=CLOSED_SHELL('',(#83,#84,#85,#86,#87,#88,#89,#90,#91,#92,#93,#94,#95,
#96,#97,#98,#99,#100,#101,#102,#103,#104));
#82=ADVANCED_FACE('',(#106,#107),#105,.F.);
#83=ADVANCED_FACE('',(#108,#109),#53,.T.);
#84=ADVANCED_FACE('',(#110,#111),#49,.F.);
#85=ADVANCED_FACE('',(#112,#113),#44,.T.);
#86=ADVANCED_FACE('',(#114,#115),#38,.T.);
#87=ADVANCED_FACE('',(#116,#117),#45,.T.);
#88=ADVANCED_FACE('',(#118,#119),#39,.T.);
#89=ADVANCED_FACE('',(#120,#121),#34,.F.);
#90=ADVANCED_FACE('',(#122,#123),#40,.F.);
#91=ADVANCED_FACE('',(#124,#125),#50,.F.);
#92=ADVANCED_FACE('',(#126,#127),#46,.T.);
#93=ADVANCED_FACE('',(#128,#129),#41,.T.);
#94=ADVANCED_FACE('',(#130,#131),#47,.T.);
#95=ADVANCED_FACE('',(#132,#133),#42,.T.);
#96=ADVANCED_FACE('',(#134,#135),#48,.T.);
#97=ADVANCED_FACE('',(#136,#137),#43,.T.);
#98=ADVANCED_FACE('',(#32),#35,.F.);
#99=ADVANCED_FACE('',(#33),#36,.F.);
#100=ADVANCED_FACE('',(#138,#139),#51,.F.);
#101=ADVANCED_FACE('',(#140,#141),#54,.T.);
#102=ADVANCED_FACE('',(#142,#143),#37,.F.);
#103=ADVANCED_FACE('',(#144,#145),#55,.T.);
#104=ADVANCED_FACE('',(#146,#147),#52,.F.);
#105=(
BOUNDED_SURFACE()
B_SPLINE_SURFACE(3,3,((#434,#435,#436,#437,#438,#439,#440),(#441,#442,#443,
#444,#445,#446,#447),(#448,#449,#450,#451,#452,#453,#454),(#455,#456,#457,
#458,#459,#460,#461),(#462,#463,#464,#465,#466,#467,#468),(#469,#470,#471,
#472,#473,#474,#475),(#476,#477,#478,#479,#480,#481,#482)),
 .UNSPECIFIED.,.T.,.T.,.F.)
B_SPLINE_SURFACE_WITH_KNOTS((1,3,3,3,1),(1,3,3,3,1),(-0.5,0.,0.5,1.,1.5),
(-0.5,0.,0.5,1.,1.5),.UNSPECIFIED.)
GEOMETRIC_REPRESENTATION_ITEM()
RATIONAL_B_SPLINE_SURFACE(((1.,0.333333333333334,0.333333333333334,1.,0.333333333333334,
0.333333333333334,1.),(0.333333333333334,0.111111111111111,0.111111111111111,
0.333333333333334,0.111111111111111,0.111111111111111,0.333333333333334),
(0.333333333333334,0.111111111111111,0.111111111111111,0.333333333333334,
0.111111111111111,0.111111111111111,0.333333333333334),(1.,0.333333333333334,
0.333333333333334,1.,0.333333333333334,0.333333333333334,1.),(0.333333333333334,
0.111111111111111,0.111111111111111,0.333333333333334,0.111111111111111,
0.111111111111111,0.333333333333334),(0.333333333333334,0.111111111111111,
0.111111111111111,0.333333333333334,0.111111111111111,0.111111111111111,
0.333333333333334),(1.,0.333333333333334,0.333333333333334,1.,0.333333333333334,
0.333333333333334,1.)))
REPRESENTATION_ITEM('')
SURFACE()
);
#106=FACE_BOUND('',#148,.T.);
#107=FACE_BOUND('',#149,.T.);
#108=FACE_BOUND('',#150,.T.);
#109=FACE_BOUND('',#151,.T.);
#110=FACE_BOUND('',#152,.T.);
#111=FACE_BOUND('',#153,.T.);
#112=FACE_BOUND('',#154,.T.);
#113=FACE_BOUND('',#155,.T.);
#114=FACE_BOUND('',#156,.T.);
#115=FACE_BOUND('',#157,.T.);
#116=FACE_BOUND('',#158,.T.);
#117=FACE_BOUND('',#159,.T.);
#118=FACE_BOUND('',#160,.T.);
#119=FACE_BOUND('',#161,.T.);
#120=FACE_BOUND('',#162,.T.);
#121=FACE_BOUND('',#163,.T.);
#122=FACE_BOUND('',#164,.T.);
#123=FACE_BOUND('',#165,.T.);
#124=FACE_BOUND('',#166,.T.);
#125=FACE_BOUND('',#167,.T.);
#126=FACE_BOUND('',#168,.T.);
#127=FACE_BOUND('',#169,.T.);
#128=FACE_BOUND('',#170,.T.);
#129=FACE_BOUND('',#171,.T.);
#130=FACE_BOUND('',#172,.T.);
#131=FACE_BOUND('',#173,.T.);
#132=FACE_BOUND('',#174,.T.);
#133=FACE_BOUND('',#175,.T.);
#134=FACE_BOUND('',#176,.T.);
#135=FACE_BOUND('',#177,.T.);
#136=FACE_BOUND('',#178,.T.);
#137=FACE_BOUND('',#179,.T.);
#138=FACE_BOUND('',#182,.T.);
#139=FACE_BOUND('',#183,.T.);
#140=FACE_BOUND('',#184,.T.);
#141=FACE_BOUND('',#185,.T.);
#142=FACE_BOUND('',#186,.T.);
#143=FACE_BOUND('',#187,.T.);
#144=FACE_BOUND('',#188,.T.);
#145=FACE_BOUND('',#189,.T.);
#146=FACE_BOUND('',#190,.T.);
#147=FACE_BOUND('',#191,.T.);
#148=EDGE_LOOP('',(#192));
#149=EDGE_LOOP('',(#193));
#150=EDGE_LOOP('',(#194));
#151=EDGE_LOOP('',(#195));
#152=EDGE_LOOP('',(#196));
#153=EDGE_LOOP('',(#197));
#154=EDGE_LOOP('',(#198));
#155=EDGE_LOOP('',(#199));
#156=EDGE_LOOP('',(#200));
#157=EDGE_LOOP('',(#201));
#158=EDGE_LOOP('',(#202));
#159=EDGE_LOOP('',(#203));
#160=EDGE_LOOP('',(#204));
#161=EDGE_LOOP('',(#205));
#162=EDGE_LOOP('',(#206));
#163=EDGE_LOOP('',(#207));
#164=EDGE_LOOP('',(#208));
#165=EDGE_LOOP('',(#209));
#166=EDGE_LOOP('',(#210));
#167=EDGE_LOOP('',(#211));
#168=EDGE_LOOP('',(#212));
#169=EDGE_LOOP('',(#213));
#170=EDGE_LOOP('',(#214));
#171=EDGE_LOOP('',(#215));
#172=EDGE_LOOP('',(#216));
#173=EDGE_LOOP('',(#217));
#174=EDGE_LOOP('',(#218));
#175=EDGE_LOOP('',(#219));
#176=EDGE_LOOP('',(#220));
#177=EDGE_LOOP('',(#221));
#178=EDGE_LOOP('',(#222));
#179=EDGE_LOOP('',(#223));
#180=EDGE_LOOP('',(#224));
#181=EDGE_LOOP('',(#225));
#182=EDGE_LOOP('',(#226));
#183=EDGE_LOOP('',(#227));
#184=EDGE_LOOP('',(#228));
#185=EDGE_LOOP('',(#229));
#186=EDGE_LOOP('',(#230));
#187=EDGE_LOOP('',(#231));
#188=EDGE_LOOP('',(#232));
#189=EDGE_LOOP('',(#233));
#190=EDGE_LOOP('',(#234));
#191=EDGE_LOOP('',(#235));
#192=ORIENTED_EDGE('',*,*,#258,.T.);
#193=ORIENTED_EDGE('',*,*,#258,.F.);
#194=ORIENTED_EDGE('',*,*,#259,.F.);
#195=ORIENTED_EDGE('',*,*,#260,.T.);
#196=ORIENTED_EDGE('',*,*,#260,.F.);
#197=ORIENTED_EDGE('',*,*,#261,.T.);
#198=ORIENTED_EDGE('',*,*,#261,.F.);
#199=ORIENTED_EDGE('',*,*,#262,.T.);
#200=ORIENTED_EDGE('',*,*,#262,.F.);
#201=ORIENTED_EDGE('',*,*,#263,.T.);
#202=ORIENTED_EDGE('',*,*,#263,.F.);
#203=ORIENTED_EDGE('',*,*,#264,.T.);
#204=ORIENTED_EDGE('',*,*,#264,.F.);
#205=ORIENTED_EDGE('',*,*,#265,.T.);
#206=ORIENTED_EDGE('',*,*,#265,.F.);
#207=ORIENTED_EDGE('',*,*,#266,.T.);
#208=ORIENTED_EDGE('',*,*,#266,.F.);
#209=ORIENTED_EDGE('',*,*,#267,.T.);
#210=ORIENTED_EDGE('',*,*,#267,.F.);
#211=ORIENTED_EDGE('',*,*,#268,.T.);
#212=ORIENTED_EDGE('',*,*,#268,.F.);
#213=ORIENTED_EDGE('',*,*,#269,.T.);
#214=ORIENTED_EDGE('',*,*,#269,.F.);
#215=ORIENTED_EDGE('',*,*,#270,.T.);
#216=ORIENTED_EDGE('',*,*,#270,.F.);
#217=ORIENTED_EDGE('',*,*,#271,.T.);
#218=ORIENTED_EDGE('',*,*,#271,.F.);
#219=ORIENTED_EDGE('',*,*,#272,.T.);
#220=ORIENTED_EDGE('',*,*,#272,.F.);
#221=ORIENTED_EDGE('',*,*,#273,.T.);
#222=ORIENTED_EDGE('',*,*,#273,.F.);
#223=ORIENTED_EDGE('',*,*,#274,.T.);
#224=ORIENTED_EDGE('',*,*,#274,.F.);
#225=ORIENTED_EDGE('',*,*,#275,.T.);
#226=ORIENTED_EDGE('',*,*,#275,.F.);
#227=ORIENTED_EDGE('',*,*,#276,.T.);
#228=ORIENTED_EDGE('',*,*,#276,.F.);
#229=ORIENTED_EDGE('',*,*,#277,.T.);
#230=ORIENTED_EDGE('',*,*,#277,.F.);
#231=ORIENTED_EDGE('',*,*,#278,.T.);
#232=ORIENTED_EDGE('',*,*,#278,.F.);
#233=ORIENTED_EDGE('',*,*,#279,.T.);
#234=ORIENTED_EDGE('',*,*,#279,.F.);
#235=ORIENTED_EDGE('',*,*,#259,.T.);
#236=VERTEX_POINT('',#433);
#237=VERTEX_POINT('',#484);
#238=VERTEX_POINT('',#486);
#239=VERTEX_POINT('',#497);
#240=VERTEX_POINT('',#500);
#241=VERTEX_POINT('',#503);
#242=VERTEX_POINT('',#506);
#243=VERTEX_POINT('',#509);
#244=VERTEX_POINT('',#512);
#245=VERTEX_POINT('',#515);
#246=VERTEX_POINT('',#518);
#247=VERTEX_POINT('',#521);
#248=VERTEX_POINT('',#524);
#249=VERTEX_POINT('',#527);
#250=VERTEX_POINT('',#530);
#251=VERTEX_POINT('',#533);
#252=VERTEX_POINT('',#536);
#253=VERTEX_POINT('',#540);
#254=VERTEX_POINT('',#543);
#255=VERTEX_POINT('',#546);
#256=VERTEX_POINT('',#559);
#257=VERTEX_POINT('',#562);
#258=EDGE_CURVE('',#236,#236,#280,.T.);
#259=EDGE_CURVE('',#237,#237,#281,.T.);
#260=EDGE_CURVE('',#238,#238,#282,.T.);
#261=EDGE_CURVE('',#239,#239,#283,.T.);
#262=EDGE_CURVE('',#240,#240,#284,.T.);
#263=EDGE_CURVE('',#241,#241,#285,.T.);
#264=EDGE_CURVE('',#242,#242,#286,.T.);
#265=EDGE_CURVE('',#243,#243,#287,.T.);
#266=EDGE_CURVE('',#244,#244,#288,.T.);
#267=EDGE_CURVE('',#245,#245,#289,.T.);
#268=EDGE_CURVE('',#246,#246,#290,.T.);
#269=EDGE_CURVE('',#247,#247,#291,.T.);
#270=EDGE_CURVE('',#248,#248,#292,.T.);
#271=EDGE_CURVE('',#249,#249,#293,.T.);
#272=EDGE_CURVE('',#250,#250,#294,.T.);
#273=EDGE_CURVE('',#251,#251,#295,.T.);
#274=EDGE_CURVE('',#252,#252,#296,.T.);
#275=EDGE_CURVE('',#253,#253,#297,.T.);
#276=EDGE_CURVE('',#254,#254,#298,.T.);
#277=EDGE_CURVE('',#255,#255,#299,.T.);
#278=EDGE_CURVE('',#256,#256,#300,.T.);
#279=EDGE_CURVE('',#257,#257,#301,.T.);
#280=CIRCLE('',#303,5.);
#281=CIRCLE('',#304,11.7375493927148);
#282=CIRCLE('',#305,10.3251466007118);
#283=CIRCLE('',#306,9.9);
#284=CIRCLE('',#308,9.9);
#285=CIRCLE('',#310,10.5);
#286=CIRCLE('',#312,10.5);
#287=CIRCLE('',#314,10.);
#288=CIRCLE('',#316,7.45);
#289=CIRCLE('',#318,6.51945927106677);
#290=CIRCLE('',#320,6.05);
#291=CIRCLE('',#322,6.05);
#292=CIRCLE('',#324,6.25);
#293=CIRCLE('',#326,6.25);
#294=CIRCLE('',#328,5.875);
#295=CIRCLE('',#330,5.875);
#296=CIRCLE('',#332,4.675);
#297=CIRCLE('',#335,5.01038835451453);
#298=CIRCLE('',#337,5.81297024073674);
#299=CIRCLE('',#339,6.97564585257417);
#300=CIRCLE('',#340,9.93931344520201);
#301=CIRCLE('',#342,11.8246448048287);
#302=AXIS2_PLACEMENT_3D('',#431,#344,#345);
#303=AXIS2_PLACEMENT_3D('',#432,#346,#347);
#304=AXIS2_PLACEMENT_3D('',#483,#348,#349);
#305=AXIS2_PLACEMENT_3D('',#485,#350,#351);
#306=AXIS2_PLACEMENT_3D('',#496,#353,#354);
#307=AXIS2_PLACEMENT_3D('',#498,#355,#356);
#308=AXIS2_PLACEMENT_3D('',#499,#357,#358);
#309=AXIS2_PLACEMENT_3D('',#501,#359,#360);
#310=AXIS2_PLACEMENT_3D('',#502,#361,#362);
#311=AXIS2_PLACEMENT_3D('',#504,#363,#364);
#312=AXIS2_PLACEMENT_3D('',#505,#365,#366);
#313=AXIS2_PLACEMENT_3D('',#507,#367,#368);
#314=AXIS2_PLACEMENT_3D('',#508,#369,#370);
#315=AXIS2_PLACEMENT_3D('',#510,#371,#372);
#316=AXIS2_PLACEMENT_3D('',#511,#373,#374);
#317=AXIS2_PLACEMENT_3D('',#513,#375,#376);
#318=AXIS2_PLACEMENT_3D('',#514,#377,#378);
#319=AXIS2_PLACEMENT_3D('',#516,#379,#380);
#320=AXIS2_PLACEMENT_3D('',#517,#381,#382);
#321=AXIS2_PLACEMENT_3D('',#519,#383,#384);
#322=AXIS2_PLACEMENT_3D('',#520,#385,#386);
#323=AXIS2_PLACEMENT_3D('',#522,#387,#388);
#324=AXIS2_PLACEMENT_3D('',#523,#389,#390);
#325=AXIS2_PLACEMENT_3D('',#525,#391,#392);
#326=AXIS2_PLACEMENT_3D('',#526,#393,#394);
#327=AXIS2_PLACEMENT_3D('',#528,#395,#396);
#328=AXIS2_PLACEMENT_3D('',#529,#397,#398);
#329=AXIS2_PLACEMENT_3D('',#531,#399,#400);
#330=AXIS2_PLACEMENT_3D('',#532,#401,#402);
#331=AXIS2_PLACEMENT_3D('',#534,#403,#404);
#332=AXIS2_PLACEMENT_3D('',#535,#405,#406);
#333=AXIS2_PLACEMENT_3D('',#537,#407,#408);
#334=AXIS2_PLACEMENT_3D('',#538,#409,#410);
#335=AXIS2_PLACEMENT_3D('',#539,#411,#412);
#336=AXIS2_PLACEMENT_3D('',#541,#413,#414);
#337=AXIS2_PLACEMENT_3D('',#542,#415,#416);
#338=AXIS2_PLACEMENT_3D('',#544,#417,#418);
#339=AXIS2_PLACEMENT_3D('',#545,#419,#420);
#340=AXIS2_PLACEMENT_3D('',#558,#422,#423);
#341=AXIS2_PLACEMENT_3D('',#560,#424,#425);
#342=AXIS2_PLACEMENT_3D('',#561,#426,#427);
#343=AXIS2_PLACEMENT_3D('',#574,#429,#430);
#344=DIRECTION('',(0.,0.,1.));
#345=DIRECTION('',(1.,0.,0.));
#346=DIRECTION('',(-0.0871557427476582,0.,0.996194698091746));
#347=DIRECTION('',(0.996194698091746,0.,0.0871557427476582));
#348=DIRECTION('',(-1.,0.,0.));
#349=DIRECTION('',(0.,0.,1.));
#350=DIRECTION('',(-1.,0.,0.));
#351=DIRECTION('',(0.,0.,1.));
#352=DIRECTION('',(-1.,0.,0.));
#353=DIRECTION('',(-1.,0.,0.));
#354=DIRECTION('',(0.,0.,1.));
#355=DIRECTION('',(-1.,0.,0.));
#356=DIRECTION('',(0.,0.,1.));
#357=DIRECTION('',(-1.,0.,0.));
#358=DIRECTION('',(0.,0.,1.));
#359=DIRECTION('',(-1.,0.,0.));
#360=DIRECTION('',(0.,0.,1.));
#361=DIRECTION('',(-1.,0.,0.));
#362=DIRECTION('',(0.,0.,1.));
#363=DIRECTION('',(1.,0.,0.));
#364=DIRECTION('',(6.86679258179842E-17,0.,-1.));
#365=DIRECTION('',(-1.,0.,0.));
#366=DIRECTION('',(0.,0.,1.));
#367=DIRECTION('',(-1.,0.,0.));
#368=DIRECTION('',(0.,0.,1.));
#369=DIRECTION('',(-1.,0.,0.));
#370=DIRECTION('',(0.,0.,1.));
#371=DIRECTION('',(-1.,0.,0.));
#372=DIRECTION('',(2.74807679362663E-17,0.,1.));
#373=DIRECTION('',(-1.,0.,0.));
#374=DIRECTION('',(0.,0.,1.));
#375=DIRECTION('',(-1.,0.,0.));
#376=DIRECTION('',(0.,0.,1.));
#377=DIRECTION('',(-1.,0.,0.));
#378=DIRECTION('',(0.,0.,1.));
#379=DIRECTION('',(1.,0.,0.));
#380=DIRECTION('',(1.22210932772646E-17,0.,-1.));
#381=DIRECTION('',(-1.,0.,0.));
#382=DIRECTION('',(0.,0.,1.));
#383=DIRECTION('',(-1.,0.,0.));
#384=DIRECTION('',(0.,0.,1.));
#385=DIRECTION('',(-1.,0.,0.));
#386=DIRECTION('',(0.,0.,1.));
#387=DIRECTION('',(-1.,0.,0.));
#388=DIRECTION('',(0.,0.,1.));
#389=DIRECTION('',(-1.,0.,0.));
#390=DIRECTION('',(0.,0.,1.));
#391=DIRECTION('',(1.,0.,0.));
#392=DIRECTION('',(2.5306033334326E-17,0.,-1.));
#393=DIRECTION('',(-1.,0.,0.));
#394=DIRECTION('',(0.,0.,1.));
#395=DIRECTION('',(-1.,0.,0.));
#396=DIRECTION('',(0.,0.,1.));
#397=DIRECTION('',(-1.,0.,0.));
#398=DIRECTION('',(0.,0.,1.));
#399=DIRECTION('',(-1.,0.,0.));
#400=DIRECTION('',(-7.13847043721059E-17,0.,1.));
#401=DIRECTION('',(-1.,0.,0.));
#402=DIRECTION('',(0.,0.,1.));
#403=DIRECTION('',(-1.,0.,0.));
#404=DIRECTION('',(0.,0.,1.));
#405=DIRECTION('',(-1.,0.,0.));
#406=DIRECTION('',(0.,0.,1.));
#407=DIRECTION('',(-1.,0.,0.));
#408=DIRECTION('',(4.83462386616073E-17,0.,1.));
#409=DIRECTION('',(-1.,0.,0.));
#410=DIRECTION('',(0.,0.,1.));
#411=DIRECTION('',(-1.,0.,0.));
#412=DIRECTION('',(0.,0.,1.));
#413=DIRECTION('',(1.,0.,0.));
#414=DIRECTION('',(0.,0.,-1.));
#415=DIRECTION('',(-1.,0.,0.));
#416=DIRECTION('',(0.,0.,1.));
#417=DIRECTION('',(-1.,0.,0.));
#418=DIRECTION('',(0.,0.,1.));
#419=DIRECTION('',(-1.,0.,0.));
#420=DIRECTION('',(0.,0.,1.));
#421=DIRECTION('',(-1.,0.,0.));
#422=DIRECTION('',(-1.,0.,0.));
#423=DIRECTION('',(0.,0.,1.));
#424=DIRECTION('',(1.,0.,0.));
#425=DIRECTION('',(0.,0.,-1.));
#426=DIRECTION('',(-1.,0.,0.));
#427=DIRECTION('',(0.,0.,1.));
#428=DIRECTION('',(-1.,0.,0.));
#429=DIRECTION('',(-1.,0.,0.));
#430=DIRECTION('',(0.,0.,1.));
#431=CARTESIAN_POINT('',(0.,0.,0.));
#432=CARTESIAN_POINT('',(4.98097349045873,-7.49236303,0.435778713738291));
#433=CARTESIAN_POINT('',(9.96194698091746,-7.49236303,0.871557427476582));
#434=CARTESIAN_POINT('',(9.96194698091746,-7.49236303,0.871557427476582));
#435=CARTESIAN_POINT('',(9.96194698091746,-9.23547788495316,-14.1131686325234));
#436=CARTESIAN_POINT('',(9.96194698091746,5.74924817504683,-15.8562834874766));
#437=CARTESIAN_POINT('',(9.96194698091746,7.49236303,-0.871557427476582));
#438=CARTESIAN_POINT('',(9.96194698091746,9.23547788495316,14.1131686325234));
#439=CARTESIAN_POINT('',(9.96194698091746,-5.74924817504683,15.8562834874766));
#440=CARTESIAN_POINT('',(9.96194698091746,-7.49236303,0.871557427476582));
#441=CARTESIAN_POINT('',(9.96194698091746,2.50763697,0.871557427476582));
#442=CARTESIAN_POINT('',(9.96194698091747,0.764522115046834,5.88683136747658));
#443=CARTESIAN_POINT('',(9.96194698091747,-4.25075182495317,4.14371651252342));
#444=CARTESIAN_POINT('',(9.96194698091746,-2.50763697,-0.871557427476582));
#445=CARTESIAN_POINT('',(9.96194698091747,-0.764522115046834,-5.88683136747658));
#446=CARTESIAN_POINT('',(9.96194698091747,4.25075182495317,-4.14371651252342));
#447=CARTESIAN_POINT('',(9.96194698091746,2.50763697,0.871557427476582));
#448=CARTESIAN_POINT('',(3.52624910357216E-16,2.50763697,5.25248927589546E-17));
#449=CARTESIAN_POINT('',(3.52624910357217E-16,2.50763697,5.01527394));
#450=CARTESIAN_POINT('',(3.52624910357217E-16,-2.50763697,5.01527394));
#451=CARTESIAN_POINT('',(3.52624910357216E-16,-2.50763697,-5.25248927589546E-17));
#452=CARTESIAN_POINT('',(3.52624910357217E-16,-2.50763697,-5.01527394));
#453=CARTESIAN_POINT('',(3.52624910357217E-16,2.50763697,-5.01527394));
#454=CARTESIAN_POINT('',(3.52624910357216E-16,2.50763697,5.25248927589546E-17));
#455=CARTESIAN_POINT('',(-8.67361737988404E-16,-7.49236303,-5.42101086242752E-17));
#456=CARTESIAN_POINT('',(-8.67361737988404E-16,-7.49236303,-14.98472606));
#457=CARTESIAN_POINT('',(-8.67361737988404E-16,7.49236303,-14.98472606));
#458=CARTESIAN_POINT('',(-8.67361737988404E-16,7.49236303,5.42101086242752E-17));
#459=CARTESIAN_POINT('',(-8.67361737988404E-16,7.49236303,14.98472606));
#460=CARTESIAN_POINT('',(-8.67361737988404E-16,-7.49236303,14.98472606));
#461=CARTESIAN_POINT('',(-8.67361737988404E-16,-7.49236303,-5.42101086242752E-17));
#462=CARTESIAN_POINT('',(-2.08734838633402E-15,-17.49236303,-1.60945110007505E-16));
#463=CARTESIAN_POINT('',(-2.08734838633402E-15,-17.49236303,-34.98472606));
#464=CARTESIAN_POINT('',(-2.08734838633402E-15,17.49236303,-34.98472606));
#465=CARTESIAN_POINT('',(-2.08734838633402E-15,17.49236303,1.60945110007505E-16));
#466=CARTESIAN_POINT('',(-2.08734838633402E-15,17.49236303,34.98472606));
#467=CARTESIAN_POINT('',(-2.08734838633402E-15,-17.49236303,34.98472606));
#468=CARTESIAN_POINT('',(-2.08734838633402E-15,-17.49236303,-1.60945110007505E-16));
#469=CARTESIAN_POINT('',(9.96194698091746,-17.49236303,0.871557427476582));
#470=CARTESIAN_POINT('',(9.96194698091747,-19.2354778849532,-34.1131686325234));
#471=CARTESIAN_POINT('',(9.96194698091747,15.7492481750469,-35.8562834874766));
#472=CARTESIAN_POINT('',(9.96194698091746,17.49236303,-0.871557427476582));
#473=CARTESIAN_POINT('',(9.96194698091747,19.2354778849532,34.1131686325234));
#474=CARTESIAN_POINT('',(9.96194698091747,-15.7492481750469,35.8562834874766));
#475=CARTESIAN_POINT('',(9.96194698091746,-17.49236303,0.871557427476582));
#476=CARTESIAN_POINT('',(9.96194698091746,-7.49236303,0.871557427476582));
#477=CARTESIAN_POINT('',(9.96194698091746,-9.23547788495316,-14.1131686325234));
#478=CARTESIAN_POINT('',(9.96194698091746,5.74924817504683,-15.8562834874766));
#479=CARTESIAN_POINT('',(9.96194698091746,7.49236303,-0.871557427476582));
#480=CARTESIAN_POINT('',(9.96194698091746,9.23547788495316,14.1131686325234));
#481=CARTESIAN_POINT('',(9.96194698091746,-5.74924817504683,15.8562834874766));
#482=CARTESIAN_POINT('',(9.96194698091746,-7.49236303,0.871557427476582));
#483=CARTESIAN_POINT('',(6.99333042682796,0.,0.));
#484=CARTESIAN_POINT('',(6.99333042682796,0.,11.7375493927148));
#485=CARTESIAN_POINT('',(8.70505800127131,0.,0.));
#486=CARTESIAN_POINT('',(8.70505800127131,0.,10.3251466007118));
#487=CARTESIAN_POINT('',(9.06271190701098,9.70511651315856,0.));
#488=CARTESIAN_POINT('',(8.8524530082018,10.158010410362,0.));
#489=CARTESIAN_POINT('',(8.56716782945391,10.5563626719692,0.));
#490=CARTESIAN_POINT('',(8.03458895223034,11.0778131532529,0.));
#491=CARTESIAN_POINT('',(7.84192448774912,11.2354237415437,0.));
#492=CARTESIAN_POINT('',(7.43543399331076,11.513160650687,0.));
#493=CARTESIAN_POINT('',(7.22044450057532,11.6344362963125,0.));
#494=CARTESIAN_POINT('',(6.99333042682874,11.7375493927147,0.));
#495=CARTESIAN_POINT('',(0.,0.,0.));
#496=CARTESIAN_POINT('',(9.52331442154971,0.,0.));
#497=CARTESIAN_POINT('',(9.52331442154971,0.,9.9));
#498=CARTESIAN_POINT('',(9.52331442154971,0.,0.));
#499=CARTESIAN_POINT('',(27.,0.,0.));
#500=CARTESIAN_POINT('',(27.,0.,9.9));
#501=CARTESIAN_POINT('',(0.,0.,0.));
#502=CARTESIAN_POINT('',(27.6,0.,0.));
#503=CARTESIAN_POINT('',(27.6,0.,10.5));
#504=CARTESIAN_POINT('',(27.6,0.,0.));
#505=CARTESIAN_POINT('',(34.5,0.,0.));
#506=CARTESIAN_POINT('',(34.5,0.,10.5));
#507=CARTESIAN_POINT('',(0.,0.,0.));
#508=CARTESIAN_POINT('',(35.,0.,0.));
#509=CARTESIAN_POINT('',(35.,0.,10.));
#510=CARTESIAN_POINT('',(35.,0.,0.));
#511=CARTESIAN_POINT('',(35.,0.,0.));
#512=CARTESIAN_POINT('',(35.,0.,7.45));
#513=CARTESIAN_POINT('',(35.,10.,0.));
#514=CARTESIAN_POINT('',(34.8359205628409,0.,0.));
#515=CARTESIAN_POINT('',(34.8359205628409,0.,6.51945927106677));
#516=CARTESIAN_POINT('',(34.8359205628409,0.,0.));
#517=CARTESIAN_POINT('',(35.2298436640459,0.,0.));
#518=CARTESIAN_POINT('',(35.2298436640459,0.,6.05));
#519=CARTESIAN_POINT('',(35.2298436640459,0.,0.));
#520=CARTESIAN_POINT('',(35.4535898384862,0.,0.));
#521=CARTESIAN_POINT('',(35.4535898384862,0.,6.05));
#522=CARTESIAN_POINT('',(0.,0.,0.));
#523=CARTESIAN_POINT('',(36.2,0.,0.));
#524=CARTESIAN_POINT('',(36.2,0.,6.25));
#525=CARTESIAN_POINT('',(36.2,0.,0.));
#526=CARTESIAN_POINT('',(41.,0.,0.));
#527=CARTESIAN_POINT('',(41.,0.,6.25));
#528=CARTESIAN_POINT('',(0.,0.,0.));
#529=CARTESIAN_POINT('',(41.6495190528384,0.,0.));
#530=CARTESIAN_POINT('',(41.6495190528384,0.,5.875));
#531=CARTESIAN_POINT('',(41.6495190528384,0.,0.));
#532=CARTESIAN_POINT('',(55.8,0.,0.));
#533=CARTESIAN_POINT('',(55.8,0.,5.875));
#534=CARTESIAN_POINT('',(0.,0.,0.));
#535=CARTESIAN_POINT('',(57.,0.,0.));
#536=CARTESIAN_POINT('',(57.,0.,4.675));
#537=CARTESIAN_POINT('',(57.,0.,0.));
#538=CARTESIAN_POINT('',(57.,4.675,0.));
#539=CARTESIAN_POINT('',(3.,0.,0.));
#540=CARTESIAN_POINT('',(3.,0.,5.01038835451453));
#541=CARTESIAN_POINT('',(3.,5.01038835451453,0.));
#542=CARTESIAN_POINT('',(2.59654196491781,0.,0.));
#543=CARTESIAN_POINT('',(2.59654196491781,0.,5.81297024073674));
#544=CARTESIAN_POINT('',(2.,0.,0.));
#545=CARTESIAN_POINT('',(1.59125167132289,0.,0.));
#546=CARTESIAN_POINT('',(1.59125167132289,0.,6.97564585257417));
#547=CARTESIAN_POINT('',(1.59125167132289,6.97564585257417,0.));
#548=CARTESIAN_POINT('',(1.69834152715414,6.76942007000093,0.));
#549=CARTESIAN_POINT('',(1.82582478661621,6.57892825267852,0.));
#550=CARTESIAN_POINT('',(2.11758027282254,6.22632812592238,0.));
#551=CARTESIAN_POINT('',(2.28382420800159,6.06286551104415,0.));
#552=CARTESIAN_POINT('',(2.64110123250253,5.77176907462288,0.));
#553=CARTESIAN_POINT('',(2.83159997005996,5.64378945214987,0.));
#554=CARTESIAN_POINT('',(3.23302650948431,5.41809185593838,0.));
#555=CARTESIAN_POINT('',(3.44415960198192,5.32051571100117,0.));
#556=CARTESIAN_POINT('',(3.66063315150512,5.23801291620795,0.));
#557=CARTESIAN_POINT('',(0.,0.,0.));
#558=CARTESIAN_POINT('',(1.59125167132289,0.,0.));
#559=CARTESIAN_POINT('',(1.59125167132289,0.,9.93931344520201));
#560=CARTESIAN_POINT('',(1.59125167132289,9.93931344520201,0.));
#561=CARTESIAN_POINT('',(3.6606331515047,0.,0.));
#562=CARTESIAN_POINT('',(3.6606331515047,0.,11.8246448048287));
#563=CARTESIAN_POINT('',(3.66063315150512,11.8246448048287,0.));
#564=CARTESIAN_POINT('',(3.43700381110108,11.73550710087,0.));
#565=CARTESIAN_POINT('',(3.22435048251963,11.6282639494844,0.));
#566=CARTESIAN_POINT('',(2.8206165426071,11.3781924355868,0.));
#567=CARTESIAN_POINT('',(2.62843151518621,11.2343784809945,0.));
#568=CARTESIAN_POINT('',(2.27232974359293,10.9125395375471,0.));
#569=CARTESIAN_POINT('',(2.11148675196888,10.7376686596957,0.));
#570=CARTESIAN_POINT('',(1.82430096430265,10.3599556580508,0.));
#571=CARTESIAN_POINT('',(1.69729658466028,10.1557803787375,0.));
#572=CARTESIAN_POINT('',(1.59125167132289,9.93931344520201,0.));
#573=CARTESIAN_POINT('',(0.,0.,0.));
#574=CARTESIAN_POINT('',(49.5198931720082,0.,0.));
#575=MECHANICAL_DESIGN_GEOMETRIC_PRESENTATION_REPRESENTATION('',(#63,#64),
#576);
#576=(
GEOMETRIC_REPRESENTATION_CONTEXT(3)
GLOBAL_UNCERTAINTY_ASSIGNED_CONTEXT((#577))
GLOBAL_UNIT_ASSIGNED_CONTEXT((#583,#579,#578))
REPRESENTATION_CONTEXT('AEMR-RP10T3M-D25-M12-L35-Z02-H',
'TOP_LEVEL_ASSEMBLY_PART')
);
#577=UNCERTAINTY_MEASURE_WITH_UNIT(LENGTH_MEASURE(2.E-5),#583,
'DISTANCE_ACCURACY_VALUE','Maximum Tolerance applied to model');
#578=(
NAMED_UNIT(*)
SI_UNIT($,.STERADIAN.)
SOLID_ANGLE_UNIT()
);
#579=(
CONVERSION_BASED_UNIT('DEGREE',#581)
NAMED_UNIT(#580)
PLANE_ANGLE_UNIT()
);
#580=DIMENSIONAL_EXPONENTS(0.,0.,0.,0.,0.,0.,0.);
#581=PLANE_ANGLE_MEASURE_WITH_UNIT(PLANE_ANGLE_MEASURE(0.0174532925),#582);
#582=(
NAMED_UNIT(*)
PLANE_ANGLE_UNIT()
SI_UNIT($,.RADIAN.)
);
#583=(
LENGTH_UNIT()
NAMED_UNIT(*)
SI_UNIT(.MILLI.,.METRE.)
);
ENDSEC;
END-ISO-10303-21;
