ISO-10303-21;
HEADER;
/* Generated by software containing ST-Developer
 * from STEP Tools, Inc. (www.steptools.com) 
 */
/* OPTION: using custom schema-name function */

FILE_DESCRIPTION(
/* description */ (''),
/* implementation_level */ '2;1');

FILE_NAME(
/* name */ 'AEMR-RP10T3M-D32-M16-L43-Z03-H.stp',
/* time_stamp */ '2023-10-21T12:20:15+03:00',
/* author */ (''),
/* organization */ (''),
/* preprocessor_version */ 'ST-DEVELOPER v19.4',
/* originating_system */ 'SIEMENS PLM Software NX2306.5001',
/* authorisation */ '');

FILE_SCHEMA (('AUTOMOTIVE_DESIGN { 1 0 10303 214 3 1 1 1 }'));
ENDSEC;

DATA;
#10=PROPERTY_DEFINITION_REPRESENTATION(#14,#12);
#11=PROPERTY_DEFINITION_REPRESENTATION(#15,#13);
#12=REPRESENTATION('',(#16),#578);
#13=REPRESENTATION('',(#17),#578);
#14=PROPERTY_DEFINITION('pmi validation property','',#21);
#15=PROPERTY_DEFINITION('pmi validation property','',#21);
#16=VALUE_REPRESENTATION_ITEM('number of annotations',COUNT_MEASURE(0.));
#17=VALUE_REPRESENTATION_ITEM('number of views',COUNT_MEASURE(0.));
#18=SHAPE_REPRESENTATION_RELATIONSHIP('None',
'relationship between AEMR-RP10T3M-D32-M16-L43-Z03-H-LIGHT_x_t_objects
-None and AEMR-RP10T3M-D32-M16-L43-Z03-H-LIGHT_x_t_objects-None',#30,#19);
#19=ADVANCED_BREP_SHAPE_REPRESENTATION(
'AEMR-RP10T3M-D32-M16-L43-Z03-H-LIGHT_x_t_objects-None',(#78,#79),#578);
#20=SHAPE_DEFINITION_REPRESENTATION(#21,#30);
#21=PRODUCT_DEFINITION_SHAPE('','',#22);
#22=PRODUCT_DEFINITION(' ','',#24,#23);
#23=PRODUCT_DEFINITION_CONTEXT('part definition',#29,'design');
#24=PRODUCT_DEFINITION_FORMATION_WITH_SPECIFIED_SOURCE(' ',' ',#26,
 .NOT_KNOWN.);
#25=PRODUCT_RELATED_PRODUCT_CATEGORY('part','',(#26));
#26=PRODUCT('AEMR-RP10T3M-D32-M16-L43-Z03-H-LIGHT_x_t_objects',
'AEMR-RP10T3M-D32-M16-L43-Z03-H-LIGHT_x_t_objects',' ',(#27));
#27=PRODUCT_CONTEXT(' ',#29,'mechanical');
#28=APPLICATION_PROTOCOL_DEFINITION('international standard',
'automotive_design',2010,#29);
#29=APPLICATION_CONTEXT(
'core data for automotive mechanical design processes');
#30=SHAPE_REPRESENTATION(
'AEMR-RP10T3M-D32-M16-L43-Z03-H-LIGHT_x_t_objects-None',(#302),#578);
#31=COLOUR_RGB('silver gray',0.6,0.6,0.6);
#32=FACE_OUTER_BOUND('',#180,.T.);
#33=FACE_OUTER_BOUND('',#181,.T.);
#34=PLANE('',#317);
#35=PLANE('',#334);
#36=PLANE('',#336);
#37=PLANE('',#341);
#38=CONICAL_SURFACE('',#311,14.5,44.9999999999996);
#39=CONICAL_SURFACE('',#315,14.,45.);
#40=CONICAL_SURFACE('',#319,8.80352761804101,74.9999999999999);
#41=CONICAL_SURFACE('',#325,8.5,15.);
#42=CONICAL_SURFACE('',#329,7.875,30.);
#43=CONICAL_SURFACE('',#333,5.875,45.0000000000002);
#44=CYLINDRICAL_SURFACE('',#309,13.5);
#45=CYLINDRICAL_SURFACE('',#313,14.5);
#46=CYLINDRICAL_SURFACE('',#323,8.3);
#47=CYLINDRICAL_SURFACE('',#327,8.5);
#48=CYLINDRICAL_SURFACE('',#331,7.875);
#49=CYLINDRICAL_SURFACE('',#343,14.8857757600499);
#50=TOROIDAL_SURFACE('',#307,14.5,1.);
#51=TOROIDAL_SURFACE('',#321,8.7,0.4);
#52=TOROIDAL_SURFACE('',#338,7.18818776735738,1.);
#53=SURFACE_OF_REVOLUTION('',#59,#56);
#54=SURFACE_OF_REVOLUTION('',#60,#57);
#55=SURFACE_OF_REVOLUTION('',#61,#58);
#56=AXIS1_PLACEMENT('',#497,#352);
#57=AXIS1_PLACEMENT('',#559,#421);
#58=AXIS1_PLACEMENT('',#575,#428);
#59=B_SPLINE_CURVE_WITH_KNOTS('',3,(#487,#488,#489,#490,#491,#492,#493,
#494,#495,#496),.UNSPECIFIED.,.F.,.F.,(4,2,2,2,4),(0.,0.25,0.5,0.75,1.),
 .UNSPECIFIED.);
#60=B_SPLINE_CURVE_WITH_KNOTS('',3,(#549,#550,#551,#552,#553,#554,#555,
#556,#557,#558),.UNSPECIFIED.,.F.,.F.,(4,2,2,2,4),(0.,0.25,0.5,0.75,1.),
 .UNSPECIFIED.);
#61=B_SPLINE_CURVE_WITH_KNOTS('',3,(#565,#566,#567,#568,#569,#570,#571,
#572,#573,#574),.UNSPECIFIED.,.F.,.F.,(4,2,2,2,4),(0.,0.25,0.5,0.75,1.),
 .UNSPECIFIED.);
#62=PRESENTATION_LAYER_ASSIGNMENT('1','Layer 1',(#78,#79));
#63=STYLED_ITEM('',(#65),#78);
#64=STYLED_ITEM('',(#66),#79);
#65=PRESENTATION_STYLE_ASSIGNMENT((#67));
#66=PRESENTATION_STYLE_ASSIGNMENT((#68));
#67=SURFACE_STYLE_USAGE(.BOTH.,#69);
#68=SURFACE_STYLE_USAGE(.BOTH.,#70);
#69=SURFACE_SIDE_STYLE('',(#71));
#70=SURFACE_SIDE_STYLE('',(#72));
#71=SURFACE_STYLE_FILL_AREA(#73);
#72=SURFACE_STYLE_FILL_AREA(#74);
#73=FILL_AREA_STYLE('',(#75));
#74=FILL_AREA_STYLE('',(#76));
#75=FILL_AREA_STYLE_COLOUR('',#77);
#76=FILL_AREA_STYLE_COLOUR('',#31);
#77=DRAUGHTING_PRE_DEFINED_COLOUR('yellow');
#78=MANIFOLD_SOLID_BREP('',#80);
#79=MANIFOLD_SOLID_BREP('',#81);
#80=CLOSED_SHELL('',(#82));
#81=CLOSED_SHELL('',(#83,#84,#85,#86,#87,#88,#89,#90,#91,#92,#93,#94,#95,
#96,#97,#98,#99,#100,#101,#102,#103,#104));
#82=ADVANCED_FACE('',(#106,#107),#105,.F.);
#83=ADVANCED_FACE('',(#108,#109),#53,.T.);
#84=ADVANCED_FACE('',(#110,#111),#50,.F.);
#85=ADVANCED_FACE('',(#112,#113),#44,.T.);
#86=ADVANCED_FACE('',(#114,#115),#38,.T.);
#87=ADVANCED_FACE('',(#116,#117),#45,.T.);
#88=ADVANCED_FACE('',(#118,#119),#39,.T.);
#89=ADVANCED_FACE('',(#120,#121),#34,.F.);
#90=ADVANCED_FACE('',(#122,#123),#40,.F.);
#91=ADVANCED_FACE('',(#124,#125),#51,.F.);
#92=ADVANCED_FACE('',(#126,#127),#46,.T.);
#93=ADVANCED_FACE('',(#128,#129),#41,.T.);
#94=ADVANCED_FACE('',(#130,#131),#47,.T.);
#95=ADVANCED_FACE('',(#132,#133),#42,.T.);
#96=ADVANCED_FACE('',(#134,#135),#48,.T.);
#97=ADVANCED_FACE('',(#136,#137),#43,.T.);
#98=ADVANCED_FACE('',(#32),#35,.F.);
#99=ADVANCED_FACE('',(#33),#36,.F.);
#100=ADVANCED_FACE('',(#138,#139),#52,.F.);
#101=ADVANCED_FACE('',(#140,#141),#54,.T.);
#102=ADVANCED_FACE('',(#142,#143),#37,.F.);
#103=ADVANCED_FACE('',(#144,#145),#55,.T.);
#104=ADVANCED_FACE('',(#146,#147),#49,.T.);
#105=(
BOUNDED_SURFACE()
B_SPLINE_SURFACE(3,3,((#434,#435,#436,#437,#438,#439,#440),(#441,#442,#443,
#444,#445,#446,#447),(#448,#449,#450,#451,#452,#453,#454),(#455,#456,#457,
#458,#459,#460,#461),(#462,#463,#464,#465,#466,#467,#468),(#469,#470,#471,
#472,#473,#474,#475),(#476,#477,#478,#479,#480,#481,#482)),
 .UNSPECIFIED.,.T.,.T.,.F.)
B_SPLINE_SURFACE_WITH_KNOTS((1,3,3,3,1),(1,3,3,3,1),(-0.5,0.,0.5,1.,1.5),
(-0.5,0.,0.5,1.,1.5),.UNSPECIFIED.)
GEOMETRIC_REPRESENTATION_ITEM()
RATIONAL_B_SPLINE_SURFACE(((1.,0.333333333333334,0.333333333333334,1.,0.333333333333334,
0.333333333333334,1.),(0.333333333333334,0.111111111111111,0.111111111111111,
0.333333333333334,0.111111111111111,0.111111111111111,0.333333333333334),
(0.333333333333334,0.111111111111111,0.111111111111111,0.333333333333334,
0.111111111111111,0.111111111111111,0.333333333333334),(1.,0.333333333333334,
0.333333333333334,1.,0.333333333333334,0.333333333333334,1.),(0.333333333333334,
0.111111111111111,0.111111111111111,0.333333333333334,0.111111111111111,
0.111111111111111,0.333333333333334),(0.333333333333334,0.111111111111111,
0.111111111111111,0.333333333333334,0.111111111111111,0.111111111111111,
0.333333333333334),(1.,0.333333333333334,0.333333333333334,1.,0.333333333333334,
0.333333333333334,1.)))
REPRESENTATION_ITEM('')
SURFACE()
);
#106=FACE_BOUND('',#148,.T.);
#107=FACE_BOUND('',#149,.T.);
#108=FACE_BOUND('',#150,.T.);
#109=FACE_BOUND('',#151,.T.);
#110=FACE_BOUND('',#152,.T.);
#111=FACE_BOUND('',#153,.T.);
#112=FACE_BOUND('',#154,.T.);
#113=FACE_BOUND('',#155,.T.);
#114=FACE_BOUND('',#156,.T.);
#115=FACE_BOUND('',#157,.T.);
#116=FACE_BOUND('',#158,.T.);
#117=FACE_BOUND('',#159,.T.);
#118=FACE_BOUND('',#160,.T.);
#119=FACE_BOUND('',#161,.T.);
#120=FACE_BOUND('',#162,.T.);
#121=FACE_BOUND('',#163,.T.);
#122=FACE_BOUND('',#164,.T.);
#123=FACE_BOUND('',#165,.T.);
#124=FACE_BOUND('',#166,.T.);
#125=FACE_BOUND('',#167,.T.);
#126=FACE_BOUND('',#168,.T.);
#127=FACE_BOUND('',#169,.T.);
#128=FACE_BOUND('',#170,.T.);
#129=FACE_BOUND('',#171,.T.);
#130=FACE_BOUND('',#172,.T.);
#131=FACE_BOUND('',#173,.T.);
#132=FACE_BOUND('',#174,.T.);
#133=FACE_BOUND('',#175,.T.);
#134=FACE_BOUND('',#176,.T.);
#135=FACE_BOUND('',#177,.T.);
#136=FACE_BOUND('',#178,.T.);
#137=FACE_BOUND('',#179,.T.);
#138=FACE_BOUND('',#182,.T.);
#139=FACE_BOUND('',#183,.T.);
#140=FACE_BOUND('',#184,.T.);
#141=FACE_BOUND('',#185,.T.);
#142=FACE_BOUND('',#186,.T.);
#143=FACE_BOUND('',#187,.T.);
#144=FACE_BOUND('',#188,.T.);
#145=FACE_BOUND('',#189,.T.);
#146=FACE_BOUND('',#190,.T.);
#147=FACE_BOUND('',#191,.T.);
#148=EDGE_LOOP('',(#192));
#149=EDGE_LOOP('',(#193));
#150=EDGE_LOOP('',(#194));
#151=EDGE_LOOP('',(#195));
#152=EDGE_LOOP('',(#196));
#153=EDGE_LOOP('',(#197));
#154=EDGE_LOOP('',(#198));
#155=EDGE_LOOP('',(#199));
#156=EDGE_LOOP('',(#200));
#157=EDGE_LOOP('',(#201));
#158=EDGE_LOOP('',(#202));
#159=EDGE_LOOP('',(#203));
#160=EDGE_LOOP('',(#204));
#161=EDGE_LOOP('',(#205));
#162=EDGE_LOOP('',(#206));
#163=EDGE_LOOP('',(#207));
#164=EDGE_LOOP('',(#208));
#165=EDGE_LOOP('',(#209));
#166=EDGE_LOOP('',(#210));
#167=EDGE_LOOP('',(#211));
#168=EDGE_LOOP('',(#212));
#169=EDGE_LOOP('',(#213));
#170=EDGE_LOOP('',(#214));
#171=EDGE_LOOP('',(#215));
#172=EDGE_LOOP('',(#216));
#173=EDGE_LOOP('',(#217));
#174=EDGE_LOOP('',(#218));
#175=EDGE_LOOP('',(#219));
#176=EDGE_LOOP('',(#220));
#177=EDGE_LOOP('',(#221));
#178=EDGE_LOOP('',(#222));
#179=EDGE_LOOP('',(#223));
#180=EDGE_LOOP('',(#224));
#181=EDGE_LOOP('',(#225));
#182=EDGE_LOOP('',(#226));
#183=EDGE_LOOP('',(#227));
#184=EDGE_LOOP('',(#228));
#185=EDGE_LOOP('',(#229));
#186=EDGE_LOOP('',(#230));
#187=EDGE_LOOP('',(#231));
#188=EDGE_LOOP('',(#232));
#189=EDGE_LOOP('',(#233));
#190=EDGE_LOOP('',(#234));
#191=EDGE_LOOP('',(#235));
#192=ORIENTED_EDGE('',*,*,#258,.T.);
#193=ORIENTED_EDGE('',*,*,#258,.F.);
#194=ORIENTED_EDGE('',*,*,#259,.F.);
#195=ORIENTED_EDGE('',*,*,#260,.T.);
#196=ORIENTED_EDGE('',*,*,#260,.F.);
#197=ORIENTED_EDGE('',*,*,#261,.T.);
#198=ORIENTED_EDGE('',*,*,#261,.F.);
#199=ORIENTED_EDGE('',*,*,#262,.T.);
#200=ORIENTED_EDGE('',*,*,#262,.F.);
#201=ORIENTED_EDGE('',*,*,#263,.T.);
#202=ORIENTED_EDGE('',*,*,#263,.F.);
#203=ORIENTED_EDGE('',*,*,#264,.T.);
#204=ORIENTED_EDGE('',*,*,#264,.F.);
#205=ORIENTED_EDGE('',*,*,#265,.T.);
#206=ORIENTED_EDGE('',*,*,#265,.F.);
#207=ORIENTED_EDGE('',*,*,#266,.T.);
#208=ORIENTED_EDGE('',*,*,#266,.F.);
#209=ORIENTED_EDGE('',*,*,#267,.T.);
#210=ORIENTED_EDGE('',*,*,#267,.F.);
#211=ORIENTED_EDGE('',*,*,#268,.T.);
#212=ORIENTED_EDGE('',*,*,#268,.F.);
#213=ORIENTED_EDGE('',*,*,#269,.T.);
#214=ORIENTED_EDGE('',*,*,#269,.F.);
#215=ORIENTED_EDGE('',*,*,#270,.T.);
#216=ORIENTED_EDGE('',*,*,#270,.F.);
#217=ORIENTED_EDGE('',*,*,#271,.T.);
#218=ORIENTED_EDGE('',*,*,#271,.F.);
#219=ORIENTED_EDGE('',*,*,#272,.T.);
#220=ORIENTED_EDGE('',*,*,#272,.F.);
#221=ORIENTED_EDGE('',*,*,#273,.T.);
#222=ORIENTED_EDGE('',*,*,#273,.F.);
#223=ORIENTED_EDGE('',*,*,#274,.T.);
#224=ORIENTED_EDGE('',*,*,#274,.F.);
#225=ORIENTED_EDGE('',*,*,#275,.T.);
#226=ORIENTED_EDGE('',*,*,#275,.F.);
#227=ORIENTED_EDGE('',*,*,#276,.T.);
#228=ORIENTED_EDGE('',*,*,#276,.F.);
#229=ORIENTED_EDGE('',*,*,#277,.T.);
#230=ORIENTED_EDGE('',*,*,#277,.F.);
#231=ORIENTED_EDGE('',*,*,#278,.T.);
#232=ORIENTED_EDGE('',*,*,#278,.F.);
#233=ORIENTED_EDGE('',*,*,#279,.T.);
#234=ORIENTED_EDGE('',*,*,#279,.F.);
#235=ORIENTED_EDGE('',*,*,#259,.T.);
#236=VERTEX_POINT('',#433);
#237=VERTEX_POINT('',#484);
#238=VERTEX_POINT('',#486);
#239=VERTEX_POINT('',#499);
#240=VERTEX_POINT('',#502);
#241=VERTEX_POINT('',#505);
#242=VERTEX_POINT('',#508);
#243=VERTEX_POINT('',#511);
#244=VERTEX_POINT('',#514);
#245=VERTEX_POINT('',#517);
#246=VERTEX_POINT('',#520);
#247=VERTEX_POINT('',#523);
#248=VERTEX_POINT('',#526);
#249=VERTEX_POINT('',#529);
#250=VERTEX_POINT('',#532);
#251=VERTEX_POINT('',#535);
#252=VERTEX_POINT('',#538);
#253=VERTEX_POINT('',#542);
#254=VERTEX_POINT('',#545);
#255=VERTEX_POINT('',#548);
#256=VERTEX_POINT('',#561);
#257=VERTEX_POINT('',#564);
#258=EDGE_CURVE('',#236,#236,#280,.T.);
#259=EDGE_CURVE('',#237,#237,#281,.T.);
#260=EDGE_CURVE('',#238,#238,#282,.T.);
#261=EDGE_CURVE('',#239,#239,#283,.T.);
#262=EDGE_CURVE('',#240,#240,#284,.T.);
#263=EDGE_CURVE('',#241,#241,#285,.T.);
#264=EDGE_CURVE('',#242,#242,#286,.T.);
#265=EDGE_CURVE('',#243,#243,#287,.T.);
#266=EDGE_CURVE('',#244,#244,#288,.T.);
#267=EDGE_CURVE('',#245,#245,#289,.T.);
#268=EDGE_CURVE('',#246,#246,#290,.T.);
#269=EDGE_CURVE('',#247,#247,#291,.T.);
#270=EDGE_CURVE('',#248,#248,#292,.T.);
#271=EDGE_CURVE('',#249,#249,#293,.T.);
#272=EDGE_CURVE('',#250,#250,#294,.T.);
#273=EDGE_CURVE('',#251,#251,#295,.T.);
#274=EDGE_CURVE('',#252,#252,#296,.T.);
#275=EDGE_CURVE('',#253,#253,#297,.T.);
#276=EDGE_CURVE('',#254,#254,#298,.T.);
#277=EDGE_CURVE('',#255,#255,#299,.T.);
#278=EDGE_CURVE('',#256,#256,#300,.T.);
#279=EDGE_CURVE('',#257,#257,#301,.T.);
#280=CIRCLE('',#303,5.);
#281=CIRCLE('',#304,14.8857757600499);
#282=CIRCLE('',#305,13.8394274131755);
#283=CIRCLE('',#306,13.5);
#284=CIRCLE('',#308,13.5);
#285=CIRCLE('',#310,14.5);
#286=CIRCLE('',#312,14.5);
#287=CIRCLE('',#314,14.);
#288=CIRCLE('',#316,10.);
#289=CIRCLE('',#318,8.80352761804101);
#290=CIRCLE('',#320,8.3);
#291=CIRCLE('',#322,8.3);
#292=CIRCLE('',#324,8.5);
#293=CIRCLE('',#326,8.5);
#294=CIRCLE('',#328,7.875);
#295=CIRCLE('',#330,7.875);
#296=CIRCLE('',#332,5.875);
#297=CIRCLE('',#335,7.18818776735738);
#298=CIRCLE('',#337,8.00846277713113);
#299=CIRCLE('',#339,9.58058139536205);
#300=CIRCLE('',#340,12.8419125667746);
#301=CIRCLE('',#342,14.8857757600499);
#302=AXIS2_PLACEMENT_3D('',#431,#344,#345);
#303=AXIS2_PLACEMENT_3D('',#432,#346,#347);
#304=AXIS2_PLACEMENT_3D('',#483,#348,#349);
#305=AXIS2_PLACEMENT_3D('',#485,#350,#351);
#306=AXIS2_PLACEMENT_3D('',#498,#353,#354);
#307=AXIS2_PLACEMENT_3D('',#500,#355,#356);
#308=AXIS2_PLACEMENT_3D('',#501,#357,#358);
#309=AXIS2_PLACEMENT_3D('',#503,#359,#360);
#310=AXIS2_PLACEMENT_3D('',#504,#361,#362);
#311=AXIS2_PLACEMENT_3D('',#506,#363,#364);
#312=AXIS2_PLACEMENT_3D('',#507,#365,#366);
#313=AXIS2_PLACEMENT_3D('',#509,#367,#368);
#314=AXIS2_PLACEMENT_3D('',#510,#369,#370);
#315=AXIS2_PLACEMENT_3D('',#512,#371,#372);
#316=AXIS2_PLACEMENT_3D('',#513,#373,#374);
#317=AXIS2_PLACEMENT_3D('',#515,#375,#376);
#318=AXIS2_PLACEMENT_3D('',#516,#377,#378);
#319=AXIS2_PLACEMENT_3D('',#518,#379,#380);
#320=AXIS2_PLACEMENT_3D('',#519,#381,#382);
#321=AXIS2_PLACEMENT_3D('',#521,#383,#384);
#322=AXIS2_PLACEMENT_3D('',#522,#385,#386);
#323=AXIS2_PLACEMENT_3D('',#524,#387,#388);
#324=AXIS2_PLACEMENT_3D('',#525,#389,#390);
#325=AXIS2_PLACEMENT_3D('',#527,#391,#392);
#326=AXIS2_PLACEMENT_3D('',#528,#393,#394);
#327=AXIS2_PLACEMENT_3D('',#530,#395,#396);
#328=AXIS2_PLACEMENT_3D('',#531,#397,#398);
#329=AXIS2_PLACEMENT_3D('',#533,#399,#400);
#330=AXIS2_PLACEMENT_3D('',#534,#401,#402);
#331=AXIS2_PLACEMENT_3D('',#536,#403,#404);
#332=AXIS2_PLACEMENT_3D('',#537,#405,#406);
#333=AXIS2_PLACEMENT_3D('',#539,#407,#408);
#334=AXIS2_PLACEMENT_3D('',#540,#409,#410);
#335=AXIS2_PLACEMENT_3D('',#541,#411,#412);
#336=AXIS2_PLACEMENT_3D('',#543,#413,#414);
#337=AXIS2_PLACEMENT_3D('',#544,#415,#416);
#338=AXIS2_PLACEMENT_3D('',#546,#417,#418);
#339=AXIS2_PLACEMENT_3D('',#547,#419,#420);
#340=AXIS2_PLACEMENT_3D('',#560,#422,#423);
#341=AXIS2_PLACEMENT_3D('',#562,#424,#425);
#342=AXIS2_PLACEMENT_3D('',#563,#426,#427);
#343=AXIS2_PLACEMENT_3D('',#576,#429,#430);
#344=DIRECTION('',(0.,0.,1.));
#345=DIRECTION('',(1.,0.,0.));
#346=DIRECTION('',(0.,0.,1.));
#347=DIRECTION('',(1.,0.,0.));
#348=DIRECTION('',(-1.,0.,0.));
#349=DIRECTION('',(0.,0.,1.));
#350=DIRECTION('',(-1.,0.,0.));
#351=DIRECTION('',(0.,0.,1.));
#352=DIRECTION('',(-1.,0.,0.));
#353=DIRECTION('',(-1.,0.,0.));
#354=DIRECTION('',(0.,0.,1.));
#355=DIRECTION('',(-1.,0.,0.));
#356=DIRECTION('',(0.,0.,1.));
#357=DIRECTION('',(-1.,0.,0.));
#358=DIRECTION('',(0.,0.,1.));
#359=DIRECTION('',(-1.,0.,0.));
#360=DIRECTION('',(0.,0.,1.));
#361=DIRECTION('',(-1.,0.,0.));
#362=DIRECTION('',(0.,0.,1.));
#363=DIRECTION('',(1.,0.,0.));
#364=DIRECTION('',(3.41985899650434E-17,0.,-1.));
#365=DIRECTION('',(-1.,0.,0.));
#366=DIRECTION('',(0.,0.,1.));
#367=DIRECTION('',(-1.,0.,0.));
#368=DIRECTION('',(0.,0.,1.));
#369=DIRECTION('',(-1.,0.,0.));
#370=DIRECTION('',(0.,0.,1.));
#371=DIRECTION('',(-1.,0.,0.));
#372=DIRECTION('',(4.10585438101019E-17,0.,1.));
#373=DIRECTION('',(-1.,0.,0.));
#374=DIRECTION('',(0.,0.,1.));
#375=DIRECTION('',(-1.,0.,0.));
#376=DIRECTION('',(0.,0.,1.));
#377=DIRECTION('',(-1.,0.,0.));
#378=DIRECTION('',(0.,0.,1.));
#379=DIRECTION('',(1.,0.,0.));
#380=DIRECTION('',(-9.27447754198716E-18,0.,-1.));
#381=DIRECTION('',(-1.,0.,0.));
#382=DIRECTION('',(0.,0.,1.));
#383=DIRECTION('',(-1.,0.,0.));
#384=DIRECTION('',(0.,0.,1.));
#385=DIRECTION('',(-1.,0.,0.));
#386=DIRECTION('',(0.,0.,1.));
#387=DIRECTION('',(-1.,0.,0.));
#388=DIRECTION('',(0.,0.,1.));
#389=DIRECTION('',(-1.,0.,0.));
#390=DIRECTION('',(0.,0.,1.));
#391=DIRECTION('',(1.,0.,0.));
#392=DIRECTION('',(5.02001387154427E-17,0.,-1.));
#393=DIRECTION('',(-1.,0.,0.));
#394=DIRECTION('',(0.,0.,1.));
#395=DIRECTION('',(-1.,0.,0.));
#396=DIRECTION('',(0.,0.,1.));
#397=DIRECTION('',(-1.,0.,0.));
#398=DIRECTION('',(0.,0.,1.));
#399=DIRECTION('',(-1.,0.,0.));
#400=DIRECTION('',(7.11407480423631E-17,0.,1.));
#401=DIRECTION('',(-1.,0.,0.));
#402=DIRECTION('',(0.,0.,1.));
#403=DIRECTION('',(-1.,0.,0.));
#404=DIRECTION('',(0.,0.,1.));
#405=DIRECTION('',(-1.,0.,0.));
#406=DIRECTION('',(0.,0.,1.));
#407=DIRECTION('',(-1.,0.,0.));
#408=DIRECTION('',(5.51869280290865E-17,0.,1.));
#409=DIRECTION('',(-1.,0.,0.));
#410=DIRECTION('',(0.,0.,1.));
#411=DIRECTION('',(-1.,0.,0.));
#412=DIRECTION('',(0.,0.,1.));
#413=DIRECTION('',(1.,0.,0.));
#414=DIRECTION('',(0.,0.,-1.));
#415=DIRECTION('',(-1.,0.,0.));
#416=DIRECTION('',(0.,0.,1.));
#417=DIRECTION('',(-1.,0.,0.));
#418=DIRECTION('',(0.,0.,1.));
#419=DIRECTION('',(-1.,0.,0.));
#420=DIRECTION('',(0.,0.,1.));
#421=DIRECTION('',(-1.,0.,0.));
#422=DIRECTION('',(-1.,0.,0.));
#423=DIRECTION('',(0.,0.,1.));
#424=DIRECTION('',(1.,0.,0.));
#425=DIRECTION('',(0.,0.,-1.));
#426=DIRECTION('',(-1.,0.,0.));
#427=DIRECTION('',(0.,0.,1.));
#428=DIRECTION('',(-1.,0.,0.));
#429=DIRECTION('',(-1.,0.,0.));
#430=DIRECTION('',(0.,0.,1.));
#431=CARTESIAN_POINT('',(0.,0.,0.));
#432=CARTESIAN_POINT('',(5.,-10.92942165,1.5));
#433=CARTESIAN_POINT('',(10.,-10.92942165,1.5));
#434=CARTESIAN_POINT('',(10.,-10.92942165,1.5));
#435=CARTESIAN_POINT('',(10.,-13.92942165,-20.3588433));
#436=CARTESIAN_POINT('',(10.,7.92942165,-23.3588433));
#437=CARTESIAN_POINT('',(10.,10.92942165,-1.5));
#438=CARTESIAN_POINT('',(10.,13.92942165,20.3588433));
#439=CARTESIAN_POINT('',(10.,-7.92942165,23.3588433));
#440=CARTESIAN_POINT('',(10.,-10.92942165,1.5));
#441=CARTESIAN_POINT('',(10.,-0.92942165,1.5));
#442=CARTESIAN_POINT('',(10.,-3.92942165000001,-0.358843300000003));
#443=CARTESIAN_POINT('',(10.,-2.07057835,-3.35884330000001));
#444=CARTESIAN_POINT('',(10.,0.92942165,-1.5));
#445=CARTESIAN_POINT('',(10.,3.92942165000001,0.358843300000003));
#446=CARTESIAN_POINT('',(10.,2.07057835,3.35884330000001));
#447=CARTESIAN_POINT('',(10.,-0.92942165,1.5));
#448=CARTESIAN_POINT('',(-5.10076676829453E-16,-0.92942165,1.5));
#449=CARTESIAN_POINT('',(-5.10076676829455E-16,-3.92942165000001,-0.358843300000003));
#450=CARTESIAN_POINT('',(-5.10076676829455E-16,-2.07057835,-3.35884330000001));
#451=CARTESIAN_POINT('',(-5.10076676829453E-16,0.92942165,-1.5));
#452=CARTESIAN_POINT('',(-5.10076676829455E-16,3.92942165000001,0.358843300000003));
#453=CARTESIAN_POINT('',(-5.10076676829455E-16,2.07057835,3.35884330000001));
#454=CARTESIAN_POINT('',(-5.10076676829453E-16,-0.92942165,1.5));
#455=CARTESIAN_POINT('',(-1.7347234759768E-15,-10.92942165,1.5));
#456=CARTESIAN_POINT('',(-1.73472347597681E-15,-13.92942165,-20.3588433));
#457=CARTESIAN_POINT('',(-1.73472347597681E-15,7.92942165,-23.3588433));
#458=CARTESIAN_POINT('',(-1.7347234759768E-15,10.92942165,-1.5));
#459=CARTESIAN_POINT('',(-1.73472347597681E-15,13.92942165,20.3588433));
#460=CARTESIAN_POINT('',(-1.73472347597681E-15,-7.92942165,23.3588433));
#461=CARTESIAN_POINT('',(-1.7347234759768E-15,-10.92942165,1.5));
#462=CARTESIAN_POINT('',(-2.95937027512416E-15,-20.92942165,1.5));
#463=CARTESIAN_POINT('',(-2.95937027512416E-15,-23.92942165,-40.3588433000001));
#464=CARTESIAN_POINT('',(-2.95937027512416E-15,17.92942165,-43.3588433000001));
#465=CARTESIAN_POINT('',(-2.95937027512416E-15,20.92942165,-1.5));
#466=CARTESIAN_POINT('',(-2.95937027512416E-15,23.92942165,40.3588433000001));
#467=CARTESIAN_POINT('',(-2.95937027512416E-15,-17.92942165,43.3588433000001));
#468=CARTESIAN_POINT('',(-2.95937027512416E-15,-20.92942165,1.5));
#469=CARTESIAN_POINT('',(10.,-20.92942165,1.5));
#470=CARTESIAN_POINT('',(10.,-23.92942165,-40.3588433000001));
#471=CARTESIAN_POINT('',(10.,17.92942165,-43.3588433000001));
#472=CARTESIAN_POINT('',(10.,20.92942165,-1.5));
#473=CARTESIAN_POINT('',(10.,23.92942165,40.3588433000001));
#474=CARTESIAN_POINT('',(10.,-17.92942165,43.3588433000001));
#475=CARTESIAN_POINT('',(10.,-20.92942165,1.5));
#476=CARTESIAN_POINT('',(10.,-10.92942165,1.5));
#477=CARTESIAN_POINT('',(10.,-13.92942165,-20.3588433));
#478=CARTESIAN_POINT('',(10.,7.92942165,-23.3588433));
#479=CARTESIAN_POINT('',(10.,10.92942165,-1.5));
#480=CARTESIAN_POINT('',(10.,13.92942165,20.3588433));
#481=CARTESIAN_POINT('',(10.,-7.92942165,23.3588433));
#482=CARTESIAN_POINT('',(10.,-10.92942165,1.5));
#483=CARTESIAN_POINT('',(6.67271381874826,0.,0.));
#484=CARTESIAN_POINT('',(6.67271381874826,0.,14.8857757600499));
#485=CARTESIAN_POINT('',(8.10417833549079,0.,0.));
#486=CARTESIAN_POINT('',(8.10417833549079,0.,13.8394274131755));
#487=CARTESIAN_POINT('',(8.75,12.8419125667746,0.));
#488=CARTESIAN_POINT('',(8.64632635490814,13.0699953092828,0.));
#489=CARTESIAN_POINT('',(8.52311391828588,13.2848113912208,0.));
#490=CARTESIAN_POINT('',(8.23965715206705,13.6892992387967,0.));
#491=CARTESIAN_POINT('',(8.07803640185863,13.8802680520917,0.));
#492=CARTESIAN_POINT('',(7.7222030505617,14.2297525088774,0.));
#493=CARTESIAN_POINT('',(7.5306731363035,14.3861541792461,0.));
#494=CARTESIAN_POINT('',(7.12127187849646,14.6634687927091,0.));
#495=CARTESIAN_POINT('',(6.90197929152289,14.7849279422789,0.));
#496=CARTESIAN_POINT('',(6.67271381874826,14.8857757600499,0.));
#497=CARTESIAN_POINT('',(0.,0.,0.));
#498=CARTESIAN_POINT('',(8.85494051989812,0.,0.));
#499=CARTESIAN_POINT('',(8.85494051989812,0.,13.5));
#500=CARTESIAN_POINT('',(8.85494051989812,0.,0.));
#501=CARTESIAN_POINT('',(37.,0.,0.));
#502=CARTESIAN_POINT('',(37.,0.,13.5));
#503=CARTESIAN_POINT('',(0.,0.,0.));
#504=CARTESIAN_POINT('',(38.,0.,0.));
#505=CARTESIAN_POINT('',(38.,0.,14.5));
#506=CARTESIAN_POINT('',(38.,0.,0.));
#507=CARTESIAN_POINT('',(42.5,0.,0.));
#508=CARTESIAN_POINT('',(42.5,0.,14.5));
#509=CARTESIAN_POINT('',(0.,0.,0.));
#510=CARTESIAN_POINT('',(43.,0.,0.));
#511=CARTESIAN_POINT('',(43.,0.,14.));
#512=CARTESIAN_POINT('',(43.,0.,0.));
#513=CARTESIAN_POINT('',(43.,0.,0.));
#514=CARTESIAN_POINT('',(43.,0.,10.));
#515=CARTESIAN_POINT('',(43.,14.,0.));
#516=CARTESIAN_POINT('',(42.6794061914879,0.,0.));
#517=CARTESIAN_POINT('',(42.6794061914879,0.,8.80352761804101));
#518=CARTESIAN_POINT('',(42.6794061914879,0.,0.));
#519=CARTESIAN_POINT('',(43.0657765220036,0.,0.));
#520=CARTESIAN_POINT('',(43.0657765220036,0.,8.3));
#521=CARTESIAN_POINT('',(43.0657765220036,0.,0.));
#522=CARTESIAN_POINT('',(43.4535898384862,0.,0.));
#523=CARTESIAN_POINT('',(43.4535898384862,0.,8.3));
#524=CARTESIAN_POINT('',(0.,0.,0.));
#525=CARTESIAN_POINT('',(44.2,0.,0.));
#526=CARTESIAN_POINT('',(44.2,0.,8.5));
#527=CARTESIAN_POINT('',(44.2,0.,0.));
#528=CARTESIAN_POINT('',(49.,0.,0.));
#529=CARTESIAN_POINT('',(49.,0.,8.5));
#530=CARTESIAN_POINT('',(0.,0.,0.));
#531=CARTESIAN_POINT('',(50.0825317547305,0.,0.));
#532=CARTESIAN_POINT('',(50.0825317547305,0.,7.875));
#533=CARTESIAN_POINT('',(50.0825317547305,0.,0.));
#534=CARTESIAN_POINT('',(66.,0.,0.));
#535=CARTESIAN_POINT('',(66.,0.,7.875));
#536=CARTESIAN_POINT('',(0.,0.,0.));
#537=CARTESIAN_POINT('',(68.,0.,0.));
#538=CARTESIAN_POINT('',(68.,0.,5.875));
#539=CARTESIAN_POINT('',(68.,0.,0.));
#540=CARTESIAN_POINT('',(68.,5.875,0.));
#541=CARTESIAN_POINT('',(3.,0.,0.));
#542=CARTESIAN_POINT('',(3.,0.,7.18818776735738));
#543=CARTESIAN_POINT('',(3.,7.18818776735738,0.));
#544=CARTESIAN_POINT('',(2.57196932465008,0.,0.));
#545=CARTESIAN_POINT('',(2.57196932465008,0.,8.00846277713113));
#546=CARTESIAN_POINT('',(2.,0.,0.));
#547=CARTESIAN_POINT('',(1.25,0.,0.));
#548=CARTESIAN_POINT('',(1.25,0.,9.58058139536205));
#549=CARTESIAN_POINT('',(1.25,9.58058139536205,0.));
#550=CARTESIAN_POINT('',(1.35367249186202,9.35601857624501,0.));
#551=CARTESIAN_POINT('',(1.47702912693218,9.14501350575782,0.));
#552=CARTESIAN_POINT('',(1.76116849915742,8.74878115347851,0.));
#553=CARTESIAN_POINT('',(1.92358433586011,8.56208624267637,0.));
#554=CARTESIAN_POINT('',(2.27977700207766,8.22287795224541,0.));
#555=CARTESIAN_POINT('',(2.47142981648396,8.07175293120683,0.));
#556=CARTESIAN_POINT('',(2.88061881304603,7.80478505094301,0.));
#557=CARTESIAN_POINT('',(3.09953830954522,7.68849251076086,0.));
#558=CARTESIAN_POINT('',(3.32728618125174,7.59243012667807,0.));
#559=CARTESIAN_POINT('',(0.,0.,0.));
#560=CARTESIAN_POINT('',(1.25,0.,0.));
#561=CARTESIAN_POINT('',(1.25,0.,12.8419125667746));
#562=CARTESIAN_POINT('',(1.25,12.8419125667746,0.));
#563=CARTESIAN_POINT('',(3.32728618125174,0.,0.));
#564=CARTESIAN_POINT('',(3.32728618125174,0.,14.8857757600499));
#565=CARTESIAN_POINT('',(3.32728618125174,14.8857757600499,0.));
#566=CARTESIAN_POINT('',(3.09796868485987,14.7849050584656,0.));
#567=CARTESIAN_POINT('',(2.88122559722961,14.6649338786138,0.));
#568=CARTESIAN_POINT('',(2.47197775270418,14.3881735882846,0.));
#569=CARTESIAN_POINT('',(2.27824452239752,14.2301539464995,0.));
#570=CARTESIAN_POINT('',(1.92215177791787,13.8804909558443,0.));
#571=CARTESIAN_POINT('',(1.76232916947369,13.6918077429624,0.));
#572=CARTESIAN_POINT('',(1.47840009203302,13.2872938035832,0.));
#573=CARTESIAN_POINT('',(1.35369611341349,13.0700447397471,0.));
#574=CARTESIAN_POINT('',(1.25,12.8419125667746,0.));
#575=CARTESIAN_POINT('',(0.,0.,0.));
#576=CARTESIAN_POINT('',(0.,0.,0.));
#577=MECHANICAL_DESIGN_GEOMETRIC_PRESENTATION_REPRESENTATION('',(#63,#64),
#578);
#578=(
GEOMETRIC_REPRESENTATION_CONTEXT(3)
GLOBAL_UNCERTAINTY_ASSIGNED_CONTEXT((#579))
GLOBAL_UNIT_ASSIGNED_CONTEXT((#585,#581,#580))
REPRESENTATION_CONTEXT('AEMR-RP10T3M-D32-M16-L43-Z03-H',
'TOP_LEVEL_ASSEMBLY_PART')
);
#579=UNCERTAINTY_MEASURE_WITH_UNIT(LENGTH_MEASURE(2.E-5),#585,
'DISTANCE_ACCURACY_VALUE','Maximum Tolerance applied to model');
#580=(
NAMED_UNIT(*)
SI_UNIT($,.STERADIAN.)
SOLID_ANGLE_UNIT()
);
#581=(
CONVERSION_BASED_UNIT('DEGREE',#583)
NAMED_UNIT(#582)
PLANE_ANGLE_UNIT()
);
#582=DIMENSIONAL_EXPONENTS(0.,0.,0.,0.,0.,0.,0.);
#583=PLANE_ANGLE_MEASURE_WITH_UNIT(PLANE_ANGLE_MEASURE(0.0174532925),#584);
#584=(
NAMED_UNIT(*)
PLANE_ANGLE_UNIT()
SI_UNIT($,.RADIAN.)
);
#585=(
LENGTH_UNIT()
NAMED_UNIT(*)
SI_UNIT(.MILLI.,.METRE.)
);
ENDSEC;
END-ISO-10303-21;
