ISO-10303-21;
HEADER;
/* Generated by software containing ST-Developer
 * from STEP Tools, Inc. (www.steptools.com) 
 */
/* OPTION: using custom schema-name function */

FILE_DESCRIPTION(
/* description */ (''),
/* implementation_level */ '2;1');

FILE_NAME(
/* name */ 'model1.stp',
/* time_stamp */ '2023-11-06T17:40:23+03:00',
/* author */ (''),
/* organization */ (''),
/* preprocessor_version */ 'ST-DEVELOPER v19.4',
/* originating_system */ 'SIEMENS PLM Software NX2306.3001',
/* authorisation */ '');

FILE_SCHEMA (('AUTOMOTIVE_DESIGN { 1 0 10303 214 3 1 1 1 }'));
ENDSEC;

DATA;
#10=PROPERTY_DEFINITION_REPRESENTATION(#14,#12);
#11=PROPERTY_DEFINITION_REPRESENTATION(#15,#13);
#12=REPRESENTATION('',(#16),#515);
#13=REPRESENTATION('',(#17),#515);
#14=PROPERTY_DEFINITION('pmi validation property','',#21);
#15=PROPERTY_DEFINITION('pmi validation property','',#21);
#16=VALUE_REPRESENTATION_ITEM('number of annotations',COUNT_MEASURE(0.));
#17=VALUE_REPRESENTATION_ITEM('number of views',COUNT_MEASURE(0.));
#18=SHAPE_REPRESENTATION_RELATIONSHIP('None',
'relationship between model1_objects-None and model1_objects-None',#30,
#19);
#19=ADVANCED_BREP_SHAPE_REPRESENTATION('model1_objects-None',(#141,#142),
#515);
#20=SHAPE_DEFINITION_REPRESENTATION(#21,#30);
#21=PRODUCT_DEFINITION_SHAPE('','',#22);
#22=PRODUCT_DEFINITION(' ','',#24,#23);
#23=PRODUCT_DEFINITION_CONTEXT('part definition',#29,'design');
#24=PRODUCT_DEFINITION_FORMATION_WITH_SPECIFIED_SOURCE(' ',' ',#26,
 .NOT_KNOWN.);
#25=PRODUCT_RELATED_PRODUCT_CATEGORY('part','',(#26));
#26=PRODUCT('model1_objects','model1_objects',' ',(#27));
#27=PRODUCT_CONTEXT(' ',#29,'mechanical');
#28=APPLICATION_PROTOCOL_DEFINITION('international standard',
'automotive_design',2010,#29);
#29=APPLICATION_CONTEXT(
'core data for automotive mechanical design processes');
#30=SHAPE_REPRESENTATION('model1_objects-None',(#266),#515);
#31=OVER_RIDING_STYLED_ITEM('',(#64),#147,#61);
#32=OVER_RIDING_STYLED_ITEM('',(#65),#148,#61);
#33=OVER_RIDING_STYLED_ITEM('',(#66),#149,#61);
#34=OVER_RIDING_STYLED_ITEM('',(#67),#150,#61);
#35=OVER_RIDING_STYLED_ITEM('',(#68),#151,#61);
#36=OVER_RIDING_STYLED_ITEM('',(#69),#152,#61);
#37=OVER_RIDING_STYLED_ITEM('',(#70),#153,#61);
#38=OVER_RIDING_STYLED_ITEM('',(#71),#154,#61);
#39=OVER_RIDING_STYLED_ITEM('',(#72),#155,#61);
#40=OVER_RIDING_STYLED_ITEM('',(#73),#156,#61);
#41=OVER_RIDING_STYLED_ITEM('',(#74),#157,#61);
#42=COLOUR_RGB('Medium Steel',0.611764705882353,0.658823529411765,0.670588235294118);
#43=COLOUR_RGB('silver gray',0.6,0.6,0.6);
#44=CONICAL_SURFACE('',#283,10.,45.0000000000005);
#45=CONICAL_SURFACE('',#287,9.75,9.99999999999998);
#46=CYLINDRICAL_SURFACE('',#279,9.);
#47=CYLINDRICAL_SURFACE('',#285,10.);
#48=CYLINDRICAL_SURFACE('',#288,9.75);
#49=SURFACE_OF_REVOLUTION('',#51,#50);
#50=AXIS1_PLACEMENT('',#495,#309);
#51=B_SPLINE_CURVE_WITH_KNOTS('',3,(#429,#430,#431,#432,#433,#434,#435,
#436,#437,#438,#439,#440,#441,#442,#443,#444,#445,#446,#447,#448,#449,#450,
#451,#452,#453,#454,#455,#456,#457,#458,#459,#460,#461,#462,#463,#464,#465,
#466,#467,#468,#469,#470,#471,#472,#473,#474,#475,#476,#477,#478,#479,#480,
#481,#482,#483,#484,#485,#486,#487,#488,#489,#490,#491,#492,#493,#494),
 .UNSPECIFIED.,.T.,.F.,(2,2,2,2,2,2,2,2,2,2,2,2,2,2,2,2,2,2,2,2,2,2,2,2,
2,2,2,2,2,2,2,2,2,2,2),(-0.03125,0.,0.03125,0.0625,0.09375,0.109375,0.125,
0.15625,0.1875,0.21875,0.25,0.3125,0.34375,0.375,0.40625,0.4375,0.46875,
0.5,0.53125,0.5625,0.59375,0.625,0.65625,0.6875,0.71875,0.75,0.78125,0.8125,
0.84375,0.875,0.90625,0.9375,0.96875,1.,1.03125),.UNSPECIFIED.);
#52=PLANE('',#272);
#53=PLANE('',#274);
#54=FACE_OUTER_BOUND('',#188,.T.);
#55=FACE_OUTER_BOUND('',#189,.T.);
#56=TOROIDAL_SURFACE('',#271,8.75,1.);
#57=TOROIDAL_SURFACE('',#277,10.0000000000582,1.0000000000291);
#58=TOROIDAL_SURFACE('',#281,11.,2.);
#59=PRESENTATION_LAYER_ASSIGNMENT('1','Layer 1',(#141,#142));
#60=STYLED_ITEM('',(#62),#141);
#61=STYLED_ITEM('',(#63),#142);
#62=PRESENTATION_STYLE_ASSIGNMENT((#75));
#63=PRESENTATION_STYLE_ASSIGNMENT((#76));
#64=PRESENTATION_STYLE_ASSIGNMENT((#77));
#65=PRESENTATION_STYLE_ASSIGNMENT((#78));
#66=PRESENTATION_STYLE_ASSIGNMENT((#79));
#67=PRESENTATION_STYLE_ASSIGNMENT((#80));
#68=PRESENTATION_STYLE_ASSIGNMENT((#81));
#69=PRESENTATION_STYLE_ASSIGNMENT((#82));
#70=PRESENTATION_STYLE_ASSIGNMENT((#83));
#71=PRESENTATION_STYLE_ASSIGNMENT((#84));
#72=PRESENTATION_STYLE_ASSIGNMENT((#85));
#73=PRESENTATION_STYLE_ASSIGNMENT((#86));
#74=PRESENTATION_STYLE_ASSIGNMENT((#87));
#75=SURFACE_STYLE_USAGE(.BOTH.,#88);
#76=SURFACE_STYLE_USAGE(.BOTH.,#89);
#77=SURFACE_STYLE_USAGE(.BOTH.,#90);
#78=SURFACE_STYLE_USAGE(.BOTH.,#91);
#79=SURFACE_STYLE_USAGE(.BOTH.,#92);
#80=SURFACE_STYLE_USAGE(.BOTH.,#93);
#81=SURFACE_STYLE_USAGE(.BOTH.,#94);
#82=SURFACE_STYLE_USAGE(.BOTH.,#95);
#83=SURFACE_STYLE_USAGE(.BOTH.,#96);
#84=SURFACE_STYLE_USAGE(.BOTH.,#97);
#85=SURFACE_STYLE_USAGE(.BOTH.,#98);
#86=SURFACE_STYLE_USAGE(.BOTH.,#99);
#87=SURFACE_STYLE_USAGE(.BOTH.,#100);
#88=SURFACE_SIDE_STYLE('',(#101));
#89=SURFACE_SIDE_STYLE('',(#102));
#90=SURFACE_SIDE_STYLE('',(#103));
#91=SURFACE_SIDE_STYLE('',(#104));
#92=SURFACE_SIDE_STYLE('',(#105));
#93=SURFACE_SIDE_STYLE('',(#106));
#94=SURFACE_SIDE_STYLE('',(#107));
#95=SURFACE_SIDE_STYLE('',(#108));
#96=SURFACE_SIDE_STYLE('',(#109));
#97=SURFACE_SIDE_STYLE('',(#110));
#98=SURFACE_SIDE_STYLE('',(#111));
#99=SURFACE_SIDE_STYLE('',(#112));
#100=SURFACE_SIDE_STYLE('',(#113));
#101=SURFACE_STYLE_FILL_AREA(#114);
#102=SURFACE_STYLE_FILL_AREA(#115);
#103=SURFACE_STYLE_FILL_AREA(#116);
#104=SURFACE_STYLE_FILL_AREA(#117);
#105=SURFACE_STYLE_FILL_AREA(#118);
#106=SURFACE_STYLE_FILL_AREA(#119);
#107=SURFACE_STYLE_FILL_AREA(#120);
#108=SURFACE_STYLE_FILL_AREA(#121);
#109=SURFACE_STYLE_FILL_AREA(#122);
#110=SURFACE_STYLE_FILL_AREA(#123);
#111=SURFACE_STYLE_FILL_AREA(#124);
#112=SURFACE_STYLE_FILL_AREA(#125);
#113=SURFACE_STYLE_FILL_AREA(#126);
#114=FILL_AREA_STYLE('',(#127));
#115=FILL_AREA_STYLE('',(#128));
#116=FILL_AREA_STYLE('',(#129));
#117=FILL_AREA_STYLE('',(#130));
#118=FILL_AREA_STYLE('',(#131));
#119=FILL_AREA_STYLE('',(#132));
#120=FILL_AREA_STYLE('',(#133));
#121=FILL_AREA_STYLE('',(#134));
#122=FILL_AREA_STYLE('',(#135));
#123=FILL_AREA_STYLE('',(#136));
#124=FILL_AREA_STYLE('',(#137));
#125=FILL_AREA_STYLE('',(#138));
#126=FILL_AREA_STYLE('',(#139));
#127=FILL_AREA_STYLE_COLOUR('',#140);
#128=FILL_AREA_STYLE_COLOUR('',#42);
#129=FILL_AREA_STYLE_COLOUR('',#43);
#130=FILL_AREA_STYLE_COLOUR('',#43);
#131=FILL_AREA_STYLE_COLOUR('',#43);
#132=FILL_AREA_STYLE_COLOUR('',#43);
#133=FILL_AREA_STYLE_COLOUR('',#43);
#134=FILL_AREA_STYLE_COLOUR('',#43);
#135=FILL_AREA_STYLE_COLOUR('',#43);
#136=FILL_AREA_STYLE_COLOUR('',#43);
#137=FILL_AREA_STYLE_COLOUR('',#43);
#138=FILL_AREA_STYLE_COLOUR('',#43);
#139=FILL_AREA_STYLE_COLOUR('',#43);
#140=DRAUGHTING_PRE_DEFINED_COLOUR('yellow');
#141=MANIFOLD_SOLID_BREP('',#143);
#142=MANIFOLD_SOLID_BREP('',#144);
#143=CLOSED_SHELL('',(#145,#146));
#144=CLOSED_SHELL('',(#147,#148,#149,#150,#151,#152,#153,#154,#155,#156,
#157));
#145=ADVANCED_FACE('',(#160,#161),#158,.F.);
#146=ADVANCED_FACE('',(#162,#163),#159,.F.);
#147=ADVANCED_FACE('',(#164,#165),#56,.T.);
#148=ADVANCED_FACE('',(#54),#52,.F.);
#149=ADVANCED_FACE('',(#55),#53,.F.);
#150=ADVANCED_FACE('',(#166,#167),#49,.T.);
#151=ADVANCED_FACE('',(#168,#169),#57,.F.);
#152=ADVANCED_FACE('',(#170,#171),#46,.T.);
#153=ADVANCED_FACE('',(#172,#173),#58,.F.);
#154=ADVANCED_FACE('',(#174,#175),#44,.T.);
#155=ADVANCED_FACE('',(#176,#177),#47,.T.);
#156=ADVANCED_FACE('',(#178,#179),#45,.T.);
#157=ADVANCED_FACE('',(#180,#181),#48,.T.);
#158=(
BOUNDED_SURFACE()
B_SPLINE_SURFACE(3,3,((#341,#342,#343,#344,#345,#346,#347),(#348,#349,#350,
#351,#352,#353,#354),(#355,#356,#357,#358,#359,#360,#361),(#362,#363,#364,
#365,#366,#367,#368),(#369,#370,#371,#372,#373,#374,#375),(#376,#377,#378,
#379,#380,#381,#382),(#383,#384,#385,#386,#387,#388,#389)),
 .UNSPECIFIED.,.T.,.F.,.F.)
B_SPLINE_SURFACE_WITH_KNOTS((1,3,3,3,1),(4,3,4),(-0.5,0.,0.5,1.,1.5),(0.,
0.5,1.),.UNSPECIFIED.)
GEOMETRIC_REPRESENTATION_ITEM()
RATIONAL_B_SPLINE_SURFACE(((1.,0.562367368925886,0.562367368925886,1.,0.562367368925886,
0.562367368925886,1.),(0.333333333333334,0.187455789641962,0.187455789641962,
0.333333333333334,0.187455789641962,0.187455789641962,0.333333333333334),
(0.333333333333334,0.187455789641962,0.187455789641962,0.333333333333334,
0.187455789641962,0.187455789641962,0.333333333333334),(1.,0.562367368925886,
0.562367368925886,1.,0.562367368925886,0.562367368925886,1.),(0.333333333333334,
0.187455789641962,0.187455789641962,0.333333333333334,0.187455789641962,
0.187455789641962,0.333333333333334),(0.333333333333334,0.187455789641962,
0.187455789641962,0.333333333333334,0.187455789641962,0.187455789641962,
0.333333333333334),(1.,0.562367368925886,0.562367368925886,1.,0.562367368925886,
0.562367368925886,1.)))
REPRESENTATION_ITEM('')
SURFACE()
);
#159=(
BOUNDED_SURFACE()
B_SPLINE_SURFACE(3,3,((#390,#391,#392,#393),(#394,#395,#396,#397),(#398,
#399,#400,#401),(#402,#403,#404,#405),(#406,#407,#408,#409),(#410,#411,
#412,#413),(#414,#415,#416,#417)),.UNSPECIFIED.,.T.,.F.,.F.)
B_SPLINE_SURFACE_WITH_KNOTS((1,3,3,3,1),(4,4),(-0.5,0.,0.5,1.,1.5),(0.,
1.),.UNSPECIFIED.)
GEOMETRIC_REPRESENTATION_ITEM()
RATIONAL_B_SPLINE_SURFACE(((1.,0.842630231620568,0.842630231620568,1.),
(0.333333333333334,0.280876743873522,0.280876743873522,0.333333333333334),
(0.333333333333334,0.280876743873522,0.280876743873522,0.333333333333334),
(1.,0.842630231620568,0.842630231620568,1.),(0.333333333333334,0.280876743873522,
0.280876743873522,0.333333333333334),(0.333333333333334,0.280876743873522,
0.280876743873522,0.333333333333334),(1.,0.842630231620568,0.842630231620568,
1.)))
REPRESENTATION_ITEM('')
SURFACE()
);
#160=FACE_BOUND('',#182,.T.);
#161=FACE_BOUND('',#183,.T.);
#162=FACE_BOUND('',#184,.T.);
#163=FACE_BOUND('',#185,.T.);
#164=FACE_BOUND('',#186,.T.);
#165=FACE_BOUND('',#187,.T.);
#166=FACE_BOUND('',#190,.T.);
#167=FACE_BOUND('',#191,.T.);
#168=FACE_BOUND('',#192,.T.);
#169=FACE_BOUND('',#193,.T.);
#170=FACE_BOUND('',#194,.T.);
#171=FACE_BOUND('',#195,.T.);
#172=FACE_BOUND('',#196,.T.);
#173=FACE_BOUND('',#197,.T.);
#174=FACE_BOUND('',#198,.T.);
#175=FACE_BOUND('',#199,.T.);
#176=FACE_BOUND('',#200,.T.);
#177=FACE_BOUND('',#201,.T.);
#178=FACE_BOUND('',#202,.T.);
#179=FACE_BOUND('',#203,.T.);
#180=FACE_BOUND('',#204,.T.);
#181=FACE_BOUND('',#205,.T.);
#182=EDGE_LOOP('',(#206));
#183=EDGE_LOOP('',(#207));
#184=EDGE_LOOP('',(#208));
#185=EDGE_LOOP('',(#209));
#186=EDGE_LOOP('',(#210));
#187=EDGE_LOOP('',(#211));
#188=EDGE_LOOP('',(#212));
#189=EDGE_LOOP('',(#213));
#190=EDGE_LOOP('',(#214));
#191=EDGE_LOOP('',(#215));
#192=EDGE_LOOP('',(#216));
#193=EDGE_LOOP('',(#217));
#194=EDGE_LOOP('',(#218));
#195=EDGE_LOOP('',(#219));
#196=EDGE_LOOP('',(#220));
#197=EDGE_LOOP('',(#221));
#198=EDGE_LOOP('',(#222));
#199=EDGE_LOOP('',(#223));
#200=EDGE_LOOP('',(#224));
#201=EDGE_LOOP('',(#225));
#202=EDGE_LOOP('',(#226));
#203=EDGE_LOOP('',(#227));
#204=EDGE_LOOP('',(#228));
#205=EDGE_LOOP('',(#229));
#206=ORIENTED_EDGE('',*,*,#242,.T.);
#207=ORIENTED_EDGE('',*,*,#243,.F.);
#208=ORIENTED_EDGE('',*,*,#243,.T.);
#209=ORIENTED_EDGE('',*,*,#242,.F.);
#210=ORIENTED_EDGE('',*,*,#244,.F.);
#211=ORIENTED_EDGE('',*,*,#245,.T.);
#212=ORIENTED_EDGE('',*,*,#245,.F.);
#213=ORIENTED_EDGE('',*,*,#246,.T.);
#214=ORIENTED_EDGE('',*,*,#246,.F.);
#215=ORIENTED_EDGE('',*,*,#247,.T.);
#216=ORIENTED_EDGE('',*,*,#247,.F.);
#217=ORIENTED_EDGE('',*,*,#248,.T.);
#218=ORIENTED_EDGE('',*,*,#248,.F.);
#219=ORIENTED_EDGE('',*,*,#249,.T.);
#220=ORIENTED_EDGE('',*,*,#249,.F.);
#221=ORIENTED_EDGE('',*,*,#250,.T.);
#222=ORIENTED_EDGE('',*,*,#250,.F.);
#223=ORIENTED_EDGE('',*,*,#251,.T.);
#224=ORIENTED_EDGE('',*,*,#251,.F.);
#225=ORIENTED_EDGE('',*,*,#252,.T.);
#226=ORIENTED_EDGE('',*,*,#252,.F.);
#227=ORIENTED_EDGE('',*,*,#253,.T.);
#228=ORIENTED_EDGE('',*,*,#253,.F.);
#229=ORIENTED_EDGE('',*,*,#244,.T.);
#230=VERTEX_POINT('',#338);
#231=VERTEX_POINT('',#340);
#232=VERTEX_POINT('',#419);
#233=VERTEX_POINT('',#421);
#234=VERTEX_POINT('',#425);
#235=VERTEX_POINT('',#428);
#236=VERTEX_POINT('',#497);
#237=VERTEX_POINT('',#500);
#238=VERTEX_POINT('',#503);
#239=VERTEX_POINT('',#506);
#240=VERTEX_POINT('',#509);
#241=VERTEX_POINT('',#512);
#242=EDGE_CURVE('',#230,#230,#254,.T.);
#243=EDGE_CURVE('',#231,#231,#255,.T.);
#244=EDGE_CURVE('',#232,#232,#256,.T.);
#245=EDGE_CURVE('',#233,#233,#257,.T.);
#246=EDGE_CURVE('',#234,#234,#258,.T.);
#247=EDGE_CURVE('',#235,#235,#259,.T.);
#248=EDGE_CURVE('',#236,#236,#260,.T.);
#249=EDGE_CURVE('',#237,#237,#261,.T.);
#250=EDGE_CURVE('',#238,#238,#262,.T.);
#251=EDGE_CURVE('',#239,#239,#263,.T.);
#252=EDGE_CURVE('',#240,#240,#264,.T.);
#253=EDGE_CURVE('',#241,#241,#265,.T.);
#254=CIRCLE('',#267,5.);
#255=CIRCLE('',#268,5.);
#256=CIRCLE('',#269,9.75);
#257=CIRCLE('',#270,8.75);
#258=CIRCLE('',#273,2.93890488769001);
#259=CIRCLE('',#275,9.07897096542112);
#260=CIRCLE('',#276,9.);
#261=CIRCLE('',#278,9.);
#262=CIRCLE('',#280,9.58578643762692);
#263=CIRCLE('',#282,10.);
#264=CIRCLE('',#284,10.);
#265=CIRCLE('',#286,9.75);
#266=AXIS2_PLACEMENT_3D('',#336,#289,#290);
#267=AXIS2_PLACEMENT_3D('',#337,#291,#292);
#268=AXIS2_PLACEMENT_3D('',#339,#293,#294);
#269=AXIS2_PLACEMENT_3D('',#418,#295,#296);
#270=AXIS2_PLACEMENT_3D('',#420,#297,#298);
#271=AXIS2_PLACEMENT_3D('',#422,#299,#300);
#272=AXIS2_PLACEMENT_3D('',#423,#301,#302);
#273=AXIS2_PLACEMENT_3D('',#424,#303,#304);
#274=AXIS2_PLACEMENT_3D('',#426,#305,#306);
#275=AXIS2_PLACEMENT_3D('',#427,#307,#308);
#276=AXIS2_PLACEMENT_3D('',#496,#310,#311);
#277=AXIS2_PLACEMENT_3D('',#498,#312,#313);
#278=AXIS2_PLACEMENT_3D('',#499,#314,#315);
#279=AXIS2_PLACEMENT_3D('',#501,#316,#317);
#280=AXIS2_PLACEMENT_3D('',#502,#318,#319);
#281=AXIS2_PLACEMENT_3D('',#504,#320,#321);
#282=AXIS2_PLACEMENT_3D('',#505,#322,#323);
#283=AXIS2_PLACEMENT_3D('',#507,#324,#325);
#284=AXIS2_PLACEMENT_3D('',#508,#326,#327);
#285=AXIS2_PLACEMENT_3D('',#510,#328,#329);
#286=AXIS2_PLACEMENT_3D('',#511,#330,#331);
#287=AXIS2_PLACEMENT_3D('',#513,#332,#333);
#288=AXIS2_PLACEMENT_3D('',#514,#334,#335);
#289=DIRECTION('',(0.,0.,1.));
#290=DIRECTION('',(1.,0.,0.));
#291=DIRECTION('',(-0.0523359562429439,0.951744524597966,0.302395945048754));
#292=DIRECTION('',(0.,-0.302810936913728,0.953050647387341));
#293=DIRECTION('',(-0.0523359562429439,-0.138982369062101,0.988910940769705));
#294=DIRECTION('',(0.,-0.99026806874157,-0.139173100960065));
#295=DIRECTION('',(-1.,0.,0.));
#296=DIRECTION('',(0.,0.,1.));
#297=DIRECTION('',(-1.,0.,0.));
#298=DIRECTION('',(0.,0.,1.));
#299=DIRECTION('',(-1.,0.,0.));
#300=DIRECTION('',(0.,0.,1.));
#301=DIRECTION('',(-1.,0.,0.));
#302=DIRECTION('',(0.,0.,1.));
#303=DIRECTION('',(-1.,0.,0.));
#304=DIRECTION('',(0.,0.,1.));
#305=DIRECTION('',(1.,0.,0.));
#306=DIRECTION('',(0.,0.,-1.));
#307=DIRECTION('',(-1.,0.,0.));
#308=DIRECTION('',(0.,0.,1.));
#309=DIRECTION('',(-1.,0.,0.));
#310=DIRECTION('',(-1.,0.,0.));
#311=DIRECTION('',(0.,0.,1.));
#312=DIRECTION('',(-1.,0.,0.));
#313=DIRECTION('',(0.,0.,1.));
#314=DIRECTION('',(-1.,0.,0.));
#315=DIRECTION('',(0.,0.,1.));
#316=DIRECTION('',(-1.,0.,0.));
#317=DIRECTION('',(0.,0.,1.));
#318=DIRECTION('',(-1.,0.,0.));
#319=DIRECTION('',(0.,0.,1.));
#320=DIRECTION('',(-1.,0.,0.));
#321=DIRECTION('',(0.,0.,1.));
#322=DIRECTION('',(-1.,0.,0.));
#323=DIRECTION('',(0.,0.,1.));
#324=DIRECTION('',(1.,0.,0.));
#325=DIRECTION('',(2.74807679362658E-17,0.,-1.));
#326=DIRECTION('',(-1.,0.,0.));
#327=DIRECTION('',(0.,0.,1.));
#328=DIRECTION('',(-1.,0.,0.));
#329=DIRECTION('',(0.,0.,1.));
#330=DIRECTION('',(-1.,0.,0.));
#331=DIRECTION('',(0.,0.,1.));
#332=DIRECTION('',(-1.,0.,0.));
#333=DIRECTION('',(-2.9832358102494E-16,0.,1.));
#334=DIRECTION('',(-1.,0.,0.));
#335=DIRECTION('',(0.,0.,1.));
#336=CARTESIAN_POINT('',(0.,0.,0.));
#337=CARTESIAN_POINT('',(4.99314767377287,0.0141247766675777,5.62758453073653));
#338=CARTESIAN_POINT('',(4.99314767377287,-1.49992990790106,10.3928377676732));
#339=CARTESIAN_POINT('',(4.99314767377287,-5.54597915290236,0.954998636372544));
#340=CARTESIAN_POINT('',(4.99314767377287,-10.4973194966102,0.259133131572217));
#341=CARTESIAN_POINT('',(4.99314767377287,-10.4973194966102,0.259133131572216));
#342=CARTESIAN_POINT('',(4.99314767377288,-10.7858150582327,-11.42763986164));
#343=CARTESIAN_POINT('',(4.99314767377288,0.0905178792728967,-15.7135790255204));
#344=CARTESIAN_POINT('',(4.99314767377287,7.85216471627062,-6.9716838613312));
#345=CARTESIAN_POINT('',(4.99314767377288,15.6138115532684,1.770211302858));
#346=CARTESIAN_POINT('',(4.99314767377288,10.0705225095281,12.0627250512822));
#347=CARTESIAN_POINT('',(4.99314767377287,-1.49992990790106,10.3928377676732));
#348=CARTESIAN_POINT('',(14.9794430213186,-10.5701570698306,0.777399394716649));
#349=CARTESIAN_POINT('',(14.9794430213186,-11.4356437546979,-10.9904644125723));
#350=CARTESIAN_POINT('',(14.9794430213186,-0.681381584629745,-15.8461343937412));
#351=CARTESIAN_POINT('',(14.9794430213186,7.57338129413068,-7.4146116603304));
#352=CARTESIAN_POINT('',(14.9794430213186,15.8281441728911,1.0169110730804));
#353=CARTESIAN_POINT('',(14.9794430213186,10.7457469677692,11.6658980877196));
#354=CARTESIAN_POINT('',(14.9794430213186,-1.00114173811133,10.5513167671152));
#355=CARTESIAN_POINT('',(14.9794430213186,-0.667476382414911,2.1691304043173));
#356=CARTESIAN_POINT('',(14.9794430213186,-3.08239141249637,1.42602213156895));
#357=CARTESIAN_POINT('',(14.9794430213186,-3.21415976881876,-1.09720231500976));
#358=CARTESIAN_POINT('',(14.9794430213186,-0.889783053973044,-2.08780687537853));
#359=CARTESIAN_POINT('',(14.9794430213186,1.43459366087267,-3.0784114357473));
#360=CARTESIAN_POINT('',(14.9794430213186,3.16344615491048,-1.23583346958153));
#361=CARTESIAN_POINT('',(14.9794430213186,2.02696763102595,1.02081029324184));
#362=CARTESIAN_POINT('',(4.99314767377287,-0.594638809194502,1.65086414117287));
#363=CARTESIAN_POINT('',(4.99314767377288,-2.43256271603108,0.988846682501227));
#364=CARTESIAN_POINT('',(4.99314767377288,-2.44226030491612,-0.964646946788955));
#365=CARTESIAN_POINT('',(4.99314767377287,-0.6109996318331,-1.64487907637933));
#366=CARTESIAN_POINT('',(4.99314767377288,1.22026104124992,-2.3251112059697));
#367=CARTESIAN_POINT('',(4.99314767377288,2.48822169666936,-0.839006506018919));
#368=CARTESIAN_POINT('',(4.99314767377287,1.52817946123622,0.862331293799818));
#369=CARTESIAN_POINT('',(-4.99314767377287,-0.521801235974092,1.13259787802844));
#370=CARTESIAN_POINT('',(-4.99314767377288,-1.78273401956581,0.551671233433499));
#371=CARTESIAN_POINT('',(-4.99314767377288,-1.67036084101348,-0.832091578568154));
#372=CARTESIAN_POINT('',(-4.99314767377287,-0.332216209693155,-1.20195127738013));
#373=CARTESIAN_POINT('',(-4.99314767377288,1.00592842162716,-1.5718109761921));
#374=CARTESIAN_POINT('',(-4.99314767377288,1.81299723842824,-0.442179542456307));
#375=CARTESIAN_POINT('',(-4.99314767377287,1.02939129144649,0.7038522943578));
#376=CARTESIAN_POINT('',(-4.99314767377287,-10.4244819233898,-0.259133131572217));
#377=CARTESIAN_POINT('',(-4.99314767377288,-10.1359863617674,-11.8648153107078));
#378=CARTESIAN_POINT('',(-4.99314767377288,0.862417343175536,-15.5810236572996));
#379=CARTESIAN_POINT('',(-4.99314767377287,8.13094813841056,-6.528756062332));
#380=CARTESIAN_POINT('',(-4.99314767377288,15.3994789336456,2.52351153263559));
#381=CARTESIAN_POINT('',(-4.99314767377288,9.39529805128699,12.4595520148448));
#382=CARTESIAN_POINT('',(-4.99314767377287,-1.99871807769079,10.2343587682312));
#383=CARTESIAN_POINT('',(4.99314767377287,-10.4973194966102,0.259133131572216));
#384=CARTESIAN_POINT('',(4.99314767377288,-10.7858150582327,-11.42763986164));
#385=CARTESIAN_POINT('',(4.99314767377288,0.0905178792728967,-15.7135790255204));
#386=CARTESIAN_POINT('',(4.99314767377287,7.85216471627062,-6.9716838613312));
#387=CARTESIAN_POINT('',(4.99314767377288,15.6138115532684,1.770211302858));
#388=CARTESIAN_POINT('',(4.99314767377288,10.0705225095281,12.0627250512822));
#389=CARTESIAN_POINT('',(4.99314767377287,-1.49992990790106,10.3928377676732));
#390=CARTESIAN_POINT('',(4.99314767377287,-1.49992990790107,10.3928377676732));
#391=CARTESIAN_POINT('',(4.99314767377287,-6.80577660078911,9.62707981789023));
#392=CARTESIAN_POINT('',(4.99314767377287,-10.3650244776841,5.61832079334095));
#393=CARTESIAN_POINT('',(4.99314767377287,-10.4973194966102,0.259133131572217));
#394=CARTESIAN_POINT('',(14.9794430213186,-1.00114173811133,10.5513167671152));
#395=CARTESIAN_POINT('',(14.9794430213186,-6.38789658081167,10.0402047206256));
#396=CARTESIAN_POINT('',(14.9794430213186,-10.1732720130523,6.17377276125908));
#397=CARTESIAN_POINT('',(14.9794430213186,-10.5701570698306,0.777399394716651));
#398=CARTESIAN_POINT('',(14.9794430213186,2.02696763102595,1.02081029324184));
#399=CARTESIAN_POINT('',(14.9794430213186,1.50581421368786,2.05563636693682));
#400=CARTESIAN_POINT('',(14.9794430213186,0.43992793192825,2.50989655841171));
#401=CARTESIAN_POINT('',(14.9794430213186,-0.667476382414911,2.1691304043173));
#402=CARTESIAN_POINT('',(4.99314767377287,1.52817946123622,0.862331293799818));
#403=CARTESIAN_POINT('',(4.99314767377287,1.08793419371041,1.64251146420143));
#404=CARTESIAN_POINT('',(4.99314767377287,0.248175467296469,1.95444459049358));
#405=CARTESIAN_POINT('',(4.99314767377287,-0.594638809194502,1.65086414117287));
#406=CARTESIAN_POINT('',(-4.99314767377287,1.02939129144649,0.7038522943578));
#407=CARTESIAN_POINT('',(-4.99314767377287,0.670054173732962,1.22938656146605));
#408=CARTESIAN_POINT('',(-4.99314767377287,0.0564230026646871,1.39899262257547));
#409=CARTESIAN_POINT('',(-4.99314767377287,-0.521801235974092,1.13259787802844));
#410=CARTESIAN_POINT('',(-4.99314767377287,-1.9987180776908,10.2343587682312));
#411=CARTESIAN_POINT('',(-4.99314767377288,-7.22365662076658,9.21395491515486));
#412=CARTESIAN_POINT('',(-4.99314767377288,-10.5567769423159,5.06286882542284));
#413=CARTESIAN_POINT('',(-4.99314767377287,-10.4244819233898,-0.259133131572216));
#414=CARTESIAN_POINT('',(4.99314767377287,-1.49992990790107,10.3928377676732));
#415=CARTESIAN_POINT('',(4.99314767377287,-6.80577660078911,9.62707981789023));
#416=CARTESIAN_POINT('',(4.99314767377287,-10.3650244776841,5.61832079334095));
#417=CARTESIAN_POINT('',(4.99314767377287,-10.4973194966102,0.259133131572217));
#418=CARTESIAN_POINT('',(199.,0.,0.));
#419=CARTESIAN_POINT('',(199.,0.,9.75));
#420=CARTESIAN_POINT('',(200.,0.,0.));
#421=CARTESIAN_POINT('',(200.,0.,8.75));
#422=CARTESIAN_POINT('',(199.,0.,0.));
#423=CARTESIAN_POINT('',(200.,0.,0.));
#424=CARTESIAN_POINT('',(3.00000000000114,0.,0.));
#425=CARTESIAN_POINT('',(3.00000000000114,0.,2.93890488769001));
#426=CARTESIAN_POINT('',(3.00000000000057,2.93890488769045,0.));
#427=CARTESIAN_POINT('',(7.69189385856911,0.,0.));
#428=CARTESIAN_POINT('',(7.69189385856911,0.,9.07897096542112));
#429=CARTESIAN_POINT('',(4.93903566315572,2.53799874789928,0.));
#430=CARTESIAN_POINT('',(5.46594733433357,2.51310253165156,0.));
#431=CARTESIAN_POINT('',(5.73139764236157,2.51089870862263,0.));
#432=CARTESIAN_POINT('',(6.25708916973282,2.53254688012146,0.));
#433=CARTESIAN_POINT('',(6.51853440334517,2.5563026591704,0.));
#434=CARTESIAN_POINT('',(7.03704940399622,2.64421477192443,0.));
#435=CARTESIAN_POINT('',(7.29684423864389,2.70966287132674,0.));
#436=CARTESIAN_POINT('',(7.66680946268414,2.85068583598905,0.));
#437=CARTESIAN_POINT('',(7.78704049537559,2.90476297854757,0.));
#438=CARTESIAN_POINT('',(8.02047067912189,3.02900153626348,0.));
#439=CARTESIAN_POINT('',(8.13439685788991,3.0997886087068,0.));
#440=CARTESIAN_POINT('',(8.4552995111218,3.33235606104694,0.));
#441=CARTESIAN_POINT('',(8.64384370371851,3.51478824096108,0.));
#442=CARTESIAN_POINT('',(8.97010678529701,3.93447392753264,0.));
#443=CARTESIAN_POINT('',(9.10181996055085,4.16429890975618,0.));
#444=CARTESIAN_POINT('',(9.30518673574881,4.65066651741165,0.));
#445=CARTESIAN_POINT('',(9.37687987289612,4.90941597718095,0.));
#446=CARTESIAN_POINT('',(9.45948111993286,5.42611035272209,0.));
#447=CARTESIAN_POINT('',(9.47207249148043,5.68770333454635,0.));
#448=CARTESIAN_POINT('',(9.426956730847,6.48185359573848,0.));
#449=CARTESIAN_POINT('',(9.28903425609667,6.99310286702088,0.));
#450=CARTESIAN_POINT('',(8.942069229362,7.70755885950772,0.));
#451=CARTESIAN_POINT('',(8.80557470552065,7.93127834933215,0.));
#452=CARTESIAN_POINT('',(8.49323639155136,8.35146580276027,0.));
#453=CARTESIAN_POINT('',(8.3153716047317,8.54966111466817,0.));
#454=CARTESIAN_POINT('',(7.92840050225097,8.90818692688627,0.));
#455=CARTESIAN_POINT('',(7.72085054092876,9.06784115840625,0.));
#456=CARTESIAN_POINT('',(7.27839939660755,9.34901640417279,0.));
#457=CARTESIAN_POINT('',(7.04088941341631,9.47138630943582,0.));
#458=CARTESIAN_POINT('',(6.55321541932855,9.66908652504792,0.));
#459=CARTESIAN_POINT('',(6.3027523460872,9.74526523576739,0.));
#460=CARTESIAN_POINT('',(5.78866987321976,9.85260773573845,0.));
#461=CARTESIAN_POINT('',(5.52297920459169,9.88347698863519,0.));
#462=CARTESIAN_POINT('',(4.99793950984122,9.89676571689154,0.));
#463=CARTESIAN_POINT('',(4.73658570787964,9.87995002859671,0.));
#464=CARTESIAN_POINT('',(4.21624089799029,9.79878081921881,0.));
#465=CARTESIAN_POINT('',(3.95728056637119,9.73378649632831,0.));
#466=CARTESIAN_POINT('',(3.46232699125588,9.56033613584259,0.));
#467=CARTESIAN_POINT('',(3.22362394488622,9.45162117395163,0.));
#468=CARTESIAN_POINT('',(2.76446715952482,9.18845269054386,0.));
#469=CARTESIAN_POINT('',(2.54791447760455,9.03585828556949,0.));
#470=CARTESIAN_POINT('',(2.14926804073992,8.69520861675521,0.));
#471=CARTESIAN_POINT('',(1.9644593052783,8.50475569210514,0.));
#472=CARTESIAN_POINT('',(1.63465991076976,8.09114936700812,0.));
#473=CARTESIAN_POINT('',(1.49155225834608,7.87103624611781,0.));
#474=CARTESIAN_POINT('',(1.24964022626911,7.40375083115887,0.));
#475=CARTESIAN_POINT('',(1.15084051395249,7.15486312360806,0.));
#476=CARTESIAN_POINT('',(1.00869898192368,6.64862080983239,0.));
#477=CARTESIAN_POINT('',(0.963746361709521,6.38753540918834,0.));
#478=CARTESIAN_POINT('',(0.932419874359096,5.85827477253187,0.));
#479=CARTESIAN_POINT('',(0.945987120286728,5.59560846846566,0.));
#480=CARTESIAN_POINT('',(1.03565517920075,5.0744775284964,0.));
#481=CARTESIAN_POINT('',(1.11208632857091,4.81890593584961,0.));
#482=CARTESIAN_POINT('',(1.32612099263894,4.33854745836521,0.));
#483=CARTESIAN_POINT('',(1.46682926913668,4.10883935709963,0.));
#484=CARTESIAN_POINT('',(1.79803439780396,3.70282282679204,0.));
#485=CARTESIAN_POINT('',(1.99100247775981,3.522060978991,0.));
#486=CARTESIAN_POINT('',(2.42108205156254,3.21140488405034,0.));
#487=CARTESIAN_POINT('',(2.65173662355223,3.08548220753508,0.));
#488=CARTESIAN_POINT('',(3.13704334208236,2.87882848395745,0.));
#489=CARTESIAN_POINT('',(3.39113996585679,2.79871121889425,0.));
#490=CARTESIAN_POINT('',(3.90046531075876,2.67419430379174,0.));
#491=CARTESIAN_POINT('',(4.15808742501161,2.62870010137239,0.));
#492=CARTESIAN_POINT('',(4.67737387369009,2.5606095316028,0.));
#493=CARTESIAN_POINT('',(4.93903566315572,2.53799874789928,0.));
#494=CARTESIAN_POINT('',(5.46594733433357,2.51310253165156,0.));
#495=CARTESIAN_POINT('',(0.,0.,0.));
#496=CARTESIAN_POINT('',(8.08138778331465,0.,0.));
#497=CARTESIAN_POINT('',(8.08138778331465,0.,9.));
#498=CARTESIAN_POINT('',(8.08138778331465,0.,0.));
#499=CARTESIAN_POINT('',(28.1715728752538,0.,0.));
#500=CARTESIAN_POINT('',(28.1715728752538,0.,9.));
#501=CARTESIAN_POINT('',(0.,0.,0.));
#502=CARTESIAN_POINT('',(29.585786437627,0.,0.));
#503=CARTESIAN_POINT('',(29.585786437627,0.,9.58578643762692));
#504=CARTESIAN_POINT('',(28.1715728752538,0.,0.));
#505=CARTESIAN_POINT('',(30.,0.,0.));
#506=CARTESIAN_POINT('',(30.,0.,10.));
#507=CARTESIAN_POINT('',(30.,0.,0.));
#508=CARTESIAN_POINT('',(194.582179545096,0.,0.));
#509=CARTESIAN_POINT('',(194.582179545096,0.,10.));
#510=CARTESIAN_POINT('',(0.,0.,0.));
#511=CARTESIAN_POINT('',(196.,0.,0.));
#512=CARTESIAN_POINT('',(196.,0.,9.75));
#513=CARTESIAN_POINT('',(196.,0.,0.));
#514=CARTESIAN_POINT('',(0.,0.,0.));
#515=(
GEOMETRIC_REPRESENTATION_CONTEXT(3)
GLOBAL_UNCERTAINTY_ASSIGNED_CONTEXT((#516))
GLOBAL_UNIT_ASSIGNED_CONTEXT((#522,#518,#517))
REPRESENTATION_CONTEXT('model1','TOP_LEVEL_ASSEMBLY_PART')
);
#516=UNCERTAINTY_MEASURE_WITH_UNIT(LENGTH_MEASURE(2.E-5),#522,
'DISTANCE_ACCURACY_VALUE','Maximum Tolerance applied to model');
#517=(
NAMED_UNIT(*)
SI_UNIT($,.STERADIAN.)
SOLID_ANGLE_UNIT()
);
#518=(
CONVERSION_BASED_UNIT('DEGREE',#520)
NAMED_UNIT(#519)
PLANE_ANGLE_UNIT()
);
#519=DIMENSIONAL_EXPONENTS(0.,0.,0.,0.,0.,0.,0.);
#520=PLANE_ANGLE_MEASURE_WITH_UNIT(PLANE_ANGLE_MEASURE(0.0174532925),#521);
#521=(
NAMED_UNIT(*)
PLANE_ANGLE_UNIT()
SI_UNIT($,.RADIAN.)
);
#522=(
LENGTH_UNIT()
NAMED_UNIT(*)
SI_UNIT(.MILLI.,.METRE.)
);
ENDSEC;
END-ISO-10303-21;
