ISO-10303-21;
HEADER;
/* Generated by software containing ST-Developer
 * from STEP Tools, Inc. (www.steptools.com) 
 */
/* OPTION: using custom schema-name function */

FILE_DESCRIPTION(
/* description */ (''),
/* implementation_level */ '2;1');

FILE_NAME(
/* name */ 'AEMR-RY10-D25-M12-L43-Z03-H.stp',
/* time_stamp */ '2023-10-21T12:44:03+03:00',
/* author */ (''),
/* organization */ (''),
/* preprocessor_version */ 'ST-DEVELOPER v19.4',
/* originating_system */ 'SIEMENS PLM Software NX2306.5001',
/* authorisation */ '');

FILE_SCHEMA (('AUTOMOTIVE_DESIGN { 1 0 10303 214 3 1 1 1 }'));
ENDSEC;

DATA;
#10=PROPERTY_DEFINITION_REPRESENTATION(#14,#12);
#11=PROPERTY_DEFINITION_REPRESENTATION(#15,#13);
#12=REPRESENTATION('',(#16),#492);
#13=REPRESENTATION('',(#17),#492);
#14=PROPERTY_DEFINITION('pmi validation property','',#21);
#15=PROPERTY_DEFINITION('pmi validation property','',#21);
#16=VALUE_REPRESENTATION_ITEM('number of annotations',COUNT_MEASURE(0.));
#17=VALUE_REPRESENTATION_ITEM('number of views',COUNT_MEASURE(0.));
#18=SHAPE_REPRESENTATION_RELATIONSHIP('None',
'relationship between AEMR-RY10-D25-M12-L43-Z03-H-LIGHT_x_t_objects-No
ne and AEMR-RY10-D25-M12-L43-Z03-H-LIGHT_x_t_objects-None',#30,#19);
#19=ADVANCED_BREP_SHAPE_REPRESENTATION(
'AEMR-RY10-D25-M12-L43-Z03-H-LIGHT_x_t_objects-None',(#49,#50),#492);
#20=SHAPE_DEFINITION_REPRESENTATION(#21,#30);
#21=PRODUCT_DEFINITION_SHAPE('','',#22);
#22=PRODUCT_DEFINITION(' ','',#24,#23);
#23=PRODUCT_DEFINITION_CONTEXT('part definition',#29,'design');
#24=PRODUCT_DEFINITION_FORMATION_WITH_SPECIFIED_SOURCE(' ',' ',#26,
 .NOT_KNOWN.);
#25=PRODUCT_RELATED_PRODUCT_CATEGORY('part','',(#26));
#26=PRODUCT('AEMR-RY10-D25-M12-L43-Z03-H-LIGHT_x_t_objects',
'AEMR-RY10-D25-M12-L43-Z03-H-LIGHT_x_t_objects',' ',(#27));
#27=PRODUCT_CONTEXT(' ',#29,'mechanical');
#28=APPLICATION_PROTOCOL_DEFINITION('international standard',
'automotive_design',2010,#29);
#29=APPLICATION_CONTEXT(
'core data for automotive mechanical design processes');
#30=SHAPE_REPRESENTATION(
'AEMR-RY10-D25-M12-L43-Z03-H-LIGHT_x_t_objects-None',(#232),#492);
#31=DRAUGHTING_PRE_DEFINED_COLOUR('yellow');
#32=(
BOUNDED_SURFACE()
B_SPLINE_SURFACE(3,3,((#442,#443,#444,#445,#446,#447,#448),(#449,#450,#451,
#452,#453,#454,#455),(#456,#457,#458,#459,#460,#461,#462),(#463,#464,#465,
#466,#467,#468,#469),(#470,#471,#472,#473,#474,#475,#476),(#477,#478,#479,
#480,#481,#482,#483),(#484,#485,#486,#487,#488,#489,#490)),
 .UNSPECIFIED.,.T.,.T.,.F.)
B_SPLINE_SURFACE_WITH_KNOTS((1,3,3,3,1),(1,3,3,3,1),(-0.5,0.,0.5,1.,1.5),
(-0.5,0.,0.5,1.,1.5),.UNSPECIFIED.)
GEOMETRIC_REPRESENTATION_ITEM()
RATIONAL_B_SPLINE_SURFACE(((1.,0.333333333333334,0.333333333333334,1.,0.333333333333334,
0.333333333333334,1.),(0.333333333333334,0.111111111111111,0.111111111111111,
0.333333333333334,0.111111111111111,0.111111111111111,0.333333333333334),
(0.333333333333334,0.111111111111111,0.111111111111111,0.333333333333334,
0.111111111111111,0.111111111111111,0.333333333333334),(1.,0.333333333333334,
0.333333333333334,1.,0.333333333333334,0.333333333333334,1.),(0.333333333333334,
0.111111111111111,0.111111111111111,0.333333333333334,0.111111111111111,
0.111111111111111,0.333333333333334),(0.333333333333334,0.111111111111111,
0.111111111111111,0.333333333333334,0.111111111111111,0.111111111111111,
0.333333333333334),(1.,0.333333333333334,0.333333333333334,1.,0.333333333333334,
0.333333333333334,1.)))
REPRESENTATION_ITEM('')
SURFACE()
);
#33=PRESENTATION_LAYER_ASSIGNMENT('1','Layer 1',(#49,#50));
#34=STYLED_ITEM('',(#36),#49);
#35=STYLED_ITEM('',(#37),#50);
#36=PRESENTATION_STYLE_ASSIGNMENT((#38));
#37=PRESENTATION_STYLE_ASSIGNMENT((#39));
#38=SURFACE_STYLE_USAGE(.BOTH.,#40);
#39=SURFACE_STYLE_USAGE(.BOTH.,#41);
#40=SURFACE_SIDE_STYLE('',(#42));
#41=SURFACE_SIDE_STYLE('',(#43));
#42=SURFACE_STYLE_FILL_AREA(#44);
#43=SURFACE_STYLE_FILL_AREA(#45);
#44=FILL_AREA_STYLE('',(#46));
#45=FILL_AREA_STYLE('',(#47));
#46=FILL_AREA_STYLE_COLOUR('',#48);
#47=FILL_AREA_STYLE_COLOUR('',#31);
#48=COLOUR_RGB('silver gray',0.6,0.6,0.6);
#49=MANIFOLD_SOLID_BREP('',#51);
#50=MANIFOLD_SOLID_BREP('',#52);
#51=CLOSED_SHELL('',(#69,#70,#71,#72,#73,#74,#75,#76,#77,#78,#79,#80,#81,
#82,#83,#84));
#52=CLOSED_SHELL('',(#85));
#53=PLANE('',#243);
#54=PLANE('',#245);
#55=PLANE('',#261);
#56=FACE_OUTER_BOUND('',#130,.T.);
#57=FACE_OUTER_BOUND('',#131,.T.);
#58=SURFACE_OF_REVOLUTION('',#60,#59);
#59=AXIS1_PLACEMENT('',#410,#286);
#60=B_SPLINE_CURVE_WITH_KNOTS('',3,(#346,#347,#348,#349,#350,#351,#352,
#353,#354,#355,#356,#357,#358,#359,#360,#361,#362,#363,#364,#365,#366,#367,
#368,#369,#370,#371,#372,#373,#374,#375,#376,#377,#378,#379,#380,#381,#382,
#383,#384,#385,#386,#387,#388,#389,#390,#391,#392,#393,#394,#395,#396,#397,
#398,#399,#400,#401,#402,#403,#404,#405,#406,#407,#408,#409),
 .UNSPECIFIED.,.T.,.F.,(2,2,2,2,2,2,2,2,2,2,2,2,2,2,2,2,2,2,2,2,2,2,2,2,
2,2,2,2,2,2,2,2,2,2),(-0.0625,0.,0.03125,0.0625,0.09375,0.125,0.15625,0.1875,
0.21875,0.25,0.28125,0.3125,0.34375,0.375,0.40625,0.4375,0.46875,0.5,0.53125,
0.5625,0.59375,0.625,0.65625,0.6875,0.71875,0.75,0.78125,0.8125,0.84375,
0.875,0.90625,0.9375,1.,1.03125),.UNSPECIFIED.);
#61=TOROIDAL_SURFACE('',#241,11.3,1.);
#62=TOROIDAL_SURFACE('',#257,6.60955549577343,0.6);
#63=CONICAL_SURFACE('',#237,10.5,29.9999999999999);
#64=CONICAL_SURFACE('',#247,4.675,45.);
#65=CONICAL_SURFACE('',#251,5.875,30.);
#66=CONICAL_SURFACE('',#255,6.25,14.9999999999999);
#67=CONICAL_SURFACE('',#259,6.76484692283494,75.0000000000001);
#68=CONICAL_SURFACE('',#262,10.,45.);
#69=ADVANCED_FACE('',(#90,#91),#86,.T.);
#70=ADVANCED_FACE('',(#92,#93),#63,.T.);
#71=ADVANCED_FACE('',(#94,#95),#87,.T.);
#72=ADVANCED_FACE('',(#96,#97),#61,.F.);
#73=ADVANCED_FACE('',(#98,#99),#58,.T.);
#74=ADVANCED_FACE('',(#56),#53,.F.);
#75=ADVANCED_FACE('',(#57),#54,.F.);
#76=ADVANCED_FACE('',(#100,#101),#64,.T.);
#77=ADVANCED_FACE('',(#102,#103),#88,.T.);
#78=ADVANCED_FACE('',(#104,#105),#65,.T.);
#79=ADVANCED_FACE('',(#106,#107),#89,.T.);
#80=ADVANCED_FACE('',(#108,#109),#66,.T.);
#81=ADVANCED_FACE('',(#110,#111),#62,.F.);
#82=ADVANCED_FACE('',(#112,#113),#67,.F.);
#83=ADVANCED_FACE('',(#114,#115),#55,.F.);
#84=ADVANCED_FACE('',(#116,#117),#68,.T.);
#85=ADVANCED_FACE('',(#118,#119),#32,.F.);
#86=CYLINDRICAL_SURFACE('',#235,10.5);
#87=CYLINDRICAL_SURFACE('',#239,10.3);
#88=CYLINDRICAL_SURFACE('',#249,5.875);
#89=CYLINDRICAL_SURFACE('',#253,6.25);
#90=FACE_BOUND('',#120,.T.);
#91=FACE_BOUND('',#121,.T.);
#92=FACE_BOUND('',#122,.T.);
#93=FACE_BOUND('',#123,.T.);
#94=FACE_BOUND('',#124,.T.);
#95=FACE_BOUND('',#125,.T.);
#96=FACE_BOUND('',#126,.T.);
#97=FACE_BOUND('',#127,.T.);
#98=FACE_BOUND('',#128,.T.);
#99=FACE_BOUND('',#129,.T.);
#100=FACE_BOUND('',#132,.T.);
#101=FACE_BOUND('',#133,.T.);
#102=FACE_BOUND('',#134,.T.);
#103=FACE_BOUND('',#135,.T.);
#104=FACE_BOUND('',#136,.T.);
#105=FACE_BOUND('',#137,.T.);
#106=FACE_BOUND('',#138,.T.);
#107=FACE_BOUND('',#139,.T.);
#108=FACE_BOUND('',#140,.T.);
#109=FACE_BOUND('',#141,.T.);
#110=FACE_BOUND('',#142,.T.);
#111=FACE_BOUND('',#143,.T.);
#112=FACE_BOUND('',#144,.T.);
#113=FACE_BOUND('',#145,.T.);
#114=FACE_BOUND('',#146,.T.);
#115=FACE_BOUND('',#147,.T.);
#116=FACE_BOUND('',#148,.T.);
#117=FACE_BOUND('',#149,.T.);
#118=FACE_BOUND('',#150,.T.);
#119=FACE_BOUND('',#151,.T.);
#120=EDGE_LOOP('',(#152));
#121=EDGE_LOOP('',(#153));
#122=EDGE_LOOP('',(#154));
#123=EDGE_LOOP('',(#155));
#124=EDGE_LOOP('',(#156));
#125=EDGE_LOOP('',(#157));
#126=EDGE_LOOP('',(#158));
#127=EDGE_LOOP('',(#159));
#128=EDGE_LOOP('',(#160));
#129=EDGE_LOOP('',(#161));
#130=EDGE_LOOP('',(#162));
#131=EDGE_LOOP('',(#163));
#132=EDGE_LOOP('',(#164));
#133=EDGE_LOOP('',(#165));
#134=EDGE_LOOP('',(#166));
#135=EDGE_LOOP('',(#167));
#136=EDGE_LOOP('',(#168));
#137=EDGE_LOOP('',(#169));
#138=EDGE_LOOP('',(#170));
#139=EDGE_LOOP('',(#171));
#140=EDGE_LOOP('',(#172));
#141=EDGE_LOOP('',(#173));
#142=EDGE_LOOP('',(#174));
#143=EDGE_LOOP('',(#175));
#144=EDGE_LOOP('',(#176));
#145=EDGE_LOOP('',(#177));
#146=EDGE_LOOP('',(#178));
#147=EDGE_LOOP('',(#179));
#148=EDGE_LOOP('',(#180));
#149=EDGE_LOOP('',(#181));
#150=EDGE_LOOP('',(#182));
#151=EDGE_LOOP('',(#183));
#152=ORIENTED_EDGE('',*,*,#200,.F.);
#153=ORIENTED_EDGE('',*,*,#201,.T.);
#154=ORIENTED_EDGE('',*,*,#202,.F.);
#155=ORIENTED_EDGE('',*,*,#200,.T.);
#156=ORIENTED_EDGE('',*,*,#203,.F.);
#157=ORIENTED_EDGE('',*,*,#202,.T.);
#158=ORIENTED_EDGE('',*,*,#204,.F.);
#159=ORIENTED_EDGE('',*,*,#203,.T.);
#160=ORIENTED_EDGE('',*,*,#205,.F.);
#161=ORIENTED_EDGE('',*,*,#204,.T.);
#162=ORIENTED_EDGE('',*,*,#205,.T.);
#163=ORIENTED_EDGE('',*,*,#206,.F.);
#164=ORIENTED_EDGE('',*,*,#207,.F.);
#165=ORIENTED_EDGE('',*,*,#206,.T.);
#166=ORIENTED_EDGE('',*,*,#208,.F.);
#167=ORIENTED_EDGE('',*,*,#207,.T.);
#168=ORIENTED_EDGE('',*,*,#209,.F.);
#169=ORIENTED_EDGE('',*,*,#208,.T.);
#170=ORIENTED_EDGE('',*,*,#210,.F.);
#171=ORIENTED_EDGE('',*,*,#209,.T.);
#172=ORIENTED_EDGE('',*,*,#211,.F.);
#173=ORIENTED_EDGE('',*,*,#210,.T.);
#174=ORIENTED_EDGE('',*,*,#212,.F.);
#175=ORIENTED_EDGE('',*,*,#211,.T.);
#176=ORIENTED_EDGE('',*,*,#213,.F.);
#177=ORIENTED_EDGE('',*,*,#212,.T.);
#178=ORIENTED_EDGE('',*,*,#214,.F.);
#179=ORIENTED_EDGE('',*,*,#213,.T.);
#180=ORIENTED_EDGE('',*,*,#201,.F.);
#181=ORIENTED_EDGE('',*,*,#214,.T.);
#182=ORIENTED_EDGE('',*,*,#215,.T.);
#183=ORIENTED_EDGE('',*,*,#215,.F.);
#184=VERTEX_POINT('',#331);
#185=VERTEX_POINT('',#333);
#186=VERTEX_POINT('',#336);
#187=VERTEX_POINT('',#339);
#188=VERTEX_POINT('',#342);
#189=VERTEX_POINT('',#345);
#190=VERTEX_POINT('',#413);
#191=VERTEX_POINT('',#416);
#192=VERTEX_POINT('',#419);
#193=VERTEX_POINT('',#422);
#194=VERTEX_POINT('',#425);
#195=VERTEX_POINT('',#428);
#196=VERTEX_POINT('',#431);
#197=VERTEX_POINT('',#434);
#198=VERTEX_POINT('',#437);
#199=VERTEX_POINT('',#441);
#200=EDGE_CURVE('',#184,#184,#216,.T.);
#201=EDGE_CURVE('',#185,#185,#217,.T.);
#202=EDGE_CURVE('',#186,#186,#218,.T.);
#203=EDGE_CURVE('',#187,#187,#219,.T.);
#204=EDGE_CURVE('',#188,#188,#220,.T.);
#205=EDGE_CURVE('',#189,#189,#221,.T.);
#206=EDGE_CURVE('',#190,#190,#222,.T.);
#207=EDGE_CURVE('',#191,#191,#223,.T.);
#208=EDGE_CURVE('',#192,#192,#224,.T.);
#209=EDGE_CURVE('',#193,#193,#225,.T.);
#210=EDGE_CURVE('',#194,#194,#226,.T.);
#211=EDGE_CURVE('',#195,#195,#227,.T.);
#212=EDGE_CURVE('',#196,#196,#228,.T.);
#213=EDGE_CURVE('',#197,#197,#229,.T.);
#214=EDGE_CURVE('',#198,#198,#230,.T.);
#215=EDGE_CURVE('',#199,#199,#231,.T.);
#216=CIRCLE('',#233,10.5);
#217=CIRCLE('',#234,10.5);
#218=CIRCLE('',#236,10.3);
#219=CIRCLE('',#238,10.3);
#220=CIRCLE('',#240,10.4702865747491);
#221=CIRCLE('',#242,4.25036093003004);
#222=CIRCLE('',#244,4.675);
#223=CIRCLE('',#246,5.875);
#224=CIRCLE('',#248,5.875);
#225=CIRCLE('',#250,6.25);
#226=CIRCLE('',#252,6.25);
#227=CIRCLE('',#254,6.03);
#228=CIRCLE('',#256,6.76484692283494);
#229=CIRCLE('',#258,7.58589810050009);
#230=CIRCLE('',#260,10.);
#231=CIRCLE('',#263,5.);
#232=AXIS2_PLACEMENT_3D('',#329,#264,#265);
#233=AXIS2_PLACEMENT_3D('',#330,#266,#267);
#234=AXIS2_PLACEMENT_3D('',#332,#268,#269);
#235=AXIS2_PLACEMENT_3D('',#334,#270,#271);
#236=AXIS2_PLACEMENT_3D('',#335,#272,#273);
#237=AXIS2_PLACEMENT_3D('',#337,#274,#275);
#238=AXIS2_PLACEMENT_3D('',#338,#276,#277);
#239=AXIS2_PLACEMENT_3D('',#340,#278,#279);
#240=AXIS2_PLACEMENT_3D('',#341,#280,#281);
#241=AXIS2_PLACEMENT_3D('',#343,#282,#283);
#242=AXIS2_PLACEMENT_3D('',#344,#284,#285);
#243=AXIS2_PLACEMENT_3D('',#411,#287,#288);
#244=AXIS2_PLACEMENT_3D('',#412,#289,#290);
#245=AXIS2_PLACEMENT_3D('',#414,#291,#292);
#246=AXIS2_PLACEMENT_3D('',#415,#293,#294);
#247=AXIS2_PLACEMENT_3D('',#417,#295,#296);
#248=AXIS2_PLACEMENT_3D('',#418,#297,#298);
#249=AXIS2_PLACEMENT_3D('',#420,#299,#300);
#250=AXIS2_PLACEMENT_3D('',#421,#301,#302);
#251=AXIS2_PLACEMENT_3D('',#423,#303,#304);
#252=AXIS2_PLACEMENT_3D('',#424,#305,#306);
#253=AXIS2_PLACEMENT_3D('',#426,#307,#308);
#254=AXIS2_PLACEMENT_3D('',#427,#309,#310);
#255=AXIS2_PLACEMENT_3D('',#429,#311,#312);
#256=AXIS2_PLACEMENT_3D('',#430,#313,#314);
#257=AXIS2_PLACEMENT_3D('',#432,#315,#316);
#258=AXIS2_PLACEMENT_3D('',#433,#317,#318);
#259=AXIS2_PLACEMENT_3D('',#435,#319,#320);
#260=AXIS2_PLACEMENT_3D('',#436,#321,#322);
#261=AXIS2_PLACEMENT_3D('',#438,#323,#324);
#262=AXIS2_PLACEMENT_3D('',#439,#325,#326);
#263=AXIS2_PLACEMENT_3D('',#440,#327,#328);
#264=DIRECTION('',(0.,0.,1.));
#265=DIRECTION('',(1.,0.,0.));
#266=DIRECTION('',(-1.,0.,0.));
#267=DIRECTION('',(0.,0.,1.));
#268=DIRECTION('',(-1.,0.,0.));
#269=DIRECTION('',(0.,0.,1.));
#270=DIRECTION('',(-1.,0.,0.));
#271=DIRECTION('',(0.,0.,1.));
#272=DIRECTION('',(-1.,0.,0.));
#273=DIRECTION('',(0.,0.,1.));
#274=DIRECTION('',(1.,0.,0.));
#275=DIRECTION('',(9.44307660312587E-17,0.,-1.));
#276=DIRECTION('',(-1.,0.,0.));
#277=DIRECTION('',(0.,0.,1.));
#278=DIRECTION('',(-1.,0.,0.));
#279=DIRECTION('',(0.,0.,1.));
#280=DIRECTION('',(-1.,0.,0.));
#281=DIRECTION('',(0.,0.,1.));
#282=DIRECTION('',(-1.,0.,0.));
#283=DIRECTION('',(0.,0.,1.));
#284=DIRECTION('',(-1.,0.,0.));
#285=DIRECTION('',(0.,0.,1.));
#286=DIRECTION('',(-1.,0.,0.));
#287=DIRECTION('',(1.,0.,0.));
#288=DIRECTION('',(0.,0.,-1.));
#289=DIRECTION('',(-1.,0.,0.));
#290=DIRECTION('',(0.,0.,1.));
#291=DIRECTION('',(-1.,0.,0.));
#292=DIRECTION('',(0.,0.,1.));
#293=DIRECTION('',(-1.,0.,0.));
#294=DIRECTION('',(0.,0.,1.));
#295=DIRECTION('',(-1.,0.,0.));
#296=DIRECTION('',(-5.52528441846944E-17,0.,1.));
#297=DIRECTION('',(-1.,0.,0.));
#298=DIRECTION('',(0.,0.,1.));
#299=DIRECTION('',(-1.,0.,0.));
#300=DIRECTION('',(0.,0.,1.));
#301=DIRECTION('',(-1.,0.,0.));
#302=DIRECTION('',(0.,0.,1.));
#303=DIRECTION('',(-1.,0.,0.));
#304=DIRECTION('',(2.37949014573686E-17,0.,1.));
#305=DIRECTION('',(-1.,0.,0.));
#306=DIRECTION('',(0.,0.,1.));
#307=DIRECTION('',(-1.,0.,0.));
#308=DIRECTION('',(0.,0.,1.));
#309=DIRECTION('',(-1.,0.,0.));
#310=DIRECTION('',(0.,0.,1.));
#311=DIRECTION('',(1.,0.,0.));
#312=DIRECTION('',(3.7959050001489E-16,0.,-1.));
#313=DIRECTION('',(-1.,0.,0.));
#314=DIRECTION('',(0.,0.,1.));
#315=DIRECTION('',(-1.,0.,0.));
#316=DIRECTION('',(0.,0.,1.));
#317=DIRECTION('',(-1.,0.,0.));
#318=DIRECTION('',(0.,0.,1.));
#319=DIRECTION('',(1.,0.,0.));
#320=DIRECTION('',(1.11354416132889E-17,0.,-1.));
#321=DIRECTION('',(-1.,0.,0.));
#322=DIRECTION('',(0.,0.,1.));
#323=DIRECTION('',(-1.,0.,0.));
#324=DIRECTION('',(0.,0.,1.));
#325=DIRECTION('',(-1.,0.,0.));
#326=DIRECTION('',(4.12211519043994E-17,0.,1.));
#327=DIRECTION('',(-0.0523359562429439,-0.138982369062101,0.988910940769705));
#328=DIRECTION('',(0.,-0.99026806874157,-0.139173100960065));
#329=CARTESIAN_POINT('',(0.,0.,0.));
#330=CARTESIAN_POINT('',(38.3464101615138,0.,0.));
#331=CARTESIAN_POINT('',(38.3464101615138,0.,10.5));
#332=CARTESIAN_POINT('',(42.5,0.,0.));
#333=CARTESIAN_POINT('',(42.5,0.,10.5));
#334=CARTESIAN_POINT('',(0.,0.,0.));
#335=CARTESIAN_POINT('',(38.,0.,0.));
#336=CARTESIAN_POINT('',(38.,0.,10.3));
#337=CARTESIAN_POINT('',(38.3464101615138,0.,0.));
#338=CARTESIAN_POINT('',(8.82120580795668,0.,0.));
#339=CARTESIAN_POINT('',(8.82120580795668,0.,10.3));
#340=CARTESIAN_POINT('',(0.,0.,0.));
#341=CARTESIAN_POINT('',(8.26301620584106,0.,0.));
#342=CARTESIAN_POINT('',(8.26301620584106,0.,10.4702865747491));
#343=CARTESIAN_POINT('',(8.82120580795669,0.,0.));
#344=CARTESIAN_POINT('',(3.,0.,0.));
#345=CARTESIAN_POINT('',(3.,0.,4.25036093003004));
#346=CARTESIAN_POINT('',(4.65331171950058,3.68145232128306,0.));
#347=CARTESIAN_POINT('',(5.47708138836668,3.65791415681583,0.));
#348=CARTESIAN_POINT('',(5.75362799172732,3.67247075914657,0.));
#349=CARTESIAN_POINT('',(6.29583014403498,3.7482464944855,0.));
#350=CARTESIAN_POINT('',(6.56146743795714,3.80908661877355,0.));
#351=CARTESIAN_POINT('',(7.08062393132511,3.98167255911356,0.));
#352=CARTESIAN_POINT('',(7.33377409176337,4.09411143833194,0.));
#353=CARTESIAN_POINT('',(7.8053763219423,4.36603080519063,0.));
#354=CARTESIAN_POINT('',(8.02834219644424,4.52785213747656,0.));
#355=CARTESIAN_POINT('',(8.43397499870352,4.89749890656793,0.));
#356=CARTESIAN_POINT('',(8.61342640076035,5.1016044821578,0.));
#357=CARTESIAN_POINT('',(8.92655144553183,5.54759417116072,0.));
#358=CARTESIAN_POINT('',(9.06038559292777,5.79160994457695,0.));
#359=CARTESIAN_POINT('',(9.26921479392222,6.2936368927304,0.));
#360=CARTESIAN_POINT('',(9.34646431059164,6.55415911002165,0.));
#361=CARTESIAN_POINT('',(9.44663445375472,7.09422058387,0.));
#362=CARTESIAN_POINT('',(9.46805846877947,7.367818118374,0.));
#363=CARTESIAN_POINT('',(9.45623642855468,7.91047770540174,0.));
#364=CARTESIAN_POINT('',(9.42275739820842,8.18366628700911,0.));
#365=CARTESIAN_POINT('',(9.30212842408341,8.71853921155898,0.));
#366=CARTESIAN_POINT('',(9.21637571139607,8.97630992798247,0.));
#367=CARTESIAN_POINT('',(8.99612886990676,9.4733311170219,0.));
#368=CARTESIAN_POINT('',(8.859680868042,9.71490589141479,0.));
#369=CARTESIAN_POINT('',(8.54697745341752,10.1617305717982,0.));
#370=CARTESIAN_POINT('',(8.37081982051792,10.3682720771725,0.));
#371=CARTESIAN_POINT('',(7.97920869006567,10.7478825779571,0.));
#372=CARTESIAN_POINT('',(7.76253762898152,10.9210216466472,0.));
#373=CARTESIAN_POINT('',(7.30755281399628,11.2188190768791,0.));
#374=CARTESIAN_POINT('',(7.06727438413908,11.34570741572,0.));
#375=CARTESIAN_POINT('',(6.56060026937047,11.5545247937366,0.));
#376=CARTESIAN_POINT('',(6.29718978766535,11.6347088614415,0.));
#377=CARTESIAN_POINT('',(5.76505990368023,11.7435367717578,0.));
#378=CARTESIAN_POINT('',(5.49340806753312,11.7731114881413,0.));
#379=CARTESIAN_POINT('',(4.94345648082478,11.7800314567098,0.));
#380=CARTESIAN_POINT('',(4.67226901121931,11.7574408047122,0.));
#381=CARTESIAN_POINT('',(4.13723652782836,11.6617686613193,0.));
#382=CARTESIAN_POINT('',(3.87068724869194,11.5875078572297,0.));
#383=CARTESIAN_POINT('',(3.36071055639566,11.3908070878371,0.));
#384=CARTESIAN_POINT('',(3.11769179866572,11.2692644677708,0.));
#385=CARTESIAN_POINT('',(2.65562014664415,10.9797430490254,0.));
#386=CARTESIAN_POINT('',(2.4358038634994,10.810317972691,0.));
#387=CARTESIAN_POINT('',(2.03912120710093,10.4375854196271,0.));
#388=CARTESIAN_POINT('',(1.85971980362698,10.2330496637663,0.));
#389=CARTESIAN_POINT('',(1.54036984801716,9.78613017866351,0.));
#390=CARTESIAN_POINT('',(1.40389962957209,9.54804956450759,0.));
#391=CARTESIAN_POINT('',(1.18168679913008,9.05164901046601,0.));
#392=CARTESIAN_POINT('',(1.09444953845921,8.78906310352854,0.));
#393=CARTESIAN_POINT('',(0.976380512003512,8.25488187131401,0.));
#394=CARTESIAN_POINT('',(0.94511728794179,7.98472601310559,0.));
#395=CARTESIAN_POINT('',(0.939108613159949,7.43817617582689,0.));
#396=CARTESIAN_POINT('',(0.965228931108519,7.16217765059223,0.));
#397=CARTESIAN_POINT('',(1.07353662962603,6.62933727334042,0.));
#398=CARTESIAN_POINT('',(1.15628567742905,6.36748313292151,0.));
#399=CARTESIAN_POINT('',(1.37765155121795,5.86479583888409,0.));
#400=CARTESIAN_POINT('',(1.51328687014482,5.6297396822535,0.));
#401=CARTESIAN_POINT('',(1.8322278560878,5.19074385058877,0.));
#402=CARTESIAN_POINT('',(2.01856742113123,4.98452192412361,0.));
#403=CARTESIAN_POINT('',(2.42312697588053,4.62032003438197,0.));
#404=CARTESIAN_POINT('',(2.64116004497278,4.46108453128559,0.));
#405=CARTESIAN_POINT('',(3.10599307106939,4.18436782079038,0.));
#406=CARTESIAN_POINT('',(3.35584297599766,4.0659383731509,0.));
#407=CARTESIAN_POINT('',(4.1226102698202,3.78166603255219,0.));
#408=CARTESIAN_POINT('',(4.65331171950058,3.68145232128306,0.));
#409=CARTESIAN_POINT('',(5.47708138836668,3.65791415681583,0.));
#410=CARTESIAN_POINT('',(0.,0.,0.));
#411=CARTESIAN_POINT('',(3.,4.25036093003004,0.));
#412=CARTESIAN_POINT('',(65.,0.,0.));
#413=CARTESIAN_POINT('',(65.,0.,4.675));
#414=CARTESIAN_POINT('',(65.,4.675,0.));
#415=CARTESIAN_POINT('',(63.8,0.,0.));
#416=CARTESIAN_POINT('',(63.8,0.,5.875));
#417=CARTESIAN_POINT('',(65.,0.,0.));
#418=CARTESIAN_POINT('',(49.6495190528383,0.,0.));
#419=CARTESIAN_POINT('',(49.6495190528383,0.,5.875));
#420=CARTESIAN_POINT('',(0.,0.,0.));
#421=CARTESIAN_POINT('',(49.,0.,0.));
#422=CARTESIAN_POINT('',(49.,0.,6.25));
#423=CARTESIAN_POINT('',(49.6495190528383,0.,0.));
#424=CARTESIAN_POINT('',(44.3358981005001,0.,0.));
#425=CARTESIAN_POINT('',(44.3358981005001,0.,6.25));
#426=CARTESIAN_POINT('',(0.,0.,0.));
#427=CARTESIAN_POINT('',(43.5148469228349,0.,0.));
#428=CARTESIAN_POINT('',(43.5148469228349,0.,6.03));
#429=CARTESIAN_POINT('',(44.3358981005001,0.,0.));
#430=CARTESIAN_POINT('',(42.78,0.,0.));
#431=CARTESIAN_POINT('',(42.78,0.,6.76484692283494));
#432=CARTESIAN_POINT('',(43.3595554957734,0.,0.));
#433=CARTESIAN_POINT('',(43.,0.,0.));
#434=CARTESIAN_POINT('',(43.,0.,7.58589810050009));
#435=CARTESIAN_POINT('',(42.78,0.,0.));
#436=CARTESIAN_POINT('',(43.,0.,0.));
#437=CARTESIAN_POINT('',(43.,0.,10.));
#438=CARTESIAN_POINT('',(43.,7.58589810050009,0.));
#439=CARTESIAN_POINT('',(43.,0.,0.));
#440=CARTESIAN_POINT('',(4.99314767377287,-7.54579081290235,0.954998636372544));
#441=CARTESIAN_POINT('',(4.99314767377287,-12.4971311566102,0.259133131572217));
#442=CARTESIAN_POINT('',(4.99314767377287,-12.4971311566102,0.259133131572217));
#443=CARTESIAN_POINT('',(4.99314767377287,-13.0153974197546,-24.7351291816482));
#444=CARTESIAN_POINT('',(4.99314767377287,11.9788648934658,-25.2533954447926));
#445=CARTESIAN_POINT('',(4.99314767377287,12.4971311566102,-0.259133131572217));
#446=CARTESIAN_POINT('',(4.99314767377287,13.0153974197546,24.7351291816482));
#447=CARTESIAN_POINT('',(4.99314767377287,-11.9788648934658,25.2533954447926));
#448=CARTESIAN_POINT('',(4.99314767377287,-12.4971311566102,0.259133131572217));
#449=CARTESIAN_POINT('',(14.9794430213186,-12.5699687298306,0.777399394716651));
#450=CARTESIAN_POINT('',(14.9794430213186,-14.1247675192639,-24.3625380649446));
#451=CARTESIAN_POINT('',(14.9794430213186,11.0151699403973,-25.9173368543779));
#452=CARTESIAN_POINT('',(14.9794430213186,12.5699687298306,-0.777399394716651));
#453=CARTESIAN_POINT('',(14.9794430213186,14.1247675192639,24.3625380649446));
#454=CARTESIAN_POINT('',(14.9794430213186,-11.0151699403973,25.9173368543779));
#455=CARTESIAN_POINT('',(14.9794430213186,-12.5699687298306,0.777399394716651));
#456=CARTESIAN_POINT('',(14.9794430213186,-2.66728804241491,2.1691304043173));
#457=CARTESIAN_POINT('',(14.9794430213186,-7.00554885104953,-3.16544568051252));
#458=CARTESIAN_POINT('',(14.9794430213186,-1.6709727662197,-7.50370648914713));
#459=CARTESIAN_POINT('',(14.9794430213186,2.66728804241491,-2.1691304043173));
#460=CARTESIAN_POINT('',(14.9794430213186,7.00554885104953,3.16544568051252));
#461=CARTESIAN_POINT('',(14.9794430213186,1.6709727662197,7.50370648914713));
#462=CARTESIAN_POINT('',(14.9794430213186,-2.66728804241491,2.1691304043173));
#463=CARTESIAN_POINT('',(4.99314767377287,-2.5944504691945,1.65086414117287));
#464=CARTESIAN_POINT('',(4.99314767377287,-5.89617875154024,-3.53803679721612));
#465=CARTESIAN_POINT('',(4.99314767377287,-0.707277813151241,-6.83976507956187));
#466=CARTESIAN_POINT('',(4.99314767377287,2.5944504691945,-1.65086414117287));
#467=CARTESIAN_POINT('',(4.99314767377287,5.89617875154024,3.53803679721612));
#468=CARTESIAN_POINT('',(4.99314767377287,0.707277813151241,6.83976507956187));
#469=CARTESIAN_POINT('',(4.99314767377287,-2.5944504691945,1.65086414117287));
#470=CARTESIAN_POINT('',(-4.99314767377287,-2.52161289597409,1.13259787802844));
#471=CARTESIAN_POINT('',(-4.99314767377287,-4.78680865203097,-3.91062791391975));
#472=CARTESIAN_POINT('',(-4.99314767377287,0.256417139917215,-6.17582366997663));
#473=CARTESIAN_POINT('',(-4.99314767377287,2.52161289597409,-1.13259787802844));
#474=CARTESIAN_POINT('',(-4.99314767377287,4.78680865203097,3.91062791391975));
#475=CARTESIAN_POINT('',(-4.99314767377287,-0.256417139917215,6.17582366997663));
#476=CARTESIAN_POINT('',(-4.99314767377287,-2.52161289597409,1.13259787802844));
#477=CARTESIAN_POINT('',(-4.99314767377287,-12.4242935833898,-0.259133131572216));
#478=CARTESIAN_POINT('',(-4.99314767377287,-11.9060273202454,-25.1077202983519));
#479=CARTESIAN_POINT('',(-4.99314767377287,12.9425598465342,-24.5894540352074));
#480=CARTESIAN_POINT('',(-4.99314767377287,12.4242935833898,0.259133131572216));
#481=CARTESIAN_POINT('',(-4.99314767377287,11.9060273202454,25.1077202983519));
#482=CARTESIAN_POINT('',(-4.99314767377287,-12.9425598465342,24.5894540352074));
#483=CARTESIAN_POINT('',(-4.99314767377287,-12.4242935833898,-0.259133131572216));
#484=CARTESIAN_POINT('',(4.99314767377287,-12.4971311566102,0.259133131572217));
#485=CARTESIAN_POINT('',(4.99314767377287,-13.0153974197546,-24.7351291816482));
#486=CARTESIAN_POINT('',(4.99314767377287,11.9788648934658,-25.2533954447926));
#487=CARTESIAN_POINT('',(4.99314767377287,12.4971311566102,-0.259133131572217));
#488=CARTESIAN_POINT('',(4.99314767377287,13.0153974197546,24.7351291816482));
#489=CARTESIAN_POINT('',(4.99314767377287,-11.9788648934658,25.2533954447926));
#490=CARTESIAN_POINT('',(4.99314767377287,-12.4971311566102,0.259133131572217));
#491=MECHANICAL_DESIGN_GEOMETRIC_PRESENTATION_REPRESENTATION('',(#34,#35),
#492);
#492=(
GEOMETRIC_REPRESENTATION_CONTEXT(3)
GLOBAL_UNCERTAINTY_ASSIGNED_CONTEXT((#493))
GLOBAL_UNIT_ASSIGNED_CONTEXT((#499,#495,#494))
REPRESENTATION_CONTEXT('AEMR-RY10-D25-M12-L43-Z03-H',
'TOP_LEVEL_ASSEMBLY_PART')
);
#493=UNCERTAINTY_MEASURE_WITH_UNIT(LENGTH_MEASURE(2.E-5),#499,
'DISTANCE_ACCURACY_VALUE','Maximum Tolerance applied to model');
#494=(
NAMED_UNIT(*)
SI_UNIT($,.STERADIAN.)
SOLID_ANGLE_UNIT()
);
#495=(
CONVERSION_BASED_UNIT('DEGREE',#497)
NAMED_UNIT(#496)
PLANE_ANGLE_UNIT()
);
#496=DIMENSIONAL_EXPONENTS(0.,0.,0.,0.,0.,0.,0.);
#497=PLANE_ANGLE_MEASURE_WITH_UNIT(PLANE_ANGLE_MEASURE(0.0174532925),#498);
#498=(
NAMED_UNIT(*)
PLANE_ANGLE_UNIT()
SI_UNIT($,.RADIAN.)
);
#499=(
LENGTH_UNIT()
NAMED_UNIT(*)
SI_UNIT(.MILLI.,.METRE.)
);
ENDSEC;
END-ISO-10303-21;
