ISO-10303-21;
HEADER;
/* Generated by software containing ST-Developer
 * from STEP Tools, Inc. (www.steptools.com) 
 */
/* OPTION: using custom schema-name function */

FILE_DESCRIPTION(
/* description */ (''),
/* implementation_level */ '2;1');

FILE_NAME(
/* name */ 'model1.stp',
/* time_stamp */ '2023-11-06T17:37:50+03:00',
/* author */ (''),
/* organization */ (''),
/* preprocessor_version */ 'ST-DEVELOPER v19.4',
/* originating_system */ 'SIEMENS PLM Software NX2306.3001',
/* authorisation */ '');

FILE_SCHEMA (('AUTOMOTIVE_DESIGN { 1 0 10303 214 3 1 1 1 }'));
ENDSEC;

DATA;
#10=PROPERTY_DEFINITION_REPRESENTATION(#14,#12);
#11=PROPERTY_DEFINITION_REPRESENTATION(#15,#13);
#12=REPRESENTATION('',(#16),#513);
#13=REPRESENTATION('',(#17),#513);
#14=PROPERTY_DEFINITION('pmi validation property','',#21);
#15=PROPERTY_DEFINITION('pmi validation property','',#21);
#16=VALUE_REPRESENTATION_ITEM('number of annotations',COUNT_MEASURE(0.));
#17=VALUE_REPRESENTATION_ITEM('number of views',COUNT_MEASURE(0.));
#18=SHAPE_REPRESENTATION_RELATIONSHIP('None',
'relationship between model1_objects-None and model1_objects-None',#30,
#19);
#19=ADVANCED_BREP_SHAPE_REPRESENTATION('model1_objects-None',(#141,#142),
#513);
#20=SHAPE_DEFINITION_REPRESENTATION(#21,#30);
#21=PRODUCT_DEFINITION_SHAPE('','',#22);
#22=PRODUCT_DEFINITION(' ','',#24,#23);
#23=PRODUCT_DEFINITION_CONTEXT('part definition',#29,'design');
#24=PRODUCT_DEFINITION_FORMATION_WITH_SPECIFIED_SOURCE(' ',' ',#26,
 .NOT_KNOWN.);
#25=PRODUCT_RELATED_PRODUCT_CATEGORY('part','',(#26));
#26=PRODUCT('model1_objects','model1_objects',' ',(#27));
#27=PRODUCT_CONTEXT(' ',#29,'mechanical');
#28=APPLICATION_PROTOCOL_DEFINITION('international standard',
'automotive_design',2010,#29);
#29=APPLICATION_CONTEXT(
'core data for automotive mechanical design processes');
#30=SHAPE_REPRESENTATION('model1_objects-None',(#266),#513);
#31=OVER_RIDING_STYLED_ITEM('',(#64),#147,#61);
#32=OVER_RIDING_STYLED_ITEM('',(#65),#148,#61);
#33=OVER_RIDING_STYLED_ITEM('',(#66),#149,#61);
#34=OVER_RIDING_STYLED_ITEM('',(#67),#150,#61);
#35=OVER_RIDING_STYLED_ITEM('',(#68),#151,#61);
#36=OVER_RIDING_STYLED_ITEM('',(#69),#152,#61);
#37=OVER_RIDING_STYLED_ITEM('',(#70),#153,#61);
#38=OVER_RIDING_STYLED_ITEM('',(#71),#154,#61);
#39=OVER_RIDING_STYLED_ITEM('',(#72),#155,#61);
#40=OVER_RIDING_STYLED_ITEM('',(#73),#156,#61);
#41=OVER_RIDING_STYLED_ITEM('',(#74),#157,#61);
#42=COLOUR_RGB('Medium Steel',0.611764705882353,0.658823529411765,0.670588235294118);
#43=COLOUR_RGB('silver gray',0.6,0.6,0.6);
#44=CONICAL_SURFACE('',#281,15.75,3.3664606634298);
#45=CONICAL_SURFACE('',#283,16.,45.);
#46=CONICAL_SURFACE('',#287,15.75,9.99999999999998);
#47=CYLINDRICAL_SURFACE('',#279,14.);
#48=CYLINDRICAL_SURFACE('',#285,16.);
#49=CYLINDRICAL_SURFACE('',#288,15.75);
#50=SURFACE_OF_REVOLUTION('',#52,#51);
#51=AXIS1_PLACEMENT('',#493,#309);
#52=B_SPLINE_CURVE_WITH_KNOTS('',3,(#429,#430,#431,#432,#433,#434,#435,
#436,#437,#438,#439,#440,#441,#442,#443,#444,#445,#446,#447,#448,#449,#450,
#451,#452,#453,#454,#455,#456,#457,#458,#459,#460,#461,#462,#463,#464,#465,
#466,#467,#468,#469,#470,#471,#472,#473,#474,#475,#476,#477,#478,#479,#480,
#481,#482,#483,#484,#485,#486,#487,#488,#489,#490,#491,#492),
 .UNSPECIFIED.,.T.,.F.,(2,2,2,2,2,2,2,2,2,2,2,2,2,2,2,2,2,2,2,2,2,2,2,2,
2,2,2,2,2,2,2,2,2,2),(-0.03125,0.,0.0625,0.09375,0.125,0.15625,0.1875,0.21875,
0.25,0.28125,0.3125,0.34375,0.375,0.40625,0.4375,0.46875,0.5,0.53125,0.5625,
0.59375,0.625,0.65625,0.6875,0.71875,0.75,0.78125,0.8125,0.84375,0.875,
0.90625,0.9375,0.96875,1.,1.0625),.UNSPECIFIED.);
#53=PLANE('',#272);
#54=PLANE('',#274);
#55=FACE_OUTER_BOUND('',#188,.T.);
#56=FACE_OUTER_BOUND('',#189,.T.);
#57=TOROIDAL_SURFACE('',#271,14.75,1.);
#58=TOROIDAL_SURFACE('',#277,15.0000000000012,1.0000000000006);
#59=PRESENTATION_LAYER_ASSIGNMENT('1','Layer 1',(#141,#142));
#60=STYLED_ITEM('',(#62),#141);
#61=STYLED_ITEM('',(#63),#142);
#62=PRESENTATION_STYLE_ASSIGNMENT((#75));
#63=PRESENTATION_STYLE_ASSIGNMENT((#76));
#64=PRESENTATION_STYLE_ASSIGNMENT((#77));
#65=PRESENTATION_STYLE_ASSIGNMENT((#78));
#66=PRESENTATION_STYLE_ASSIGNMENT((#79));
#67=PRESENTATION_STYLE_ASSIGNMENT((#80));
#68=PRESENTATION_STYLE_ASSIGNMENT((#81));
#69=PRESENTATION_STYLE_ASSIGNMENT((#82));
#70=PRESENTATION_STYLE_ASSIGNMENT((#83));
#71=PRESENTATION_STYLE_ASSIGNMENT((#84));
#72=PRESENTATION_STYLE_ASSIGNMENT((#85));
#73=PRESENTATION_STYLE_ASSIGNMENT((#86));
#74=PRESENTATION_STYLE_ASSIGNMENT((#87));
#75=SURFACE_STYLE_USAGE(.BOTH.,#88);
#76=SURFACE_STYLE_USAGE(.BOTH.,#89);
#77=SURFACE_STYLE_USAGE(.BOTH.,#90);
#78=SURFACE_STYLE_USAGE(.BOTH.,#91);
#79=SURFACE_STYLE_USAGE(.BOTH.,#92);
#80=SURFACE_STYLE_USAGE(.BOTH.,#93);
#81=SURFACE_STYLE_USAGE(.BOTH.,#94);
#82=SURFACE_STYLE_USAGE(.BOTH.,#95);
#83=SURFACE_STYLE_USAGE(.BOTH.,#96);
#84=SURFACE_STYLE_USAGE(.BOTH.,#97);
#85=SURFACE_STYLE_USAGE(.BOTH.,#98);
#86=SURFACE_STYLE_USAGE(.BOTH.,#99);
#87=SURFACE_STYLE_USAGE(.BOTH.,#100);
#88=SURFACE_SIDE_STYLE('',(#101));
#89=SURFACE_SIDE_STYLE('',(#102));
#90=SURFACE_SIDE_STYLE('',(#103));
#91=SURFACE_SIDE_STYLE('',(#104));
#92=SURFACE_SIDE_STYLE('',(#105));
#93=SURFACE_SIDE_STYLE('',(#106));
#94=SURFACE_SIDE_STYLE('',(#107));
#95=SURFACE_SIDE_STYLE('',(#108));
#96=SURFACE_SIDE_STYLE('',(#109));
#97=SURFACE_SIDE_STYLE('',(#110));
#98=SURFACE_SIDE_STYLE('',(#111));
#99=SURFACE_SIDE_STYLE('',(#112));
#100=SURFACE_SIDE_STYLE('',(#113));
#101=SURFACE_STYLE_FILL_AREA(#114);
#102=SURFACE_STYLE_FILL_AREA(#115);
#103=SURFACE_STYLE_FILL_AREA(#116);
#104=SURFACE_STYLE_FILL_AREA(#117);
#105=SURFACE_STYLE_FILL_AREA(#118);
#106=SURFACE_STYLE_FILL_AREA(#119);
#107=SURFACE_STYLE_FILL_AREA(#120);
#108=SURFACE_STYLE_FILL_AREA(#121);
#109=SURFACE_STYLE_FILL_AREA(#122);
#110=SURFACE_STYLE_FILL_AREA(#123);
#111=SURFACE_STYLE_FILL_AREA(#124);
#112=SURFACE_STYLE_FILL_AREA(#125);
#113=SURFACE_STYLE_FILL_AREA(#126);
#114=FILL_AREA_STYLE('',(#127));
#115=FILL_AREA_STYLE('',(#128));
#116=FILL_AREA_STYLE('',(#129));
#117=FILL_AREA_STYLE('',(#130));
#118=FILL_AREA_STYLE('',(#131));
#119=FILL_AREA_STYLE('',(#132));
#120=FILL_AREA_STYLE('',(#133));
#121=FILL_AREA_STYLE('',(#134));
#122=FILL_AREA_STYLE('',(#135));
#123=FILL_AREA_STYLE('',(#136));
#124=FILL_AREA_STYLE('',(#137));
#125=FILL_AREA_STYLE('',(#138));
#126=FILL_AREA_STYLE('',(#139));
#127=FILL_AREA_STYLE_COLOUR('',#140);
#128=FILL_AREA_STYLE_COLOUR('',#42);
#129=FILL_AREA_STYLE_COLOUR('',#43);
#130=FILL_AREA_STYLE_COLOUR('',#43);
#131=FILL_AREA_STYLE_COLOUR('',#43);
#132=FILL_AREA_STYLE_COLOUR('',#43);
#133=FILL_AREA_STYLE_COLOUR('',#43);
#134=FILL_AREA_STYLE_COLOUR('',#43);
#135=FILL_AREA_STYLE_COLOUR('',#43);
#136=FILL_AREA_STYLE_COLOUR('',#43);
#137=FILL_AREA_STYLE_COLOUR('',#43);
#138=FILL_AREA_STYLE_COLOUR('',#43);
#139=FILL_AREA_STYLE_COLOUR('',#43);
#140=DRAUGHTING_PRE_DEFINED_COLOUR('yellow');
#141=MANIFOLD_SOLID_BREP('',#143);
#142=MANIFOLD_SOLID_BREP('',#144);
#143=CLOSED_SHELL('',(#145,#146));
#144=CLOSED_SHELL('',(#147,#148,#149,#150,#151,#152,#153,#154,#155,#156,
#157));
#145=ADVANCED_FACE('',(#160,#161),#158,.F.);
#146=ADVANCED_FACE('',(#162,#163),#159,.F.);
#147=ADVANCED_FACE('',(#164,#165),#57,.T.);
#148=ADVANCED_FACE('',(#55),#53,.F.);
#149=ADVANCED_FACE('',(#56),#54,.F.);
#150=ADVANCED_FACE('',(#166,#167),#50,.T.);
#151=ADVANCED_FACE('',(#168,#169),#58,.F.);
#152=ADVANCED_FACE('',(#170,#171),#47,.T.);
#153=ADVANCED_FACE('',(#172,#173),#44,.T.);
#154=ADVANCED_FACE('',(#174,#175),#45,.T.);
#155=ADVANCED_FACE('',(#176,#177),#48,.T.);
#156=ADVANCED_FACE('',(#178,#179),#46,.T.);
#157=ADVANCED_FACE('',(#180,#181),#49,.T.);
#158=(
BOUNDED_SURFACE()
B_SPLINE_SURFACE(3,3,((#341,#342,#343,#344,#345,#346,#347),(#348,#349,#350,
#351,#352,#353,#354),(#355,#356,#357,#358,#359,#360,#361),(#362,#363,#364,
#365,#366,#367,#368),(#369,#370,#371,#372,#373,#374,#375),(#376,#377,#378,
#379,#380,#381,#382),(#383,#384,#385,#386,#387,#388,#389)),
 .UNSPECIFIED.,.T.,.F.,.F.)
B_SPLINE_SURFACE_WITH_KNOTS((1,3,3,3,1),(4,3,4),(-0.5,0.,0.5,1.,1.5),(0.,
0.5,1.),.UNSPECIFIED.)
GEOMETRIC_REPRESENTATION_ITEM()
RATIONAL_B_SPLINE_SURFACE(((1.,0.580110355497892,0.580110355497892,1.,0.580110355497892,
0.580110355497892,1.),(0.333333333333334,0.193370118499297,0.193370118499297,
0.333333333333334,0.193370118499297,0.193370118499297,0.333333333333334),
(0.333333333333334,0.193370118499297,0.193370118499297,0.333333333333334,
0.193370118499297,0.193370118499297,0.333333333333334),(1.,0.580110355497892,
0.580110355497892,1.,0.580110355497892,0.580110355497892,1.),(0.333333333333334,
0.193370118499297,0.193370118499297,0.333333333333334,0.193370118499297,
0.193370118499297,0.333333333333334),(0.333333333333334,0.193370118499297,
0.193370118499297,0.333333333333334,0.193370118499297,0.193370118499297,
0.333333333333334),(1.,0.580110355497892,0.580110355497892,1.,0.580110355497892,
0.580110355497892,1.)))
REPRESENTATION_ITEM('')
SURFACE()
);
#159=(
BOUNDED_SURFACE()
B_SPLINE_SURFACE(3,3,((#390,#391,#392,#393),(#394,#395,#396,#397),(#398,
#399,#400,#401),(#402,#403,#404,#405),(#406,#407,#408,#409),(#410,#411,
#412,#413),(#414,#415,#416,#417)),.UNSPECIFIED.,.T.,.F.,.F.)
B_SPLINE_SURFACE_WITH_KNOTS((1,3,3,3,1),(4,4),(-0.5,0.,0.5,1.,1.5),(0.,
1.),.UNSPECIFIED.)
GEOMETRIC_REPRESENTATION_ITEM()
RATIONAL_B_SPLINE_SURFACE(((1.,0.817303303994778,0.817303303994778,1.),
(0.333333333333334,0.272434434664926,0.272434434664926,0.333333333333334),
(0.333333333333334,0.272434434664926,0.272434434664926,0.333333333333334),
(1.,0.817303303994778,0.817303303994778,1.),(0.333333333333334,0.272434434664926,
0.272434434664926,0.333333333333334),(0.333333333333334,0.272434434664926,
0.272434434664926,0.333333333333334),(1.,0.817303303994778,0.817303303994778,
1.)))
REPRESENTATION_ITEM('')
SURFACE()
);
#160=FACE_BOUND('',#182,.T.);
#161=FACE_BOUND('',#183,.T.);
#162=FACE_BOUND('',#184,.T.);
#163=FACE_BOUND('',#185,.T.);
#164=FACE_BOUND('',#186,.T.);
#165=FACE_BOUND('',#187,.T.);
#166=FACE_BOUND('',#190,.T.);
#167=FACE_BOUND('',#191,.T.);
#168=FACE_BOUND('',#192,.T.);
#169=FACE_BOUND('',#193,.T.);
#170=FACE_BOUND('',#194,.T.);
#171=FACE_BOUND('',#195,.T.);
#172=FACE_BOUND('',#196,.T.);
#173=FACE_BOUND('',#197,.T.);
#174=FACE_BOUND('',#198,.T.);
#175=FACE_BOUND('',#199,.T.);
#176=FACE_BOUND('',#200,.T.);
#177=FACE_BOUND('',#201,.T.);
#178=FACE_BOUND('',#202,.T.);
#179=FACE_BOUND('',#203,.T.);
#180=FACE_BOUND('',#204,.T.);
#181=FACE_BOUND('',#205,.T.);
#182=EDGE_LOOP('',(#206));
#183=EDGE_LOOP('',(#207));
#184=EDGE_LOOP('',(#208));
#185=EDGE_LOOP('',(#209));
#186=EDGE_LOOP('',(#210));
#187=EDGE_LOOP('',(#211));
#188=EDGE_LOOP('',(#212));
#189=EDGE_LOOP('',(#213));
#190=EDGE_LOOP('',(#214));
#191=EDGE_LOOP('',(#215));
#192=EDGE_LOOP('',(#216));
#193=EDGE_LOOP('',(#217));
#194=EDGE_LOOP('',(#218));
#195=EDGE_LOOP('',(#219));
#196=EDGE_LOOP('',(#220));
#197=EDGE_LOOP('',(#221));
#198=EDGE_LOOP('',(#222));
#199=EDGE_LOOP('',(#223));
#200=EDGE_LOOP('',(#224));
#201=EDGE_LOOP('',(#225));
#202=EDGE_LOOP('',(#226));
#203=EDGE_LOOP('',(#227));
#204=EDGE_LOOP('',(#228));
#205=EDGE_LOOP('',(#229));
#206=ORIENTED_EDGE('',*,*,#242,.T.);
#207=ORIENTED_EDGE('',*,*,#243,.F.);
#208=ORIENTED_EDGE('',*,*,#243,.T.);
#209=ORIENTED_EDGE('',*,*,#242,.F.);
#210=ORIENTED_EDGE('',*,*,#244,.F.);
#211=ORIENTED_EDGE('',*,*,#245,.T.);
#212=ORIENTED_EDGE('',*,*,#245,.F.);
#213=ORIENTED_EDGE('',*,*,#246,.T.);
#214=ORIENTED_EDGE('',*,*,#246,.F.);
#215=ORIENTED_EDGE('',*,*,#247,.T.);
#216=ORIENTED_EDGE('',*,*,#247,.F.);
#217=ORIENTED_EDGE('',*,*,#248,.T.);
#218=ORIENTED_EDGE('',*,*,#248,.F.);
#219=ORIENTED_EDGE('',*,*,#249,.T.);
#220=ORIENTED_EDGE('',*,*,#249,.F.);
#221=ORIENTED_EDGE('',*,*,#250,.T.);
#222=ORIENTED_EDGE('',*,*,#250,.F.);
#223=ORIENTED_EDGE('',*,*,#251,.T.);
#224=ORIENTED_EDGE('',*,*,#251,.F.);
#225=ORIENTED_EDGE('',*,*,#252,.T.);
#226=ORIENTED_EDGE('',*,*,#252,.F.);
#227=ORIENTED_EDGE('',*,*,#253,.T.);
#228=ORIENTED_EDGE('',*,*,#253,.F.);
#229=ORIENTED_EDGE('',*,*,#244,.T.);
#230=VERTEX_POINT('',#338);
#231=VERTEX_POINT('',#340);
#232=VERTEX_POINT('',#419);
#233=VERTEX_POINT('',#421);
#234=VERTEX_POINT('',#425);
#235=VERTEX_POINT('',#428);
#236=VERTEX_POINT('',#495);
#237=VERTEX_POINT('',#498);
#238=VERTEX_POINT('',#501);
#239=VERTEX_POINT('',#504);
#240=VERTEX_POINT('',#507);
#241=VERTEX_POINT('',#510);
#242=EDGE_CURVE('',#230,#230,#254,.T.);
#243=EDGE_CURVE('',#231,#231,#255,.T.);
#244=EDGE_CURVE('',#232,#232,#256,.T.);
#245=EDGE_CURVE('',#233,#233,#257,.T.);
#246=EDGE_CURVE('',#234,#234,#258,.T.);
#247=EDGE_CURVE('',#235,#235,#259,.T.);
#248=EDGE_CURVE('',#236,#236,#260,.T.);
#249=EDGE_CURVE('',#237,#237,#261,.T.);
#250=EDGE_CURVE('',#238,#238,#262,.T.);
#251=EDGE_CURVE('',#239,#239,#263,.T.);
#252=EDGE_CURVE('',#240,#240,#264,.T.);
#253=EDGE_CURVE('',#241,#241,#265,.T.);
#254=CIRCLE('',#267,5.);
#255=CIRCLE('',#268,5.);
#256=CIRCLE('',#269,15.75);
#257=CIRCLE('',#270,14.75);
#258=CIRCLE('',#273,7.23626460148642);
#259=CIRCLE('',#275,14.1072786233272);
#260=CIRCLE('',#276,14.);
#261=CIRCLE('',#278,14.);
#262=CIRCLE('',#280,15.75);
#263=CIRCLE('',#282,16.);
#264=CIRCLE('',#284,16.);
#265=CIRCLE('',#286,15.75);
#266=AXIS2_PLACEMENT_3D('',#336,#289,#290);
#267=AXIS2_PLACEMENT_3D('',#337,#291,#292);
#268=AXIS2_PLACEMENT_3D('',#339,#293,#294);
#269=AXIS2_PLACEMENT_3D('',#418,#295,#296);
#270=AXIS2_PLACEMENT_3D('',#420,#297,#298);
#271=AXIS2_PLACEMENT_3D('',#422,#299,#300);
#272=AXIS2_PLACEMENT_3D('',#423,#301,#302);
#273=AXIS2_PLACEMENT_3D('',#424,#303,#304);
#274=AXIS2_PLACEMENT_3D('',#426,#305,#306);
#275=AXIS2_PLACEMENT_3D('',#427,#307,#308);
#276=AXIS2_PLACEMENT_3D('',#494,#310,#311);
#277=AXIS2_PLACEMENT_3D('',#496,#312,#313);
#278=AXIS2_PLACEMENT_3D('',#497,#314,#315);
#279=AXIS2_PLACEMENT_3D('',#499,#316,#317);
#280=AXIS2_PLACEMENT_3D('',#500,#318,#319);
#281=AXIS2_PLACEMENT_3D('',#502,#320,#321);
#282=AXIS2_PLACEMENT_3D('',#503,#322,#323);
#283=AXIS2_PLACEMENT_3D('',#505,#324,#325);
#284=AXIS2_PLACEMENT_3D('',#506,#326,#327);
#285=AXIS2_PLACEMENT_3D('',#508,#328,#329);
#286=AXIS2_PLACEMENT_3D('',#509,#330,#331);
#287=AXIS2_PLACEMENT_3D('',#511,#332,#333);
#288=AXIS2_PLACEMENT_3D('',#512,#334,#335);
#289=DIRECTION('',(0.,0.,1.));
#290=DIRECTION('',(1.,0.,0.));
#291=DIRECTION('',(-0.0523359562429439,0.97645529582914,0.209274945780341));
#292=DIRECTION('',(0.,-0.209562143414647,0.977795330346519));
#293=DIRECTION('',(-0.0523359562429439,-0.156220077042707,0.986334748051039));
#294=DIRECTION('',(0.,-0.987688340595138,-0.156434465040232));
#295=DIRECTION('',(-1.,0.,0.));
#296=DIRECTION('',(0.,0.,1.));
#297=DIRECTION('',(-1.,0.,0.));
#298=DIRECTION('',(0.,0.,1.));
#299=DIRECTION('',(-1.,0.,0.));
#300=DIRECTION('',(0.,0.,1.));
#301=DIRECTION('',(-1.,0.,0.));
#302=DIRECTION('',(0.,0.,1.));
#303=DIRECTION('',(-1.,0.,0.));
#304=DIRECTION('',(0.,0.,1.));
#305=DIRECTION('',(1.,0.,0.));
#306=DIRECTION('',(0.,0.,-1.));
#307=DIRECTION('',(-1.,0.,0.));
#308=DIRECTION('',(0.,0.,1.));
#309=DIRECTION('',(-1.,0.,0.));
#310=DIRECTION('',(-1.,0.,0.));
#311=DIRECTION('',(0.,0.,1.));
#312=DIRECTION('',(-1.,0.,0.));
#313=DIRECTION('',(0.,0.,1.));
#314=DIRECTION('',(-1.,0.,0.));
#315=DIRECTION('',(0.,0.,1.));
#316=DIRECTION('',(-1.,0.,0.));
#317=DIRECTION('',(0.,0.,1.));
#318=DIRECTION('',(-1.,0.,0.));
#319=DIRECTION('',(0.,0.,1.));
#320=DIRECTION('',(1.,0.,0.));
#321=DIRECTION('',(-3.72190720146473E-16,0.,-1.));
#322=DIRECTION('',(-1.,0.,0.));
#323=DIRECTION('',(0.,0.,1.));
#324=DIRECTION('',(1.,0.,0.));
#325=DIRECTION('',(5.46369598732853E-17,0.,-1.));
#326=DIRECTION('',(-1.,0.,0.));
#327=DIRECTION('',(0.,0.,1.));
#328=DIRECTION('',(-1.,0.,0.));
#329=DIRECTION('',(0.,0.,1.));
#330=DIRECTION('',(-1.,0.,0.));
#331=DIRECTION('',(0.,0.,1.));
#332=DIRECTION('',(-1.,0.,0.));
#333=DIRECTION('',(1.44502352719488E-16,0.,1.));
#334=DIRECTION('',(-1.,0.,0.));
#335=DIRECTION('',(0.,0.,1.));
#336=CARTESIAN_POINT('',(0.,0.,0.));
#337=CARTESIAN_POINT('',(4.99314767377287,0.441635805916416,11.100077582774));
#338=CARTESIAN_POINT('',(4.99314767377287,-0.606174911156821,15.9890542345066));
#339=CARTESIAN_POINT('',(4.99314767377287,-11.0600114336105,1.04063039407642));
#340=CARTESIAN_POINT('',(4.99314767377287,-15.9984531365862,0.258458068875262));
#341=CARTESIAN_POINT('',(4.99314767377287,-15.9984531365862,0.258458068875263));
#342=CARTESIAN_POINT('',(4.99314767377288,-16.2743761654665,-16.8210692449989));
#343=CARTESIAN_POINT('',(4.99314767377288,-0.510216418056594,-23.3996446410388));
#344=CARTESIAN_POINT('',(4.99314767377287,11.4364038090003,-11.1904410661239));
#345=CARTESIAN_POINT('',(4.99314767377288,23.3830240360573,1.0187625087909));
#346=CARTESIAN_POINT('',(4.99314767377288,16.4633183823394,16.636190608486));
#347=CARTESIAN_POINT('',(4.99314767377287,-0.606174911156821,15.9890542345066));
#348=CARTESIAN_POINT('',(14.9794430213186,-16.0803246097585,0.775374206625793));
#349=CARTESIAN_POINT('',(14.9794430213186,-16.9080936963994,-16.3915569362521));
#350=CARTESIAN_POINT('',(14.9794430213186,-1.26701317033619,-23.5151323378545));
#351=CARTESIAN_POINT('',(14.9794430213186,11.1403337432785,-11.622005369293));
#352=CARTESIAN_POINT('',(14.9794430213186,23.5476806568932,0.27112159926841));
#353=CARTESIAN_POINT('',(14.9794430213186,17.0921445037435,16.1995483734506));
#354=CARTESIAN_POINT('',(14.9794430213186,-0.09443637492112,16.0987305861859));
#355=CARTESIAN_POINT('',(14.9794430213186,-6.20344120380714,2.33971885702811));
#356=CARTESIAN_POINT('',(14.9794430213186,-8.7012634485098,-4.28291162954934));
#357=CARTESIAN_POINT('',(14.9794430213186,-3.47367385079773,-9.05477264237957));
#358=CARTESIAN_POINT('',(14.9794430213186,2.89429537597035,-5.96489910859032));
#359=CARTESIAN_POINT('',(14.9794430213186,9.26226460273844,-2.87502557480108));
#360=CARTESIAN_POINT('',(14.9794430213186,8.74908045407849,4.18436480662993));
#361=CARTESIAN_POINT('',(14.9794430213186,2.00118505922535,6.32077728272071));
#362=CARTESIAN_POINT('',(4.99314767377287,-6.1215697306348,1.82280271927758));
#363=CARTESIAN_POINT('',(4.99314767377288,-8.06754591757688,-4.71242393829617));
#364=CARTESIAN_POINT('',(4.99314767377288,-2.71687709851813,-8.93928494556392));
#365=CARTESIAN_POINT('',(4.99314767377287,3.19036544169217,-5.53333480542125));
#366=CARTESIAN_POINT('',(4.99314767377288,9.09760798190247,-2.12738466527859));
#367=CARTESIAN_POINT('',(4.99314767377288,8.12025433267443,4.62100704166529));
#368=CARTESIAN_POINT('',(4.99314767377287,1.48944652298965,6.21110093104145));
#369=CARTESIAN_POINT('',(-4.99314767377287,-6.03969825746245,1.30588658152705));
#370=CARTESIAN_POINT('',(-4.99314767377287,-7.43382838664395,-5.14193624704298));
#371=CARTESIAN_POINT('',(-4.99314767377287,-1.96008034623852,-8.82379724874825));
#372=CARTESIAN_POINT('',(-4.99314767377287,3.48643550741399,-5.10177050225217));
#373=CARTESIAN_POINT('',(-4.99314767377287,8.9329513610665,-1.37974375575609));
#374=CARTESIAN_POINT('',(-4.99314767377287,7.49142821127036,5.05764927670062));
#375=CARTESIAN_POINT('',(-4.99314767377287,0.97770798675395,6.10142457936217));
#376=CARTESIAN_POINT('',(-4.99314767377287,-15.9165816634138,-0.258458068875267));
#377=CARTESIAN_POINT('',(-4.99314767377287,-15.6406586345335,-17.2505815537457));
#378=CARTESIAN_POINT('',(-4.99314767377287,0.24658033422301,-23.2841569442231));
#379=CARTESIAN_POINT('',(-4.99314767377287,11.7324738747222,-10.7588767629549));
#380=CARTESIAN_POINT('',(-4.99314767377287,23.2183674152213,1.7664034183134));
#381=CARTESIAN_POINT('',(-4.99314767377287,15.8344922609353,17.0728328435213));
#382=CARTESIAN_POINT('',(-4.99314767377287,-1.11791344739252,15.8793778828274));
#383=CARTESIAN_POINT('',(4.99314767377287,-15.9984531365862,0.258458068875263));
#384=CARTESIAN_POINT('',(4.99314767377288,-16.2743761654665,-16.8210692449989));
#385=CARTESIAN_POINT('',(4.99314767377288,-0.510216418056594,-23.3996446410388));
#386=CARTESIAN_POINT('',(4.99314767377287,11.4364038090003,-11.1904410661239));
#387=CARTESIAN_POINT('',(4.99314767377288,23.3830240360573,1.0187625087909));
#388=CARTESIAN_POINT('',(4.99314767377288,16.4633183823394,16.636190608486));
#389=CARTESIAN_POINT('',(4.99314767377287,-0.606174911156821,15.9890542345066));
#390=CARTESIAN_POINT('',(4.99314767377287,-0.606174911156821,15.9890542345066));
#391=CARTESIAN_POINT('',(4.99314767377287,-9.57579330888056,15.6489992471631));
#392=CARTESIAN_POINT('',(4.99314767377287,-15.8534620560868,9.23334910898138));
#393=CARTESIAN_POINT('',(4.99314767377287,-15.9984531365862,0.258458068875262));
#394=CARTESIAN_POINT('',(14.9794430213186,-0.0944363749211185,16.0987305861859));
#395=CARTESIAN_POINT('',(14.9794430213186,-9.12558155261502,16.0457532034412));
#396=CARTESIAN_POINT('',(14.9794430213186,-15.6453513682605,9.79619390900579));
#397=CARTESIAN_POINT('',(14.9794430213186,-16.0803246097585,0.775374206625791));
#398=CARTESIAN_POINT('',(14.9794430213186,2.00118505922535,6.32077728272071));
#399=CARTESIAN_POINT('',(14.9794430213186,-1.54467571349316,7.44341193397729));
#400=CARTESIAN_POINT('',(14.9794430213186,-4.89089419522867,5.81975585826496));
#401=CARTESIAN_POINT('',(14.9794430213186,-6.20344120380714,2.3397188570281));
#402=CARTESIAN_POINT('',(4.99314767377287,1.48944652298965,6.21110093104145));
#403=CARTESIAN_POINT('',(4.99314767377287,-1.99488746975869,7.04665797769912));
#404=CARTESIAN_POINT('',(4.99314767377287,-5.09900488305503,5.25691105824055));
#405=CARTESIAN_POINT('',(4.99314767377287,-6.1215697306348,1.82280271927758));
#406=CARTESIAN_POINT('',(-4.99314767377287,0.97770798675395,6.10142457936217));
#407=CARTESIAN_POINT('',(-4.99314767377288,-2.44509922602423,6.64990402142095));
#408=CARTESIAN_POINT('',(-4.99314767377288,-5.30711557088137,4.69406625821614));
#409=CARTESIAN_POINT('',(-4.99314767377287,-6.03969825746245,1.30588658152705));
#410=CARTESIAN_POINT('',(-4.99314767377287,-1.11791344739252,15.8793778828274));
#411=CARTESIAN_POINT('',(-4.99314767377288,-10.0260050651461,15.2522452908849));
#412=CARTESIAN_POINT('',(-4.99314767377288,-16.0615727439132,8.67050430895696));
#413=CARTESIAN_POINT('',(-4.99314767377287,-15.9165816634138,-0.258458068875268));
#414=CARTESIAN_POINT('',(4.99314767377287,-0.606174911156821,15.9890542345066));
#415=CARTESIAN_POINT('',(4.99314767377287,-9.57579330888056,15.6489992471631));
#416=CARTESIAN_POINT('',(4.99314767377287,-15.8534620560868,9.23334910898138));
#417=CARTESIAN_POINT('',(4.99314767377287,-15.9984531365862,0.258458068875262));
#418=CARTESIAN_POINT('',(159.,0.,0.));
#419=CARTESIAN_POINT('',(159.,0.,15.75));
#420=CARTESIAN_POINT('',(160.,0.,0.));
#421=CARTESIAN_POINT('',(160.,0.,14.75));
#422=CARTESIAN_POINT('',(159.,0.,0.));
#423=CARTESIAN_POINT('',(160.,0.,0.));
#424=CARTESIAN_POINT('',(2.99999999998402,0.,0.));
#425=CARTESIAN_POINT('',(2.99999999998402,0.,7.23626460148642));
#426=CARTESIAN_POINT('',(2.99999999999202,7.23626460147677,0.));
#427=CARTESIAN_POINT('',(7.89861532740536,0.,0.));
#428=CARTESIAN_POINT('',(7.89861532740536,0.,14.1072786233272));
#429=CARTESIAN_POINT('',(4.92192598986969,6.6140082155858,0.));
#430=CARTESIAN_POINT('',(5.76362251649457,6.60575785799831,0.));
#431=CARTESIAN_POINT('',(6.32237954186586,6.71095343670131,0.));
#432=CARTESIAN_POINT('',(7.09318474266841,7.02023762098373,0.));
#433=CARTESIAN_POINT('',(7.34323125343209,7.15043113841161,0.));
#434=CARTESIAN_POINT('',(7.80887170273014,7.45586251474362,0.));
#435=CARTESIAN_POINT('',(8.02399520657747,7.62989886410225,0.));
#436=CARTESIAN_POINT('',(8.41898642696731,8.02044704201307,0.));
#437=CARTESIAN_POINT('',(8.59911344241998,8.23849143769377,0.));
#438=CARTESIAN_POINT('',(8.90755877233677,8.69866872954819,0.));
#439=CARTESIAN_POINT('',(9.03830822951364,8.94278724479775,0.));
#440=CARTESIAN_POINT('',(9.25169917855436,9.45977826891319,0.));
#441=CARTESIAN_POINT('',(9.33186022828583,9.7276178352272,0.));
#442=CARTESIAN_POINT('',(9.43788366596627,10.2705697154117,0.));
#443=CARTESIAN_POINT('',(9.46439716957983,10.5497624319021,0.));
#444=CARTESIAN_POINT('',(9.46171879655552,11.1081661332152,0.));
#445=CARTESIAN_POINT('',(9.43305796104505,11.3834760520176,0.));
#446=CARTESIAN_POINT('',(9.32256397342506,11.9265215652197,0.));
#447=CARTESIAN_POINT('',(9.23930358509271,12.1968042503822,0.));
#448=CARTESIAN_POINT('',(9.02468973703077,12.7087898888279,0.));
#449=CARTESIAN_POINT('',(8.89351617001589,12.9523507093359,0.));
#450=CARTESIAN_POINT('',(8.58315251494794,13.4144608173835,0.));
#451=CARTESIAN_POINT('',(8.40376304044465,13.6319771482843,0.));
#452=CARTESIAN_POINT('',(8.01188067103371,14.0228937583309,0.));
#453=CARTESIAN_POINT('',(7.79776953961008,14.1989588049786,0.));
#454=CARTESIAN_POINT('',(7.33179105406793,14.5107906963379,0.));
#455=CARTESIAN_POINT('',(7.08672304855146,14.6418893120717,0.));
#456=CARTESIAN_POINT('',(6.5759742673249,14.8549374518591,0.));
#457=CARTESIAN_POINT('',(6.30701009569386,14.9376536788209,0.));
#458=CARTESIAN_POINT('',(5.76076456474266,15.0484165550581,0.));
#459=CARTESIAN_POINT('',(5.4854842957391,15.0767217996973,0.));
#460=CARTESIAN_POINT('',(4.93066063872381,15.0798310855737,0.));
#461=CARTESIAN_POINT('',(4.64899574483374,15.053759042706,0.));
#462=CARTESIAN_POINT('',(4.10444361677825,14.9488564709312,0.));
#463=CARTESIAN_POINT('',(3.83897681658015,14.8704367779272,0.));
#464=CARTESIAN_POINT('',(3.32194968019192,14.6605624783152,0.));
#465=CARTESIAN_POINT('',(3.07342174424989,14.5297258630394,0.));
#466=CARTESIAN_POINT('',(2.61118836194493,14.2254193600158,0.));
#467=CARTESIAN_POINT('',(2.39393520970535,14.0499235317975,0.));
#468=CARTESIAN_POINT('',(1.99580592867734,13.6567083050616,0.));
#469=CARTESIAN_POINT('',(1.81898735039371,13.4434382504386,0.));
#470=CARTESIAN_POINT('',(1.5086599512303,12.9844588590836,0.));
#471=CARTESIAN_POINT('',(1.37419921126495,12.7357769074627,0.));
#472=CARTESIAN_POINT('',(1.15987900844441,12.2231760103549,0.));
#473=CARTESIAN_POINT('',(1.07880347542261,11.958620936326,0.));
#474=CARTESIAN_POINT('',(0.969218474037694,11.4128759269973,0.));
#475=CARTESIAN_POINT('',(0.941598565348077,11.1321515662968,0.));
#476=CARTESIAN_POINT('',(0.94215832093203,10.5786054249014,0.));
#477=CARTESIAN_POINT('',(0.969556991789404,10.3026843434503,0.));
#478=CARTESIAN_POINT('',(1.08082033367079,9.75261616897104,0.));
#479=CARTESIAN_POINT('',(1.16285438576445,9.48763338539145,0.));
#480=CARTESIAN_POINT('',(1.37716441671807,8.97749865171142,0.));
#481=CARTESIAN_POINT('',(1.51131274389734,8.72973504667217,0.));
#482=CARTESIAN_POINT('',(1.82367541073929,8.26864223087039,0.));
#483=CARTESIAN_POINT('',(2.00053607081851,8.05601831519765,0.));
#484=CARTESIAN_POINT('',(2.39475635853204,7.66587039030698,0.));
#485=CARTESIAN_POINT('',(2.6142707089945,7.48746851101626,0.));
#486=CARTESIAN_POINT('',(3.07634850767261,7.18099687959638,0.));
#487=CARTESIAN_POINT('',(3.32047288156206,7.05082476291642,0.));
#488=CARTESIAN_POINT('',(3.83511367739922,6.83699762382442,0.));
#489=CARTESIAN_POINT('',(4.10413026259459,6.75464627913615,0.));
#490=CARTESIAN_POINT('',(4.64623250441717,6.64374471272048,0.));
#491=CARTESIAN_POINT('',(4.92192598986969,6.6140082155858,0.));
#492=CARTESIAN_POINT('',(5.76362251649457,6.60575785799831,0.));
#493=CARTESIAN_POINT('',(0.,0.,0.));
#494=CARTESIAN_POINT('',(8.34922440813046,0.,0.));
#495=CARTESIAN_POINT('',(8.34922440813046,0.,14.));
#496=CARTESIAN_POINT('',(8.34922440812887,0.,0.));
#497=CARTESIAN_POINT('',(30.,0.,0.));
#498=CARTESIAN_POINT('',(30.,0.,14.));
#499=CARTESIAN_POINT('',(0.,0.,0.));
#500=CARTESIAN_POINT('',(59.75,0.,0.));
#501=CARTESIAN_POINT('',(59.75,0.,15.75));
#502=CARTESIAN_POINT('',(59.75,0.,0.));
#503=CARTESIAN_POINT('',(60.,0.,0.));
#504=CARTESIAN_POINT('',(60.,0.,16.));
#505=CARTESIAN_POINT('',(60.,0.,0.));
#506=CARTESIAN_POINT('',(154.582179545095,0.,0.));
#507=CARTESIAN_POINT('',(154.582179545095,0.,16.));
#508=CARTESIAN_POINT('',(0.,0.,0.));
#509=CARTESIAN_POINT('',(156.,0.,0.));
#510=CARTESIAN_POINT('',(156.,0.,15.75));
#511=CARTESIAN_POINT('',(156.,0.,0.));
#512=CARTESIAN_POINT('',(0.,0.,0.));
#513=(
GEOMETRIC_REPRESENTATION_CONTEXT(3)
GLOBAL_UNCERTAINTY_ASSIGNED_CONTEXT((#514))
GLOBAL_UNIT_ASSIGNED_CONTEXT((#520,#516,#515))
REPRESENTATION_CONTEXT('model1','TOP_LEVEL_ASSEMBLY_PART')
);
#514=UNCERTAINTY_MEASURE_WITH_UNIT(LENGTH_MEASURE(2.E-5),#520,
'DISTANCE_ACCURACY_VALUE','Maximum Tolerance applied to model');
#515=(
NAMED_UNIT(*)
SI_UNIT($,.STERADIAN.)
SOLID_ANGLE_UNIT()
);
#516=(
CONVERSION_BASED_UNIT('DEGREE',#518)
NAMED_UNIT(#517)
PLANE_ANGLE_UNIT()
);
#517=DIMENSIONAL_EXPONENTS(0.,0.,0.,0.,0.,0.,0.);
#518=PLANE_ANGLE_MEASURE_WITH_UNIT(PLANE_ANGLE_MEASURE(0.0174532925),#519);
#519=(
NAMED_UNIT(*)
PLANE_ANGLE_UNIT()
SI_UNIT($,.RADIAN.)
);
#520=(
LENGTH_UNIT()
NAMED_UNIT(*)
SI_UNIT(.MILLI.,.METRE.)
);
ENDSEC;
END-ISO-10303-21;
