ISO-10303-21;
HEADER;
/* Generated by software containing ST-Developer
 * from STEP Tools, Inc. (www.steptools.com) 
 */
/* OPTION: using custom schema-name function */

FILE_DESCRIPTION(
/* description */ (''),
/* implementation_level */ '2;1');

FILE_NAME(
/* name */ 'AEMR-RY12-D40-M16-L43-Z03-H.stp',
/* time_stamp */ '2023-10-21T12:57:06+03:00',
/* author */ (''),
/* organization */ (''),
/* preprocessor_version */ 'ST-DEVELOPER v19.4',
/* originating_system */ 'SIEMENS PLM Software NX2306.5001',
/* authorisation */ '');

FILE_SCHEMA (('AUTOMOTIVE_DESIGN { 1 0 10303 214 3 1 1 1 }'));
ENDSEC;

DATA;
#10=PROPERTY_DEFINITION_REPRESENTATION(#14,#12);
#11=PROPERTY_DEFINITION_REPRESENTATION(#15,#13);
#12=REPRESENTATION('',(#16),#512);
#13=REPRESENTATION('',(#17),#512);
#14=PROPERTY_DEFINITION('pmi validation property','',#21);
#15=PROPERTY_DEFINITION('pmi validation property','',#21);
#16=VALUE_REPRESENTATION_ITEM('number of annotations',COUNT_MEASURE(0.));
#17=VALUE_REPRESENTATION_ITEM('number of views',COUNT_MEASURE(0.));
#18=SHAPE_REPRESENTATION_RELATIONSHIP('None',
'relationship between AEMR-RY12-D40-M16-L43-Z03-H-LIGHT_x_t_objects-No
ne and AEMR-RY12-D40-M16-L43-Z03-H-LIGHT_x_t_objects-None',#30,#19);
#19=ADVANCED_BREP_SHAPE_REPRESENTATION(
'AEMR-RY12-D40-M16-L43-Z03-H-LIGHT_x_t_objects-None',(#68,#69),#512);
#20=SHAPE_DEFINITION_REPRESENTATION(#21,#30);
#21=PRODUCT_DEFINITION_SHAPE('','',#22);
#22=PRODUCT_DEFINITION(' ','',#24,#23);
#23=PRODUCT_DEFINITION_CONTEXT('part definition',#29,'design');
#24=PRODUCT_DEFINITION_FORMATION_WITH_SPECIFIED_SOURCE(' ',' ',#26,
 .NOT_KNOWN.);
#25=PRODUCT_RELATED_PRODUCT_CATEGORY('part','',(#26));
#26=PRODUCT('AEMR-RY12-D40-M16-L43-Z03-H-LIGHT_x_t_objects',
'AEMR-RY12-D40-M16-L43-Z03-H-LIGHT_x_t_objects',' ',(#27));
#27=PRODUCT_CONTEXT(' ',#29,'mechanical');
#28=APPLICATION_PROTOCOL_DEFINITION('international standard',
'automotive_design',2010,#29);
#29=APPLICATION_CONTEXT(
'core data for automotive mechanical design processes');
#30=SHAPE_REPRESENTATION(
'AEMR-RY12-D40-M16-L43-Z03-H-LIGHT_x_t_objects-None',(#263),#512);
#31=COLOUR_RGB('silver gray',0.6,0.6,0.6);
#32=FACE_OUTER_BOUND('',#166,.T.);
#33=FACE_OUTER_BOUND('',#167,.T.);
#34=PLANE('',#284);
#35=PLANE('',#299);
#36=PLANE('',#300);
#37=CYLINDRICAL_SURFACE('',#276,14.3);
#38=CYLINDRICAL_SURFACE('',#280,14.5);
#39=CYLINDRICAL_SURFACE('',#292,8.5);
#40=CYLINDRICAL_SURFACE('',#296,7.875);
#41=CONICAL_SURFACE('',#272,14.9030737921409,20.);
#42=CONICAL_SURFACE('',#278,14.5,45.0000000000002);
#43=CONICAL_SURFACE('',#282,14.,44.9999999999999);
#44=CONICAL_SURFACE('',#286,9.03529142706151,74.9999999999999);
#45=CONICAL_SURFACE('',#290,8.5,15.0000000000002);
#46=CONICAL_SURFACE('',#294,7.875,30.);
#47=CONICAL_SURFACE('',#298,5.875,44.9999999999999);
#48=TOROIDAL_SURFACE('',#268,8.60330204979575,1.);
#49=TOROIDAL_SURFACE('',#270,14.2779448060025,4.89789017296398);
#50=TOROIDAL_SURFACE('',#274,24.3,10.);
#51=TOROIDAL_SURFACE('',#288,8.88,0.6);
#52=PRESENTATION_LAYER_ASSIGNMENT('1','Layer 1',(#68,#69));
#53=STYLED_ITEM('',(#55),#68);
#54=STYLED_ITEM('',(#56),#69);
#55=PRESENTATION_STYLE_ASSIGNMENT((#57));
#56=PRESENTATION_STYLE_ASSIGNMENT((#58));
#57=SURFACE_STYLE_USAGE(.BOTH.,#59);
#58=SURFACE_STYLE_USAGE(.BOTH.,#60);
#59=SURFACE_SIDE_STYLE('',(#61));
#60=SURFACE_SIDE_STYLE('',(#62));
#61=SURFACE_STYLE_FILL_AREA(#63);
#62=SURFACE_STYLE_FILL_AREA(#64);
#63=FILL_AREA_STYLE('',(#65));
#64=FILL_AREA_STYLE('',(#66));
#65=FILL_AREA_STYLE_COLOUR('',#67);
#66=FILL_AREA_STYLE_COLOUR('',#31);
#67=DRAUGHTING_PRE_DEFINED_COLOUR('yellow');
#68=MANIFOLD_SOLID_BREP('',#70);
#69=MANIFOLD_SOLID_BREP('',#71);
#70=CLOSED_SHELL('',(#72,#73));
#71=CLOSED_SHELL('',(#74,#75,#76,#77,#78,#79,#80,#81,#82,#83,#84,#85,#86,
#87,#88,#89,#90,#91));
#72=ADVANCED_FACE('',(#94,#95),#92,.F.);
#73=ADVANCED_FACE('',(#96,#97),#93,.F.);
#74=ADVANCED_FACE('',(#98,#99),#48,.F.);
#75=ADVANCED_FACE('',(#100,#101),#49,.T.);
#76=ADVANCED_FACE('',(#102,#103),#41,.T.);
#77=ADVANCED_FACE('',(#104,#105),#50,.F.);
#78=ADVANCED_FACE('',(#106,#107),#37,.T.);
#79=ADVANCED_FACE('',(#108,#109),#42,.T.);
#80=ADVANCED_FACE('',(#110,#111),#38,.T.);
#81=ADVANCED_FACE('',(#112,#113),#43,.T.);
#82=ADVANCED_FACE('',(#114,#115),#34,.F.);
#83=ADVANCED_FACE('',(#116,#117),#44,.F.);
#84=ADVANCED_FACE('',(#118,#119),#51,.F.);
#85=ADVANCED_FACE('',(#120,#121),#45,.T.);
#86=ADVANCED_FACE('',(#122,#123),#39,.T.);
#87=ADVANCED_FACE('',(#124,#125),#46,.T.);
#88=ADVANCED_FACE('',(#126,#127),#40,.T.);
#89=ADVANCED_FACE('',(#128,#129),#47,.T.);
#90=ADVANCED_FACE('',(#32),#35,.F.);
#91=ADVANCED_FACE('',(#33),#36,.F.);
#92=(
BOUNDED_SURFACE()
B_SPLINE_SURFACE(3,3,((#382,#383,#384,#385,#386,#387,#388),(#389,#390,#391,
#392,#393,#394,#395),(#396,#397,#398,#399,#400,#401,#402),(#403,#404,#405,
#406,#407,#408,#409),(#410,#411,#412,#413,#414,#415,#416),(#417,#418,#419,
#420,#421,#422,#423),(#424,#425,#426,#427,#428,#429,#430)),
 .UNSPECIFIED.,.T.,.F.,.F.)
B_SPLINE_SURFACE_WITH_KNOTS((1,3,3,3,1),(4,3,4),(-0.5,0.,0.5,1.,1.5),(0.,
0.5,1.),.UNSPECIFIED.)
GEOMETRIC_REPRESENTATION_ITEM()
RATIONAL_B_SPLINE_SURFACE(((1.,0.592790335744402,0.592790335744402,1.,0.592790335744402,
0.592790335744402,1.),(0.333333333333334,0.197596778581467,0.197596778581467,
0.333333333333334,0.197596778581467,0.197596778581467,0.333333333333334),
(0.333333333333334,0.197596778581467,0.197596778581467,0.333333333333334,
0.197596778581467,0.197596778581467,0.333333333333334),(1.,0.592790335744402,
0.592790335744402,1.,0.592790335744402,0.592790335744402,1.),(0.333333333333334,
0.197596778581467,0.197596778581467,0.333333333333334,0.197596778581467,
0.197596778581467,0.333333333333334),(0.333333333333334,0.197596778581467,
0.197596778581467,0.333333333333334,0.197596778581467,0.197596778581467,
0.333333333333334),(1.,0.592790335744402,0.592790335744402,1.,0.592790335744402,
0.592790335744402,1.)))
REPRESENTATION_ITEM('')
SURFACE()
);
#93=(
BOUNDED_SURFACE()
B_SPLINE_SURFACE(3,3,((#431,#432,#433,#434),(#435,#436,#437,#438),(#439,
#440,#441,#442),(#443,#444,#445,#446),(#447,#448,#449,#450),(#451,#452,
#453,#454),(#455,#456,#457,#458)),.UNSPECIFIED.,.T.,.F.,.F.)
B_SPLINE_SURFACE_WITH_KNOTS((1,3,3,3,1),(4,4),(-0.5,0.,0.5,1.,1.5),(0.,
1.),.UNSPECIFIED.)
GEOMETRIC_REPRESENTATION_ITEM()
RATIONAL_B_SPLINE_SURFACE(((1.,0.798046191699588,0.798046191699588,1.),
(0.333333333333334,0.266015397233196,0.266015397233196,0.333333333333334),
(0.333333333333334,0.266015397233196,0.266015397233196,0.333333333333334),
(1.,0.798046191699588,0.798046191699588,1.),(0.333333333333334,0.266015397233196,
0.266015397233196,0.333333333333334),(0.333333333333334,0.266015397233196,
0.266015397233196,0.333333333333334),(1.,0.798046191699588,0.798046191699588,
1.)))
REPRESENTATION_ITEM('')
SURFACE()
);
#94=FACE_BOUND('',#130,.T.);
#95=FACE_BOUND('',#131,.T.);
#96=FACE_BOUND('',#132,.T.);
#97=FACE_BOUND('',#133,.T.);
#98=FACE_BOUND('',#134,.T.);
#99=FACE_BOUND('',#135,.T.);
#100=FACE_BOUND('',#136,.T.);
#101=FACE_BOUND('',#137,.T.);
#102=FACE_BOUND('',#138,.T.);
#103=FACE_BOUND('',#139,.T.);
#104=FACE_BOUND('',#140,.T.);
#105=FACE_BOUND('',#141,.T.);
#106=FACE_BOUND('',#142,.T.);
#107=FACE_BOUND('',#143,.T.);
#108=FACE_BOUND('',#144,.T.);
#109=FACE_BOUND('',#145,.T.);
#110=FACE_BOUND('',#146,.T.);
#111=FACE_BOUND('',#147,.T.);
#112=FACE_BOUND('',#148,.T.);
#113=FACE_BOUND('',#149,.T.);
#114=FACE_BOUND('',#150,.T.);
#115=FACE_BOUND('',#151,.T.);
#116=FACE_BOUND('',#152,.T.);
#117=FACE_BOUND('',#153,.T.);
#118=FACE_BOUND('',#154,.T.);
#119=FACE_BOUND('',#155,.T.);
#120=FACE_BOUND('',#156,.T.);
#121=FACE_BOUND('',#157,.T.);
#122=FACE_BOUND('',#158,.T.);
#123=FACE_BOUND('',#159,.T.);
#124=FACE_BOUND('',#160,.T.);
#125=FACE_BOUND('',#161,.T.);
#126=FACE_BOUND('',#162,.T.);
#127=FACE_BOUND('',#163,.T.);
#128=FACE_BOUND('',#164,.T.);
#129=FACE_BOUND('',#165,.T.);
#130=EDGE_LOOP('',(#168));
#131=EDGE_LOOP('',(#169));
#132=EDGE_LOOP('',(#170));
#133=EDGE_LOOP('',(#171));
#134=EDGE_LOOP('',(#172));
#135=EDGE_LOOP('',(#173));
#136=EDGE_LOOP('',(#174));
#137=EDGE_LOOP('',(#175));
#138=EDGE_LOOP('',(#176));
#139=EDGE_LOOP('',(#177));
#140=EDGE_LOOP('',(#178));
#141=EDGE_LOOP('',(#179));
#142=EDGE_LOOP('',(#180));
#143=EDGE_LOOP('',(#181));
#144=EDGE_LOOP('',(#182));
#145=EDGE_LOOP('',(#183));
#146=EDGE_LOOP('',(#184));
#147=EDGE_LOOP('',(#185));
#148=EDGE_LOOP('',(#186));
#149=EDGE_LOOP('',(#187));
#150=EDGE_LOOP('',(#188));
#151=EDGE_LOOP('',(#189));
#152=EDGE_LOOP('',(#190));
#153=EDGE_LOOP('',(#191));
#154=EDGE_LOOP('',(#192));
#155=EDGE_LOOP('',(#193));
#156=EDGE_LOOP('',(#194));
#157=EDGE_LOOP('',(#195));
#158=EDGE_LOOP('',(#196));
#159=EDGE_LOOP('',(#197));
#160=EDGE_LOOP('',(#198));
#161=EDGE_LOOP('',(#199));
#162=EDGE_LOOP('',(#200));
#163=EDGE_LOOP('',(#201));
#164=EDGE_LOOP('',(#202));
#165=EDGE_LOOP('',(#203));
#166=EDGE_LOOP('',(#204));
#167=EDGE_LOOP('',(#205));
#168=ORIENTED_EDGE('',*,*,#225,.T.);
#169=ORIENTED_EDGE('',*,*,#226,.T.);
#170=ORIENTED_EDGE('',*,*,#226,.F.);
#171=ORIENTED_EDGE('',*,*,#225,.F.);
#172=ORIENTED_EDGE('',*,*,#227,.F.);
#173=ORIENTED_EDGE('',*,*,#228,.T.);
#174=ORIENTED_EDGE('',*,*,#228,.F.);
#175=ORIENTED_EDGE('',*,*,#229,.T.);
#176=ORIENTED_EDGE('',*,*,#229,.F.);
#177=ORIENTED_EDGE('',*,*,#230,.T.);
#178=ORIENTED_EDGE('',*,*,#230,.F.);
#179=ORIENTED_EDGE('',*,*,#231,.T.);
#180=ORIENTED_EDGE('',*,*,#231,.F.);
#181=ORIENTED_EDGE('',*,*,#232,.T.);
#182=ORIENTED_EDGE('',*,*,#232,.F.);
#183=ORIENTED_EDGE('',*,*,#233,.T.);
#184=ORIENTED_EDGE('',*,*,#233,.F.);
#185=ORIENTED_EDGE('',*,*,#234,.T.);
#186=ORIENTED_EDGE('',*,*,#234,.F.);
#187=ORIENTED_EDGE('',*,*,#235,.T.);
#188=ORIENTED_EDGE('',*,*,#235,.F.);
#189=ORIENTED_EDGE('',*,*,#236,.T.);
#190=ORIENTED_EDGE('',*,*,#236,.F.);
#191=ORIENTED_EDGE('',*,*,#237,.T.);
#192=ORIENTED_EDGE('',*,*,#237,.F.);
#193=ORIENTED_EDGE('',*,*,#238,.T.);
#194=ORIENTED_EDGE('',*,*,#238,.F.);
#195=ORIENTED_EDGE('',*,*,#239,.T.);
#196=ORIENTED_EDGE('',*,*,#239,.F.);
#197=ORIENTED_EDGE('',*,*,#240,.T.);
#198=ORIENTED_EDGE('',*,*,#240,.F.);
#199=ORIENTED_EDGE('',*,*,#241,.T.);
#200=ORIENTED_EDGE('',*,*,#241,.F.);
#201=ORIENTED_EDGE('',*,*,#242,.T.);
#202=ORIENTED_EDGE('',*,*,#242,.F.);
#203=ORIENTED_EDGE('',*,*,#243,.T.);
#204=ORIENTED_EDGE('',*,*,#243,.F.);
#205=ORIENTED_EDGE('',*,*,#227,.T.);
#206=VERTEX_POINT('',#379);
#207=VERTEX_POINT('',#381);
#208=VERTEX_POINT('',#460);
#209=VERTEX_POINT('',#462);
#210=VERTEX_POINT('',#465);
#211=VERTEX_POINT('',#468);
#212=VERTEX_POINT('',#471);
#213=VERTEX_POINT('',#474);
#214=VERTEX_POINT('',#477);
#215=VERTEX_POINT('',#480);
#216=VERTEX_POINT('',#483);
#217=VERTEX_POINT('',#486);
#218=VERTEX_POINT('',#489);
#219=VERTEX_POINT('',#492);
#220=VERTEX_POINT('',#495);
#221=VERTEX_POINT('',#498);
#222=VERTEX_POINT('',#501);
#223=VERTEX_POINT('',#504);
#224=VERTEX_POINT('',#507);
#225=EDGE_CURVE('',#206,#206,#244,.T.);
#226=EDGE_CURVE('',#207,#207,#245,.T.);
#227=EDGE_CURVE('',#208,#208,#246,.T.);
#228=EDGE_CURVE('',#209,#209,#247,.T.);
#229=EDGE_CURVE('',#210,#210,#248,.T.);
#230=EDGE_CURVE('',#211,#211,#249,.T.);
#231=EDGE_CURVE('',#212,#212,#250,.T.);
#232=EDGE_CURVE('',#213,#213,#251,.T.);
#233=EDGE_CURVE('',#214,#214,#252,.T.);
#234=EDGE_CURVE('',#215,#215,#253,.T.);
#235=EDGE_CURVE('',#216,#216,#254,.T.);
#236=EDGE_CURVE('',#217,#217,#255,.T.);
#237=EDGE_CURVE('',#218,#218,#256,.T.);
#238=EDGE_CURVE('',#219,#219,#257,.T.);
#239=EDGE_CURVE('',#220,#220,#258,.T.);
#240=EDGE_CURVE('',#221,#221,#259,.T.);
#241=EDGE_CURVE('',#222,#222,#260,.T.);
#242=EDGE_CURVE('',#223,#223,#261,.T.);
#243=EDGE_CURVE('',#224,#224,#262,.T.);
#244=CIRCLE('',#264,6.);
#245=CIRCLE('',#265,6.);
#246=CIRCLE('',#266,8.60330204979575);
#247=CIRCLE('',#267,9.56544996876166);
#248=CIRCLE('',#269,18.8804560589566);
#249=CIRCLE('',#271,14.9030737921409);
#250=CIRCLE('',#273,14.3);
#251=CIRCLE('',#275,14.3);
#252=CIRCLE('',#277,14.5);
#253=CIRCLE('',#279,14.5);
#254=CIRCLE('',#281,14.);
#255=CIRCLE('',#283,9.78004267621761);
#256=CIRCLE('',#285,9.03529142706151);
#257=CIRCLE('',#287,8.30044450422656);
#258=CIRCLE('',#289,8.5);
#259=CIRCLE('',#291,8.5);
#260=CIRCLE('',#293,7.875);
#261=CIRCLE('',#295,7.875);
#262=CIRCLE('',#297,5.875);
#263=AXIS2_PLACEMENT_3D('',#377,#301,#302);
#264=AXIS2_PLACEMENT_3D('',#378,#303,#304);
#265=AXIS2_PLACEMENT_3D('',#380,#305,#306);
#266=AXIS2_PLACEMENT_3D('',#459,#307,#308);
#267=AXIS2_PLACEMENT_3D('',#461,#309,#310);
#268=AXIS2_PLACEMENT_3D('',#463,#311,#312);
#269=AXIS2_PLACEMENT_3D('',#464,#313,#314);
#270=AXIS2_PLACEMENT_3D('',#466,#315,#316);
#271=AXIS2_PLACEMENT_3D('',#467,#317,#318);
#272=AXIS2_PLACEMENT_3D('',#469,#319,#320);
#273=AXIS2_PLACEMENT_3D('',#470,#321,#322);
#274=AXIS2_PLACEMENT_3D('',#472,#323,#324);
#275=AXIS2_PLACEMENT_3D('',#473,#325,#326);
#276=AXIS2_PLACEMENT_3D('',#475,#327,#328);
#277=AXIS2_PLACEMENT_3D('',#476,#329,#330);
#278=AXIS2_PLACEMENT_3D('',#478,#331,#332);
#279=AXIS2_PLACEMENT_3D('',#479,#333,#334);
#280=AXIS2_PLACEMENT_3D('',#481,#335,#336);
#281=AXIS2_PLACEMENT_3D('',#482,#337,#338);
#282=AXIS2_PLACEMENT_3D('',#484,#339,#340);
#283=AXIS2_PLACEMENT_3D('',#485,#341,#342);
#284=AXIS2_PLACEMENT_3D('',#487,#343,#344);
#285=AXIS2_PLACEMENT_3D('',#488,#345,#346);
#286=AXIS2_PLACEMENT_3D('',#490,#347,#348);
#287=AXIS2_PLACEMENT_3D('',#491,#349,#350);
#288=AXIS2_PLACEMENT_3D('',#493,#351,#352);
#289=AXIS2_PLACEMENT_3D('',#494,#353,#354);
#290=AXIS2_PLACEMENT_3D('',#496,#355,#356);
#291=AXIS2_PLACEMENT_3D('',#497,#357,#358);
#292=AXIS2_PLACEMENT_3D('',#499,#359,#360);
#293=AXIS2_PLACEMENT_3D('',#500,#361,#362);
#294=AXIS2_PLACEMENT_3D('',#502,#363,#364);
#295=AXIS2_PLACEMENT_3D('',#503,#365,#366);
#296=AXIS2_PLACEMENT_3D('',#505,#367,#368);
#297=AXIS2_PLACEMENT_3D('',#506,#369,#370);
#298=AXIS2_PLACEMENT_3D('',#508,#371,#372);
#299=AXIS2_PLACEMENT_3D('',#509,#373,#374);
#300=AXIS2_PLACEMENT_3D('',#510,#375,#376);
#301=DIRECTION('',(0.,0.,1.));
#302=DIRECTION('',(1.,0.,0.));
#303=DIRECTION('',(0.052335956242944,0.99570676812061,0.076347754406705));
#304=DIRECTION('',(0.,-0.0764525299419153,0.997073222318943));
#305=DIRECTION('',(-0.052335956242944,0.104385210641587,-0.993158937674856));
#306=DIRECTION('',(0.,-0.994521895368273,-0.104528463267654));
#307=DIRECTION('',(-1.,0.,0.));
#308=DIRECTION('',(0.,0.,1.));
#309=DIRECTION('',(-1.,0.,0.));
#310=DIRECTION('',(0.,0.,1.));
#311=DIRECTION('',(-1.,0.,0.));
#312=DIRECTION('',(0.,0.,1.));
#313=DIRECTION('',(-1.,0.,0.));
#314=DIRECTION('',(0.,0.,1.));
#315=DIRECTION('',(-1.,0.,0.));
#316=DIRECTION('',(0.,0.,1.));
#317=DIRECTION('',(-1.,0.,0.));
#318=DIRECTION('',(0.,0.,1.));
#319=DIRECTION('',(-1.,0.,0.));
#320=DIRECTION('',(-9.15727468301711E-17,0.,1.));
#321=DIRECTION('',(-1.,0.,0.));
#322=DIRECTION('',(0.,0.,1.));
#323=DIRECTION('',(-1.,0.,0.));
#324=DIRECTION('',(0.,0.,1.));
#325=DIRECTION('',(-1.,0.,0.));
#326=DIRECTION('',(0.,0.,1.));
#327=DIRECTION('',(-1.,0.,0.));
#328=DIRECTION('',(0.,0.,1.));
#329=DIRECTION('',(-1.,0.,0.));
#330=DIRECTION('',(0.,0.,1.));
#331=DIRECTION('',(1.,0.,0.));
#332=DIRECTION('',(1.36794359860171E-17,0.,-1.));
#333=DIRECTION('',(-1.,0.,0.));
#334=DIRECTION('',(0.,0.,1.));
#335=DIRECTION('',(-1.,0.,0.));
#336=DIRECTION('',(0.,0.,1.));
#337=DIRECTION('',(-1.,0.,0.));
#338=DIRECTION('',(0.,0.,1.));
#339=DIRECTION('',(-1.,0.,0.));
#340=DIRECTION('',(4.10585438101021E-17,0.,1.));
#341=DIRECTION('',(-1.,0.,0.));
#342=DIRECTION('',(0.,0.,1.));
#343=DIRECTION('',(-1.,0.,0.));
#344=DIRECTION('',(0.,0.,1.));
#345=DIRECTION('',(-1.,0.,0.));
#346=DIRECTION('',(0.,0.,1.));
#347=DIRECTION('',(1.,0.,0.));
#348=DIRECTION('',(-1.66930253628556E-17,0.,-1.));
#349=DIRECTION('',(-1.,0.,0.));
#350=DIRECTION('',(0.,0.,1.));
#351=DIRECTION('',(-1.,0.,0.));
#352=DIRECTION('',(0.,0.,1.));
#353=DIRECTION('',(-1.,0.,0.));
#354=DIRECTION('',(0.,0.,1.));
#355=DIRECTION('',(1.,0.,0.));
#356=DIRECTION('',(-2.00800554861768E-16,0.,-1.));
#357=DIRECTION('',(-1.,0.,0.));
#358=DIRECTION('',(0.,0.,1.));
#359=DIRECTION('',(-1.,0.,0.));
#360=DIRECTION('',(0.,0.,1.));
#361=DIRECTION('',(-1.,0.,0.));
#362=DIRECTION('',(0.,0.,1.));
#363=DIRECTION('',(-1.,0.,0.));
#364=DIRECTION('',(7.11407480423631E-17,0.,1.));
#365=DIRECTION('',(-1.,0.,0.));
#366=DIRECTION('',(0.,0.,1.));
#367=DIRECTION('',(-1.,0.,0.));
#368=DIRECTION('',(0.,0.,1.));
#369=DIRECTION('',(-1.,0.,0.));
#370=DIRECTION('',(0.,0.,1.));
#371=DIRECTION('',(-1.,0.,0.));
#372=DIRECTION('',(5.51869280290872E-17,0.,1.));
#373=DIRECTION('',(-1.,0.,0.));
#374=DIRECTION('',(0.,0.,1.));
#375=DIRECTION('',(1.,0.,0.));
#376=DIRECTION('',(0.,0.,-1.));
#377=CARTESIAN_POINT('',(0.,0.,0.));
#378=CARTESIAN_POINT('',(5.99177720852744,0.710249425380048,14.0159104481023));
#379=CARTESIAN_POINT('',(5.99177720852744,0.251534245728556,19.9983497820159));
#380=CARTESIAN_POINT('',(5.99177720852744,-14.0303618453121,0.314875253214062));
#381=CARTESIAN_POINT('',(5.99177720852744,-19.9974932175217,-0.31229552639186));
#382=CARTESIAN_POINT('',(5.99177720852744,-19.9974932175217,-0.312295526391861));
#383=CARTESIAN_POINT('',(5.99177720852745,-19.673967969811,-21.0288713337386));
#384=CARTESIAN_POINT('',(5.99177720852745,-0.464788052495094,-28.7934439988401));
#385=CARTESIAN_POINT('',(5.99177720852744,14.1635554201592,-14.1205864375637));
#386=CARTESIAN_POINT('',(5.99177720852745,28.7918988928135,0.552271123712589));
#387=CARTESIAN_POINT('',(5.99177720852745,20.9689974184609,19.7377707077741));
#388=CARTESIAN_POINT('',(5.99177720852744,0.25153424572856,19.9983497820159));
#389=CARTESIAN_POINT('',(17.9753316255823,-19.9318460525651,-0.936886579175584));
#390=CARTESIAN_POINT('',(17.9753316255823,-18.9612703094329,-21.5854546390228));
#391=CARTESIAN_POINT('',(17.9753316255823,0.437086304795258,-28.7275230272792));
#392=CARTESIAN_POINT('',(17.9753316255823,14.5656289381488,-13.6381339325275));
#393=CARTESIAN_POINT('',(17.9753316255823,28.6941715715023,1.45125516222426));
#394=CARTESIAN_POINT('',(17.9753316255823,20.2930629175348,20.3384665386962));
#395=CARTESIAN_POINT('',(17.9753316255823,-0.374659120682984,19.9503351868755));
#396=CARTESIAN_POINT('',(17.9753316255823,-7.99758330814579,0.317454980036259));
#397=CARTESIAN_POINT('',(17.9753316255823,-8.32645353641914,-7.96771051928759));
#398=CARTESIAN_POINT('',(17.9753316255823,-0.822486965538047,-11.4951187294796));
#399=CARTESIAN_POINT('',(17.9753316255823,5.34725328075631,-5.9555855116456));
#400=CARTESIAN_POINT('',(17.9753316255823,11.5169935270507,-0.416052293811576));
#401=CARTESIAN_POINT('',(17.9753316255823,8.81537388604498,7.42316796674771));
#402=CARTESIAN_POINT('',(17.9753316255823,0.542771238619998,7.98545651904817));
#403=CARTESIAN_POINT('',(5.99177720852745,-8.06323047310242,0.942046032819983));
#404=CARTESIAN_POINT('',(5.99177720852745,-9.03915119679721,-7.41112721400343));
#405=CARTESIAN_POINT('',(5.99177720852745,-1.7243613228284,-11.5610397010406));
#406=CARTESIAN_POINT('',(5.99177720852744,4.94517976276675,-6.43803801668191));
#407=CARTESIAN_POINT('',(5.99177720852745,11.6147208483619,-1.31503633232325));
#408=CARTESIAN_POINT('',(5.99177720852745,9.49130838697104,6.82247213582554));
#409=CARTESIAN_POINT('',(5.99177720852744,1.16896460503154,8.03347111418861));
#410=CARTESIAN_POINT('',(-5.99177720852745,-8.12887763805903,1.56663708560371));
#411=CARTESIAN_POINT('',(-5.99177720852744,-9.75184885717528,-6.85454390871925));
#412=CARTESIAN_POINT('',(-5.99177720852744,-2.62623568011876,-11.6269606726015));
#413=CARTESIAN_POINT('',(-5.99177720852745,4.54310624477718,-6.92049052171822));
#414=CARTESIAN_POINT('',(-5.99177720852744,11.7124481696731,-2.21402037083493));
#415=CARTESIAN_POINT('',(-5.99177720852744,10.1672428878971,6.22177630490337));
#416=CARTESIAN_POINT('',(-5.99177720852745,1.79515797144309,8.08148570932903));
#417=CARTESIAN_POINT('',(-5.99177720852745,-20.0631403824783,0.312295526391863));
#418=CARTESIAN_POINT('',(-5.99177720852744,-20.386665630189,-20.4722880284545));
#419=CARTESIAN_POINT('',(-5.99177720852744,-1.36666240978545,-28.859364970401));
#420=CARTESIAN_POINT('',(-5.99177720852745,13.7614819021696,-14.6030389426001));
#421=CARTESIAN_POINT('',(-5.99177720852744,28.8896262141247,-0.346712914799091));
#422=CARTESIAN_POINT('',(-5.99177720852744,21.6449319193869,19.1370748768519));
#423=CARTESIAN_POINT('',(-5.99177720852745,0.877727612140104,20.0463643771563));
#424=CARTESIAN_POINT('',(5.99177720852744,-19.9974932175217,-0.312295526391861));
#425=CARTESIAN_POINT('',(5.99177720852745,-19.673967969811,-21.0288713337386));
#426=CARTESIAN_POINT('',(5.99177720852745,-0.464788052495094,-28.7934439988401));
#427=CARTESIAN_POINT('',(5.99177720852744,14.1635554201592,-14.1205864375637));
#428=CARTESIAN_POINT('',(5.99177720852745,28.7918988928135,0.552271123712589));
#429=CARTESIAN_POINT('',(5.99177720852745,20.9689974184609,19.7377707077741));
#430=CARTESIAN_POINT('',(5.99177720852744,0.25153424572856,19.9983497820159));
#431=CARTESIAN_POINT('',(5.99177720852744,0.251534245728556,19.9983497820159));
#432=CARTESIAN_POINT('',(5.99177720852745,-11.7267968055824,20.1490102364495));
#433=CARTESIAN_POINT('',(5.99177720852745,-20.1845476115962,11.6655224719327));
#434=CARTESIAN_POINT('',(5.99177720852744,-19.9974932175217,-0.31229552639186));
#435=CARTESIAN_POINT('',(17.9753316255823,-0.374659120682988,19.9503351868755));
#436=CARTESIAN_POINT('',(17.9753316255823,-12.3242310632597,19.7259271218176));
#437=CARTESIAN_POINT('',(17.9753316255823,-20.4930092347886,11.0016110010644));
#438=CARTESIAN_POINT('',(17.9753316255823,-19.9318460525651,-0.936886579175584));
#439=CARTESIAN_POINT('',(17.9753316255823,0.542771238619996,7.98545651904817));
#440=CARTESIAN_POINT('',(17.9753316255823,-4.24024550144256,8.31055802253159));
#441=CARTESIAN_POINT('',(17.9753316255823,-7.80743857689498,5.10773525413958));
#442=CARTESIAN_POINT('',(17.9753316255823,-7.9975833081458,0.317454980036259));
#443=CARTESIAN_POINT('',(5.99177720852745,1.16896460503154,8.03347111418861));
#444=CARTESIAN_POINT('',(5.99177720852745,-3.64281124376528,8.73364113716344));
#445=CARTESIAN_POINT('',(5.99177720852745,-7.49897695370255,5.77164672500787));
#446=CARTESIAN_POINT('',(5.99177720852745,-8.06323047310242,0.942046032819984));
#447=CARTESIAN_POINT('',(-5.99177720852745,1.79515797144308,8.08148570932903));
#448=CARTESIAN_POINT('',(-5.99177720852745,-3.04537698608799,9.1567242517953));
#449=CARTESIAN_POINT('',(-5.99177720852745,-7.19051533051016,6.43555819587617));
#450=CARTESIAN_POINT('',(-5.99177720852745,-8.12887763805903,1.56663708560371));
#451=CARTESIAN_POINT('',(-5.99177720852745,0.8777276121401,20.0463643771563));
#452=CARTESIAN_POINT('',(-5.99177720852745,-11.1293625479052,20.5720933510813));
#453=CARTESIAN_POINT('',(-5.99177720852745,-19.8760859884038,12.329433942801));
#454=CARTESIAN_POINT('',(-5.99177720852745,-20.0631403824783,0.312295526391863));
#455=CARTESIAN_POINT('',(5.99177720852744,0.251534245728556,19.9983497820159));
#456=CARTESIAN_POINT('',(5.99177720852745,-11.7267968055824,20.1490102364495));
#457=CARTESIAN_POINT('',(5.99177720852745,-20.1845476115962,11.6655224719327));
#458=CARTESIAN_POINT('',(5.99177720852744,-19.9974932175217,-0.31229552639186));
#459=CARTESIAN_POINT('',(5.,0.,0.));
#460=CARTESIAN_POINT('',(5.,0.,8.60330204979575));
#461=CARTESIAN_POINT('',(4.2725277637775,0.,0.));
#462=CARTESIAN_POINT('',(4.2725277637775,0.,9.56544996876166));
#463=CARTESIAN_POINT('',(4.,0.,0.));
#464=CARTESIAN_POINT('',(7.2825159187937,0.,0.));
#465=CARTESIAN_POINT('',(7.2825159187937,0.,18.8804560589566));
#466=CARTESIAN_POINT('',(5.60733881984317,0.,0.));
#467=CARTESIAN_POINT('',(18.2102838854091,0.,0.));
#468=CARTESIAN_POINT('',(18.2102838854091,0.,14.9030737921409));
#469=CARTESIAN_POINT('',(18.2102838854091,0.,0.));
#470=CARTESIAN_POINT('',(21.6304853186657,0.,0.));
#471=CARTESIAN_POINT('',(21.6304853186657,0.,14.3));
#472=CARTESIAN_POINT('',(21.6304853186657,0.,0.));
#473=CARTESIAN_POINT('',(38.,0.,0.));
#474=CARTESIAN_POINT('',(38.,0.,14.3));
#475=CARTESIAN_POINT('',(0.,0.,0.));
#476=CARTESIAN_POINT('',(38.2,0.,0.));
#477=CARTESIAN_POINT('',(38.2,0.,14.5));
#478=CARTESIAN_POINT('',(38.2,0.,0.));
#479=CARTESIAN_POINT('',(42.5,0.,0.));
#480=CARTESIAN_POINT('',(42.5,0.,14.5));
#481=CARTESIAN_POINT('',(0.,0.,0.));
#482=CARTESIAN_POINT('',(43.,0.,0.));
#483=CARTESIAN_POINT('',(43.,0.,14.));
#484=CARTESIAN_POINT('',(43.,0.,0.));
#485=CARTESIAN_POINT('',(43.,0.,0.));
#486=CARTESIAN_POINT('',(43.,0.,9.78004267621761));
#487=CARTESIAN_POINT('',(43.,14.,0.));
#488=CARTESIAN_POINT('',(42.8004445042265,0.,0.));
#489=CARTESIAN_POINT('',(42.8004445042265,0.,9.03529142706151));
#490=CARTESIAN_POINT('',(42.8004445042265,0.,0.));
#491=CARTESIAN_POINT('',(43.5352914270615,0.,0.));
#492=CARTESIAN_POINT('',(43.5352914270615,0.,8.30044450422656));
#493=CARTESIAN_POINT('',(43.38,0.,0.));
#494=CARTESIAN_POINT('',(44.2800426762176,0.,0.));
#495=CARTESIAN_POINT('',(44.2800426762176,0.,8.5));
#496=CARTESIAN_POINT('',(44.2800426762176,0.,0.));
#497=CARTESIAN_POINT('',(49.,0.,0.));
#498=CARTESIAN_POINT('',(49.,0.,8.5));
#499=CARTESIAN_POINT('',(0.,0.,0.));
#500=CARTESIAN_POINT('',(50.0825317547305,0.,0.));
#501=CARTESIAN_POINT('',(50.0825317547305,0.,7.875));
#502=CARTESIAN_POINT('',(50.0825317547305,0.,0.));
#503=CARTESIAN_POINT('',(66.,0.,0.));
#504=CARTESIAN_POINT('',(66.,0.,7.875));
#505=CARTESIAN_POINT('',(0.,0.,0.));
#506=CARTESIAN_POINT('',(68.,0.,0.));
#507=CARTESIAN_POINT('',(68.,0.,5.875));
#508=CARTESIAN_POINT('',(68.,0.,0.));
#509=CARTESIAN_POINT('',(68.,5.875,0.));
#510=CARTESIAN_POINT('',(5.,8.60330204979575,0.));
#511=MECHANICAL_DESIGN_GEOMETRIC_PRESENTATION_REPRESENTATION('',(#53,#54),
#512);
#512=(
GEOMETRIC_REPRESENTATION_CONTEXT(3)
GLOBAL_UNCERTAINTY_ASSIGNED_CONTEXT((#513))
GLOBAL_UNIT_ASSIGNED_CONTEXT((#519,#515,#514))
REPRESENTATION_CONTEXT('AEMR-RY12-D40-M16-L43-Z03-H',
'TOP_LEVEL_ASSEMBLY_PART')
);
#513=UNCERTAINTY_MEASURE_WITH_UNIT(LENGTH_MEASURE(2.E-5),#519,
'DISTANCE_ACCURACY_VALUE','Maximum Tolerance applied to model');
#514=(
NAMED_UNIT(*)
SI_UNIT($,.STERADIAN.)
SOLID_ANGLE_UNIT()
);
#515=(
CONVERSION_BASED_UNIT('DEGREE',#517)
NAMED_UNIT(#516)
PLANE_ANGLE_UNIT()
);
#516=DIMENSIONAL_EXPONENTS(0.,0.,0.,0.,0.,0.,0.);
#517=PLANE_ANGLE_MEASURE_WITH_UNIT(PLANE_ANGLE_MEASURE(0.0174532925),#518);
#518=(
NAMED_UNIT(*)
PLANE_ANGLE_UNIT()
SI_UNIT($,.RADIAN.)
);
#519=(
LENGTH_UNIT()
NAMED_UNIT(*)
SI_UNIT(.MILLI.,.METRE.)
);
ENDSEC;
END-ISO-10303-21;
