ISO-10303-21;
HEADER;
/* Generated by software containing ST-Developer
 * from STEP Tools, Inc. (www.steptools.com) 
 */
/* OPTION: using custom schema-name function */

FILE_DESCRIPTION(
/* description */ (''),
/* implementation_level */ '2;1');

FILE_NAME(
/* name */ 'model1.stp',
/* time_stamp */ '2023-11-06T18:47:50+03:00',
/* author */ (''),
/* organization */ (''),
/* preprocessor_version */ 'ST-DEVELOPER v19.4',
/* originating_system */ 'SIEMENS PLM Software NX2306.3001',
/* authorisation */ '');

FILE_SCHEMA (('AUTOMOTIVE_DESIGN { 1 0 10303 214 3 1 1 1 }'));
ENDSEC;

DATA;
#10=PROPERTY_DEFINITION_REPRESENTATION(#14,#12);
#11=PROPERTY_DEFINITION_REPRESENTATION(#15,#13);
#12=REPRESENTATION('',(#16),#486);
#13=REPRESENTATION('',(#17),#486);
#14=PROPERTY_DEFINITION('pmi validation property','',#21);
#15=PROPERTY_DEFINITION('pmi validation property','',#21);
#16=VALUE_REPRESENTATION_ITEM('number of annotations',COUNT_MEASURE(0.));
#17=VALUE_REPRESENTATION_ITEM('number of views',COUNT_MEASURE(0.));
#18=SHAPE_REPRESENTATION_RELATIONSHIP('None',
'relationship between model1_objects-None and model1_objects-None',#30,
#19);
#19=ADVANCED_BREP_SHAPE_REPRESENTATION('model1_objects-None',(#133,#134),
#486);
#20=SHAPE_DEFINITION_REPRESENTATION(#21,#30);
#21=PRODUCT_DEFINITION_SHAPE('','',#22);
#22=PRODUCT_DEFINITION(' ','',#24,#23);
#23=PRODUCT_DEFINITION_CONTEXT('part definition',#29,'design');
#24=PRODUCT_DEFINITION_FORMATION_WITH_SPECIFIED_SOURCE(' ',' ',#26,
 .NOT_KNOWN.);
#25=PRODUCT_RELATED_PRODUCT_CATEGORY('part','',(#26));
#26=PRODUCT('model1_objects','model1_objects',' ',(#27));
#27=PRODUCT_CONTEXT(' ',#29,'mechanical');
#28=APPLICATION_PROTOCOL_DEFINITION('international standard',
'automotive_design',2010,#29);
#29=APPLICATION_CONTEXT(
'core data for automotive mechanical design processes');
#30=SHAPE_REPRESENTATION('model1_objects-None',(#248),#486);
#31=OVER_RIDING_STYLED_ITEM('',(#62),#139,#59);
#32=OVER_RIDING_STYLED_ITEM('',(#63),#140,#59);
#33=OVER_RIDING_STYLED_ITEM('',(#64),#141,#59);
#34=OVER_RIDING_STYLED_ITEM('',(#65),#142,#59);
#35=OVER_RIDING_STYLED_ITEM('',(#66),#143,#59);
#36=OVER_RIDING_STYLED_ITEM('',(#67),#144,#59);
#37=OVER_RIDING_STYLED_ITEM('',(#68),#145,#59);
#38=OVER_RIDING_STYLED_ITEM('',(#69),#146,#59);
#39=OVER_RIDING_STYLED_ITEM('',(#70),#147,#59);
#40=OVER_RIDING_STYLED_ITEM('',(#71),#148,#59);
#41=COLOUR_RGB('Medium Steel',0.611764705882353,0.658823529411765,0.670588235294118);
#42=COLOUR_RGB('silver gray',0.6,0.6,0.6);
#43=TOROIDAL_SURFACE('',#265,8.75,1.);
#44=PLANE('',#261);
#45=PLANE('',#263);
#46=FACE_OUTER_BOUND('',#185,.T.);
#47=FACE_OUTER_BOUND('',#186,.T.);
#48=SURFACE_OF_REVOLUTION('',#50,#49);
#49=AXIS1_PLACEMENT('',#474,#295);
#50=B_SPLINE_CURVE_WITH_KNOTS('',3,(#410,#411,#412,#413,#414,#415,#416,
#417,#418,#419,#420,#421,#422,#423,#424,#425,#426,#427,#428,#429,#430,#431,
#432,#433,#434,#435,#436,#437,#438,#439,#440,#441,#442,#443,#444,#445,#446,
#447,#448,#449,#450,#451,#452,#453,#454,#455,#456,#457,#458,#459,#460,#461,
#462,#463,#464,#465,#466,#467,#468,#469,#470,#471,#472,#473),
 .UNSPECIFIED.,.T.,.F.,(2,2,2,2,2,2,2,2,2,2,2,2,2,2,2,2,2,2,2,2,2,2,2,2,
2,2,2,2,2,2,2,2,2,2),(-0.0625,0.,0.03125,0.0625,0.09375,0.125,0.15625,0.1875,
0.21875,0.25,0.28125,0.3125,0.34375,0.375,0.40625,0.4375,0.46875,0.5,0.53125,
0.5625,0.59375,0.625,0.65625,0.6875,0.71875,0.75,0.78125,0.8125,0.84375,
0.875,0.90625,0.9375,1.,1.03125),.UNSPECIFIED.);
#51=CONICAL_SURFACE('',#255,10.,44.9999999999992);
#52=CONICAL_SURFACE('',#257,9.75,1.80116051572237);
#53=CONICAL_SURFACE('',#268,9.75,10.);
#54=CYLINDRICAL_SURFACE('',#253,10.);
#55=CYLINDRICAL_SURFACE('',#259,8.50000000000953);
#56=CYLINDRICAL_SURFACE('',#267,9.75);
#57=PRESENTATION_LAYER_ASSIGNMENT('1','Layer 1',(#133,#134));
#58=STYLED_ITEM('',(#60),#133);
#59=STYLED_ITEM('',(#61),#134);
#60=PRESENTATION_STYLE_ASSIGNMENT((#72));
#61=PRESENTATION_STYLE_ASSIGNMENT((#73));
#62=PRESENTATION_STYLE_ASSIGNMENT((#74));
#63=PRESENTATION_STYLE_ASSIGNMENT((#75));
#64=PRESENTATION_STYLE_ASSIGNMENT((#76));
#65=PRESENTATION_STYLE_ASSIGNMENT((#77));
#66=PRESENTATION_STYLE_ASSIGNMENT((#78));
#67=PRESENTATION_STYLE_ASSIGNMENT((#79));
#68=PRESENTATION_STYLE_ASSIGNMENT((#80));
#69=PRESENTATION_STYLE_ASSIGNMENT((#81));
#70=PRESENTATION_STYLE_ASSIGNMENT((#82));
#71=PRESENTATION_STYLE_ASSIGNMENT((#83));
#72=SURFACE_STYLE_USAGE(.BOTH.,#84);
#73=SURFACE_STYLE_USAGE(.BOTH.,#85);
#74=SURFACE_STYLE_USAGE(.BOTH.,#86);
#75=SURFACE_STYLE_USAGE(.BOTH.,#87);
#76=SURFACE_STYLE_USAGE(.BOTH.,#88);
#77=SURFACE_STYLE_USAGE(.BOTH.,#89);
#78=SURFACE_STYLE_USAGE(.BOTH.,#90);
#79=SURFACE_STYLE_USAGE(.BOTH.,#91);
#80=SURFACE_STYLE_USAGE(.BOTH.,#92);
#81=SURFACE_STYLE_USAGE(.BOTH.,#93);
#82=SURFACE_STYLE_USAGE(.BOTH.,#94);
#83=SURFACE_STYLE_USAGE(.BOTH.,#95);
#84=SURFACE_SIDE_STYLE('',(#96));
#85=SURFACE_SIDE_STYLE('',(#97));
#86=SURFACE_SIDE_STYLE('',(#98));
#87=SURFACE_SIDE_STYLE('',(#99));
#88=SURFACE_SIDE_STYLE('',(#100));
#89=SURFACE_SIDE_STYLE('',(#101));
#90=SURFACE_SIDE_STYLE('',(#102));
#91=SURFACE_SIDE_STYLE('',(#103));
#92=SURFACE_SIDE_STYLE('',(#104));
#93=SURFACE_SIDE_STYLE('',(#105));
#94=SURFACE_SIDE_STYLE('',(#106));
#95=SURFACE_SIDE_STYLE('',(#107));
#96=SURFACE_STYLE_FILL_AREA(#108);
#97=SURFACE_STYLE_FILL_AREA(#109);
#98=SURFACE_STYLE_FILL_AREA(#110);
#99=SURFACE_STYLE_FILL_AREA(#111);
#100=SURFACE_STYLE_FILL_AREA(#112);
#101=SURFACE_STYLE_FILL_AREA(#113);
#102=SURFACE_STYLE_FILL_AREA(#114);
#103=SURFACE_STYLE_FILL_AREA(#115);
#104=SURFACE_STYLE_FILL_AREA(#116);
#105=SURFACE_STYLE_FILL_AREA(#117);
#106=SURFACE_STYLE_FILL_AREA(#118);
#107=SURFACE_STYLE_FILL_AREA(#119);
#108=FILL_AREA_STYLE('',(#120));
#109=FILL_AREA_STYLE('',(#121));
#110=FILL_AREA_STYLE('',(#122));
#111=FILL_AREA_STYLE('',(#123));
#112=FILL_AREA_STYLE('',(#124));
#113=FILL_AREA_STYLE('',(#125));
#114=FILL_AREA_STYLE('',(#126));
#115=FILL_AREA_STYLE('',(#127));
#116=FILL_AREA_STYLE('',(#128));
#117=FILL_AREA_STYLE('',(#129));
#118=FILL_AREA_STYLE('',(#130));
#119=FILL_AREA_STYLE('',(#131));
#120=FILL_AREA_STYLE_COLOUR('',#132);
#121=FILL_AREA_STYLE_COLOUR('',#41);
#122=FILL_AREA_STYLE_COLOUR('',#42);
#123=FILL_AREA_STYLE_COLOUR('',#42);
#124=FILL_AREA_STYLE_COLOUR('',#42);
#125=FILL_AREA_STYLE_COLOUR('',#42);
#126=FILL_AREA_STYLE_COLOUR('',#42);
#127=FILL_AREA_STYLE_COLOUR('',#42);
#128=FILL_AREA_STYLE_COLOUR('',#42);
#129=FILL_AREA_STYLE_COLOUR('',#42);
#130=FILL_AREA_STYLE_COLOUR('',#42);
#131=FILL_AREA_STYLE_COLOUR('',#42);
#132=DRAUGHTING_PRE_DEFINED_COLOUR('yellow');
#133=MANIFOLD_SOLID_BREP('',#135);
#134=MANIFOLD_SOLID_BREP('',#136);
#135=CLOSED_SHELL('',(#137,#138));
#136=CLOSED_SHELL('',(#139,#140,#141,#142,#143,#144,#145,#146,#147,#148));
#137=ADVANCED_FACE('',(#151,#152),#149,.F.);
#138=ADVANCED_FACE('',(#153,#154),#150,.F.);
#139=ADVANCED_FACE('',(#155,#156),#54,.T.);
#140=ADVANCED_FACE('',(#157,#158),#51,.T.);
#141=ADVANCED_FACE('',(#159,#160),#52,.T.);
#142=ADVANCED_FACE('',(#161,#162),#55,.T.);
#143=ADVANCED_FACE('',(#163,#164),#48,.T.);
#144=ADVANCED_FACE('',(#46),#44,.F.);
#145=ADVANCED_FACE('',(#47),#45,.F.);
#146=ADVANCED_FACE('',(#165,#166),#43,.T.);
#147=ADVANCED_FACE('',(#167,#168),#56,.T.);
#148=ADVANCED_FACE('',(#169,#170),#53,.T.);
#149=(
BOUNDED_SURFACE()
B_SPLINE_SURFACE(3,3,((#317,#318,#319,#320,#321,#322,#323),(#324,#325,#326,
#327,#328,#329,#330),(#331,#332,#333,#334,#335,#336,#337),(#338,#339,#340,
#341,#342,#343,#344),(#345,#346,#347,#348,#349,#350,#351),(#352,#353,#354,
#355,#356,#357,#358),(#359,#360,#361,#362,#363,#364,#365)),
 .UNSPECIFIED.,.T.,.F.,.F.)
B_SPLINE_SURFACE_WITH_KNOTS((1,3,3,3,1),(4,3,4),(-0.5,0.,0.5,1.,1.5),(0.,
0.5,1.),.UNSPECIFIED.)
GEOMETRIC_REPRESENTATION_ITEM()
RATIONAL_B_SPLINE_SURFACE(((1.,0.55145396866394,0.55145396866394,1.,0.55145396866394,
0.55145396866394,1.),(0.333333333333334,0.183817989554647,0.183817989554647,
0.333333333333334,0.183817989554647,0.183817989554647,0.333333333333334),
(0.333333333333334,0.183817989554647,0.183817989554647,0.333333333333334,
0.183817989554647,0.183817989554647,0.333333333333334),(1.,0.55145396866394,
0.55145396866394,1.,0.55145396866394,0.55145396866394,1.),(0.333333333333334,
0.183817989554647,0.183817989554647,0.333333333333334,0.183817989554647,
0.183817989554647,0.333333333333334),(0.333333333333334,0.183817989554647,
0.183817989554647,0.333333333333334,0.183817989554647,0.183817989554647,
0.333333333333334),(1.,0.55145396866394,0.55145396866394,1.,0.55145396866394,
0.55145396866394,1.)))
REPRESENTATION_ITEM('')
SURFACE()
);
#150=(
BOUNDED_SURFACE()
B_SPLINE_SURFACE(3,3,((#366,#367,#368,#369),(#370,#371,#372,#373),(#374,
#375,#376,#377),(#378,#379,#380,#381),(#382,#383,#384,#385),(#386,#387,
#388,#389),(#390,#391,#392,#393)),.UNSPECIFIED.,.T.,.F.,.F.)
B_SPLINE_SURFACE_WITH_KNOTS((1,3,3,3,1),(4,4),(-0.5,0.,0.5,1.,1.5),(0.,
1.),.UNSPECIFIED.)
GEOMETRIC_REPRESENTATION_ITEM()
RATIONAL_B_SPLINE_SURFACE(((1.,0.857270165328917,0.857270165328917,1.),
(0.333333333333334,0.285756721776306,0.285756721776306,0.333333333333334),
(0.333333333333334,0.285756721776306,0.285756721776306,0.333333333333334),
(1.,0.857270165328917,0.857270165328917,1.),(0.333333333333334,0.285756721776306,
0.285756721776306,0.333333333333334),(0.333333333333334,0.285756721776306,
0.285756721776306,0.333333333333334),(1.,0.857270165328917,0.857270165328917,
1.)))
REPRESENTATION_ITEM('')
SURFACE()
);
#151=FACE_BOUND('',#171,.T.);
#152=FACE_BOUND('',#172,.T.);
#153=FACE_BOUND('',#173,.T.);
#154=FACE_BOUND('',#174,.T.);
#155=FACE_BOUND('',#175,.T.);
#156=FACE_BOUND('',#176,.T.);
#157=FACE_BOUND('',#177,.T.);
#158=FACE_BOUND('',#178,.T.);
#159=FACE_BOUND('',#179,.T.);
#160=FACE_BOUND('',#180,.T.);
#161=FACE_BOUND('',#181,.T.);
#162=FACE_BOUND('',#182,.T.);
#163=FACE_BOUND('',#183,.T.);
#164=FACE_BOUND('',#184,.T.);
#165=FACE_BOUND('',#187,.T.);
#166=FACE_BOUND('',#188,.T.);
#167=FACE_BOUND('',#189,.T.);
#168=FACE_BOUND('',#190,.T.);
#169=FACE_BOUND('',#191,.T.);
#170=FACE_BOUND('',#192,.T.);
#171=EDGE_LOOP('',(#193));
#172=EDGE_LOOP('',(#194));
#173=EDGE_LOOP('',(#195));
#174=EDGE_LOOP('',(#196));
#175=EDGE_LOOP('',(#197));
#176=EDGE_LOOP('',(#198));
#177=EDGE_LOOP('',(#199));
#178=EDGE_LOOP('',(#200));
#179=EDGE_LOOP('',(#201));
#180=EDGE_LOOP('',(#202));
#181=EDGE_LOOP('',(#203));
#182=EDGE_LOOP('',(#204));
#183=EDGE_LOOP('',(#205));
#184=EDGE_LOOP('',(#206));
#185=EDGE_LOOP('',(#207));
#186=EDGE_LOOP('',(#208));
#187=EDGE_LOOP('',(#209));
#188=EDGE_LOOP('',(#210));
#189=EDGE_LOOP('',(#211));
#190=EDGE_LOOP('',(#212));
#191=EDGE_LOOP('',(#213));
#192=EDGE_LOOP('',(#214));
#193=ORIENTED_EDGE('',*,*,#226,.T.);
#194=ORIENTED_EDGE('',*,*,#227,.F.);
#195=ORIENTED_EDGE('',*,*,#227,.T.);
#196=ORIENTED_EDGE('',*,*,#226,.F.);
#197=ORIENTED_EDGE('',*,*,#228,.F.);
#198=ORIENTED_EDGE('',*,*,#229,.T.);
#199=ORIENTED_EDGE('',*,*,#230,.F.);
#200=ORIENTED_EDGE('',*,*,#228,.T.);
#201=ORIENTED_EDGE('',*,*,#231,.F.);
#202=ORIENTED_EDGE('',*,*,#230,.T.);
#203=ORIENTED_EDGE('',*,*,#232,.F.);
#204=ORIENTED_EDGE('',*,*,#231,.T.);
#205=ORIENTED_EDGE('',*,*,#233,.F.);
#206=ORIENTED_EDGE('',*,*,#232,.T.);
#207=ORIENTED_EDGE('',*,*,#233,.T.);
#208=ORIENTED_EDGE('',*,*,#234,.F.);
#209=ORIENTED_EDGE('',*,*,#235,.F.);
#210=ORIENTED_EDGE('',*,*,#234,.T.);
#211=ORIENTED_EDGE('',*,*,#236,.F.);
#212=ORIENTED_EDGE('',*,*,#235,.T.);
#213=ORIENTED_EDGE('',*,*,#229,.F.);
#214=ORIENTED_EDGE('',*,*,#236,.T.);
#215=VERTEX_POINT('',#314);
#216=VERTEX_POINT('',#316);
#217=VERTEX_POINT('',#395);
#218=VERTEX_POINT('',#397);
#219=VERTEX_POINT('',#400);
#220=VERTEX_POINT('',#403);
#221=VERTEX_POINT('',#406);
#222=VERTEX_POINT('',#409);
#223=VERTEX_POINT('',#477);
#224=VERTEX_POINT('',#480);
#225=VERTEX_POINT('',#483);
#226=EDGE_CURVE('',#215,#215,#237,.T.);
#227=EDGE_CURVE('',#216,#216,#238,.T.);
#228=EDGE_CURVE('',#217,#217,#239,.T.);
#229=EDGE_CURVE('',#218,#218,#240,.T.);
#230=EDGE_CURVE('',#219,#219,#241,.T.);
#231=EDGE_CURVE('',#220,#220,#242,.T.);
#232=EDGE_CURVE('',#221,#221,#243,.T.);
#233=EDGE_CURVE('',#222,#222,#244,.T.);
#234=EDGE_CURVE('',#223,#223,#245,.T.);
#235=EDGE_CURVE('',#224,#224,#246,.T.);
#236=EDGE_CURVE('',#225,#225,#247,.T.);
#237=CIRCLE('',#249,5.);
#238=CIRCLE('',#250,5.);
#239=CIRCLE('',#251,10.);
#240=CIRCLE('',#252,10.);
#241=CIRCLE('',#254,9.75);
#242=CIRCLE('',#256,8.5);
#243=CIRCLE('',#258,8.50000000001905);
#244=CIRCLE('',#260,2.57745151745445);
#245=CIRCLE('',#262,8.75);
#246=CIRCLE('',#264,9.75);
#247=CIRCLE('',#266,9.75);
#248=AXIS2_PLACEMENT_3D('',#312,#269,#270);
#249=AXIS2_PLACEMENT_3D('',#313,#271,#272);
#250=AXIS2_PLACEMENT_3D('',#315,#273,#274);
#251=AXIS2_PLACEMENT_3D('',#394,#275,#276);
#252=AXIS2_PLACEMENT_3D('',#396,#277,#278);
#253=AXIS2_PLACEMENT_3D('',#398,#279,#280);
#254=AXIS2_PLACEMENT_3D('',#399,#281,#282);
#255=AXIS2_PLACEMENT_3D('',#401,#283,#284);
#256=AXIS2_PLACEMENT_3D('',#402,#285,#286);
#257=AXIS2_PLACEMENT_3D('',#404,#287,#288);
#258=AXIS2_PLACEMENT_3D('',#405,#289,#290);
#259=AXIS2_PLACEMENT_3D('',#407,#291,#292);
#260=AXIS2_PLACEMENT_3D('',#408,#293,#294);
#261=AXIS2_PLACEMENT_3D('',#475,#296,#297);
#262=AXIS2_PLACEMENT_3D('',#476,#298,#299);
#263=AXIS2_PLACEMENT_3D('',#478,#300,#301);
#264=AXIS2_PLACEMENT_3D('',#479,#302,#303);
#265=AXIS2_PLACEMENT_3D('',#481,#304,#305);
#266=AXIS2_PLACEMENT_3D('',#482,#306,#307);
#267=AXIS2_PLACEMENT_3D('',#484,#308,#309);
#268=AXIS2_PLACEMENT_3D('',#485,#310,#311);
#269=DIRECTION('',(0.,0.,1.));
#270=DIRECTION('',(1.,0.,0.));
#271=DIRECTION('',(0.,0.971924214226959,0.235294117647059));
#272=DIRECTION('',(1.,0.,0.));
#273=DIRECTION('',(0.,0.,1.));
#274=DIRECTION('',(1.,0.,0.));
#275=DIRECTION('',(-1.,0.,0.));
#276=DIRECTION('',(0.,0.,1.));
#277=DIRECTION('',(-1.,0.,0.));
#278=DIRECTION('',(0.,0.,1.));
#279=DIRECTION('',(-1.,0.,0.));
#280=DIRECTION('',(0.,0.,1.));
#281=DIRECTION('',(-1.,0.,0.));
#282=DIRECTION('',(0.,0.,1.));
#283=DIRECTION('',(1.,0.,0.));
#284=DIRECTION('',(5.4961535872534E-17,0.,-1.));
#285=DIRECTION('',(-1.,0.,0.));
#286=DIRECTION('',(0.,0.,1.));
#287=DIRECTION('',(1.,0.,0.));
#288=DIRECTION('',(-6.7373558610511E-16,0.,-1.));
#289=DIRECTION('',(-1.,0.,0.));
#290=DIRECTION('',(0.,0.,1.));
#291=DIRECTION('',(-1.,0.,0.));
#292=DIRECTION('',(0.,0.,1.));
#293=DIRECTION('',(-1.,0.,0.));
#294=DIRECTION('',(0.,0.,1.));
#295=DIRECTION('',(-1.,0.,0.));
#296=DIRECTION('',(1.,0.,0.));
#297=DIRECTION('',(0.,0.,-1.));
#298=DIRECTION('',(-1.,0.,0.));
#299=DIRECTION('',(0.,0.,1.));
#300=DIRECTION('',(-1.,0.,0.));
#301=DIRECTION('',(0.,0.,1.));
#302=DIRECTION('',(-1.,0.,0.));
#303=DIRECTION('',(0.,0.,1.));
#304=DIRECTION('',(-1.,0.,0.));
#305=DIRECTION('',(0.,0.,1.));
#306=DIRECTION('',(-1.,0.,0.));
#307=DIRECTION('',(0.,0.,1.));
#308=DIRECTION('',(-1.,0.,0.));
#309=DIRECTION('',(0.,0.,1.));
#310=DIRECTION('',(-1.,0.,0.));
#311=DIRECTION('',(1.49161790512469E-16,0.,1.));
#312=CARTESIAN_POINT('',(0.,0.,0.));
#313=CARTESIAN_POINT('',(5.,0.695072739042154,5.62887839067247));
#314=CARTESIAN_POINT('',(10.,0.695072739042154,5.62887839067247));
#315=CARTESIAN_POINT('',(5.,-5.30729668,2.));
#316=CARTESIAN_POINT('',(10.,-5.30729668,2.));
#317=CARTESIAN_POINT('',(10.,-5.30729668,2.));
#318=CARTESIAN_POINT('',(10.,-7.5920729471999,-4.06299274872641));
#319=CARTESIAN_POINT('',(10.,-2.61031225818843,-8.2057145713557));
#320=CARTESIAN_POINT('',(10.,2.93433842866813,-4.85356117047889));
#321=CARTESIAN_POINT('',(10.,8.47898911552471,-1.5014077696021));
#322=CARTESIAN_POINT('',(10.,7.12543661802356,4.8348355416019));
#323=CARTESIAN_POINT('',(10.,0.695072739042154,5.62887839067247));
#324=CARTESIAN_POINT('',(10.,4.69270332,2.));
#325=CARTESIAN_POINT('',(10.,2.4079270528001,7.36088858727307));
#326=CARTESIAN_POINT('',(10.,-3.40544264365685,6.9558431470683));
#327=CARTESIAN_POINT('',(10.,-4.92471405126562,1.32990825352953));
#328=CARTESIAN_POINT('',(10.,-6.44398545887439,-4.29602664000925));
#329=CARTESIAN_POINT('',(10.,-1.62476909641918,-7.57237867972639));
#330=CARTESIAN_POINT('',(10.,3.04801391551274,-4.09036375159713));
#331=CARTESIAN_POINT('',(-5.10076676829453E-16,4.69270332,2.));
#332=CARTESIAN_POINT('',(-5.10076676829453E-16,2.4079270528001,7.36088858727307));
#333=CARTESIAN_POINT('',(-5.10076676829453E-16,-3.40544264365685,6.9558431470683));
#334=CARTESIAN_POINT('',(-5.10076676829453E-16,-4.92471405126562,1.32990825352953));
#335=CARTESIAN_POINT('',(-5.10076676829453E-16,-6.44398545887439,-4.29602664000925));
#336=CARTESIAN_POINT('',(-5.10076676829453E-16,-1.62476909641918,-7.57237867972639));
#337=CARTESIAN_POINT('',(-5.10076676829453E-16,3.04801391551274,-4.09036375159713));
#338=CARTESIAN_POINT('',(-1.7347234759768E-15,-5.30729668,2.));
#339=CARTESIAN_POINT('',(-1.73472347597681E-15,-7.5920729471999,-4.0629927487264));
#340=CARTESIAN_POINT('',(-1.73472347597681E-15,-2.61031225818843,-8.2057145713557));
#341=CARTESIAN_POINT('',(-1.7347234759768E-15,2.93433842866813,-4.85356117047889));
#342=CARTESIAN_POINT('',(-1.73472347597681E-15,8.47898911552471,-1.5014077696021));
#343=CARTESIAN_POINT('',(-1.73472347597681E-15,7.12543661802356,4.8348355416019));
#344=CARTESIAN_POINT('',(-1.7347234759768E-15,0.695072739042154,5.62887839067247));
#345=CARTESIAN_POINT('',(-2.95937027512416E-15,-15.30729668,2.));
#346=CARTESIAN_POINT('',(-2.95937027512416E-15,-17.5920729471999,-15.4868740847259));
#347=CARTESIAN_POINT('',(-2.95937027512416E-15,-1.81518187272,-23.3672722897797));
#348=CARTESIAN_POINT('',(-2.95937027512416E-15,10.7933909086019,-11.0370305944873));
#349=CARTESIAN_POINT('',(-2.95937027512416E-15,23.4019636899238,1.29321110080506));
#350=CARTESIAN_POINT('',(-2.95937027512416E-15,15.8756423324663,17.2420497629302));
#351=CARTESIAN_POINT('',(-2.95937027512416E-15,-1.65786843742843,15.3481205329421));
#352=CARTESIAN_POINT('',(10.,-15.30729668,2.));
#353=CARTESIAN_POINT('',(10.,-17.5920729471999,-15.4868740847259));
#354=CARTESIAN_POINT('',(10.,-1.81518187272,-23.3672722897797));
#355=CARTESIAN_POINT('',(10.,10.7933909086019,-11.0370305944873));
#356=CARTESIAN_POINT('',(10.,23.4019636899238,1.29321110080506));
#357=CARTESIAN_POINT('',(10.,15.8756423324663,17.2420497629302));
#358=CARTESIAN_POINT('',(10.,-1.65786843742843,15.3481205329421));
#359=CARTESIAN_POINT('',(10.,-5.30729668,2.));
#360=CARTESIAN_POINT('',(10.,-7.5920729471999,-4.06299274872641));
#361=CARTESIAN_POINT('',(10.,-2.61031225818843,-8.2057145713557));
#362=CARTESIAN_POINT('',(10.,2.93433842866813,-4.85356117047889));
#363=CARTESIAN_POINT('',(10.,8.47898911552471,-1.5014077696021));
#364=CARTESIAN_POINT('',(10.,7.12543661802356,4.8348355416019));
#365=CARTESIAN_POINT('',(10.,0.695072739042154,5.62887839067247));
#366=CARTESIAN_POINT('',(10.,0.695072739042154,5.62887839067247));
#367=CARTESIAN_POINT('',(10.,-2.01165837310619,5.96311460566854));
#368=CARTESIAN_POINT('',(10.,-4.34556650063297,4.55209369400524));
#369=CARTESIAN_POINT('',(10.,-5.30729668,2.));
#370=CARTESIAN_POINT('',(10.,3.04801391551274,-4.09036375159713));
#371=CARTESIAN_POINT('',(10.,5.01492704776271,-2.62468026675748));
#372=CARTESIAN_POINT('',(10.,5.65443349936703,-0.256557202829949));
#373=CARTESIAN_POINT('',(10.,4.69270332,2.));
#374=CARTESIAN_POINT('',(-5.10076676829453E-16,3.04801391551274,-4.09036375159713));
#375=CARTESIAN_POINT('',(-5.10076676829453E-16,5.01492704776271,-2.62468026675748));
#376=CARTESIAN_POINT('',(-5.10076676829453E-16,5.65443349936703,-0.256557202829949));
#377=CARTESIAN_POINT('',(-5.10076676829453E-16,4.69270332,2.));
#378=CARTESIAN_POINT('',(-1.7347234759768E-15,0.695072739042154,5.62887839067247));
#379=CARTESIAN_POINT('',(-1.73472347597681E-15,-2.01165837310619,5.96311460566854));
#380=CARTESIAN_POINT('',(-1.73472347597681E-15,-4.34556650063296,4.55209369400524));
#381=CARTESIAN_POINT('',(-1.7347234759768E-15,-5.30729668,2.));
#382=CARTESIAN_POINT('',(-2.95937027512416E-15,-1.65786843742843,15.3481205329421));
#383=CARTESIAN_POINT('',(-2.95937027512416E-15,-9.03824379397507,14.5509094780946));
#384=CARTESIAN_POINT('',(-2.95937027512416E-15,-14.3455665006329,9.36074459084043));
#385=CARTESIAN_POINT('',(-2.95937027512416E-15,-15.30729668,2.));
#386=CARTESIAN_POINT('',(10.,-1.65786843742843,15.3481205329421));
#387=CARTESIAN_POINT('',(10.,-9.03824379397507,14.5509094780946));
#388=CARTESIAN_POINT('',(10.,-14.3455665006329,9.36074459084043));
#389=CARTESIAN_POINT('',(10.,-15.30729668,2.));
#390=CARTESIAN_POINT('',(10.,0.695072739042154,5.62887839067247));
#391=CARTESIAN_POINT('',(10.,-2.01165837310619,5.96311460566854));
#392=CARTESIAN_POINT('',(10.,-4.34556650063297,4.55209369400524));
#393=CARTESIAN_POINT('',(10.,-5.30729668,2.));
#394=CARTESIAN_POINT('',(70.,0.,0.));
#395=CARTESIAN_POINT('',(70.,0.,10.));
#396=CARTESIAN_POINT('',(154.582179545095,0.,0.));
#397=CARTESIAN_POINT('',(154.582179545095,0.,10.));
#398=CARTESIAN_POINT('',(0.,0.,0.));
#399=CARTESIAN_POINT('',(69.75,0.,0.));
#400=CARTESIAN_POINT('',(69.75,0.,9.75));
#401=CARTESIAN_POINT('',(70.,0.,0.));
#402=CARTESIAN_POINT('',(30.,0.,0.));
#403=CARTESIAN_POINT('',(30.,0.,8.5));
#404=CARTESIAN_POINT('',(69.75,0.,0.));
#405=CARTESIAN_POINT('',(7.59063941789862,0.,0.));
#406=CARTESIAN_POINT('',(7.59063941789862,0.,8.50000000001905));
#407=CARTESIAN_POINT('',(0.,0.,0.));
#408=CARTESIAN_POINT('',(2.3,0.,0.));
#409=CARTESIAN_POINT('',(2.3,0.,2.57745151745445));
#410=CARTESIAN_POINT('',(4.47782717480147,1.72581159822014,0.));
#411=CARTESIAN_POINT('',(5.26108641259927,1.72581159822014,0.));
#412=CARTESIAN_POINT('',(5.52161999854796,1.74393847618017,0.));
#413=CARTESIAN_POINT('',(6.03710943032009,1.81972322780358,0.));
#414=CARTESIAN_POINT('',(6.29387056848826,1.87815768877527,0.));
#415=CARTESIAN_POINT('',(6.78716060232951,2.04021338112288,0.));
#416=CARTESIAN_POINT('',(7.0258132115757,2.14423168804505,0.));
#417=CARTESIAN_POINT('',(7.48066063079902,2.40477693927072,0.));
#418=CARTESIAN_POINT('',(7.69001901527733,2.55724268839505,0.));
#419=CARTESIAN_POINT('',(8.07244238587834,2.90676036853705,0.));
#420=CARTESIAN_POINT('',(8.24678341652759,3.10637617286036,0.));
#421=CARTESIAN_POINT('',(8.54238748680703,3.53170626717902,0.));
#422=CARTESIAN_POINT('',(8.66597192047363,3.75873320239926,0.));
#423=CARTESIAN_POINT('',(8.86516077090828,4.24124090765175,0.));
#424=CARTESIAN_POINT('',(8.93855278543969,4.49271426049648,0.));
#425=CARTESIAN_POINT('',(9.03194560431233,5.00079849057883,0.));
#426=CARTESIAN_POINT('',(9.05276653852249,5.26176377842204,0.));
#427=CARTESIAN_POINT('',(9.04116942441537,5.78361593160565,0.));
#428=CARTESIAN_POINT('',(9.00931388606522,6.04019837168964,0.));
#429=CARTESIAN_POINT('',(8.89570271629571,6.54504502560064,0.));
#430=CARTESIAN_POINT('',(8.81251241071952,6.79580255181287,0.));
#431=CARTESIAN_POINT('',(8.6016483465902,7.26978992819531,0.));
#432=CARTESIAN_POINT('',(8.47420742695294,7.49452858196808,0.));
#433=CARTESIAN_POINT('',(8.17549882703624,7.91960218176841,0.));
#434=CARTESIAN_POINT('',(8.00357701597908,8.11957578905282,0.));
#435=CARTESIAN_POINT('',(7.63033275381305,8.47758818298539,0.));
#436=CARTESIAN_POINT('',(7.42744774136002,8.63814406111083,0.));
#437=CARTESIAN_POINT('',(6.98826493195512,8.9213488491352,0.));
#438=CARTESIAN_POINT('',(6.75628584689079,9.0408585943064,0.));
#439=CARTESIAN_POINT('',(6.27659379203716,9.23305283719872,0.));
#440=CARTESIAN_POINT('',(6.02584337570186,9.30687892645989,0.));
#441=CARTESIAN_POINT('',(5.51306075952328,9.40536896952201,0.));
#442=CARTESIAN_POINT('',(5.25550531034224,9.42954346286926,0.));
#443=CARTESIAN_POINT('',(4.73813060719263,9.42913995544543,0.));
#444=CARTESIAN_POINT('',(4.47553993982035,9.4038200387535,0.));
#445=CARTESIAN_POINT('',(3.96577394949085,9.30460299558029,0.));
#446=CARTESIAN_POINT('',(3.7179485818622,9.23133191902274,0.));
#447=CARTESIAN_POINT('',(3.23641564769474,9.03745611977087,0.));
#448=CARTESIAN_POINT('',(3.00217300475312,8.91581991353322,0.));
#449=CARTESIAN_POINT('',(2.56776636711044,8.63439940993783,0.));
#450=CARTESIAN_POINT('',(2.36491389715327,8.4737836261898,0.));
#451=CARTESIAN_POINT('',(1.9888100332258,8.11149350045811,0.));
#452=CARTESIAN_POINT('',(1.81904043848921,7.91266973574803,0.));
#453=CARTESIAN_POINT('',(1.52252155596236,7.48901039360571,0.));
#454=CARTESIAN_POINT('',(1.3936432309815,7.261014633805,0.));
#455=CARTESIAN_POINT('',(1.18289883294008,6.78359802528896,0.));
#456=CARTESIAN_POINT('',(1.10210434217276,6.53770515495041,0.));
#457=CARTESIAN_POINT('',(0.989321358621865,6.03165242428281,0.));
#458=CARTESIAN_POINT('',(0.957679647794661,5.76924893894867,0.));
#459=CARTESIAN_POINT('',(0.947861569368629,5.25072510000235,0.));
#460=CARTESIAN_POINT('',(0.968781375445435,4.9925025453378,0.));
#461=CARTESIAN_POINT('',(1.0649412134904,4.47824330729148,0.));
#462=CARTESIAN_POINT('',(1.13935651958142,4.22813633307501,0.));
#463=CARTESIAN_POINT('',(1.33864776243121,3.74980655988029,0.));
#464=CARTESIAN_POINT('',(1.46582562310915,3.51783206179537,0.));
#465=CARTESIAN_POINT('',(1.76395728361491,3.0931141822243,0.));
#466=CARTESIAN_POINT('',(1.93474533314096,2.89895828036441,0.));
#467=CARTESIAN_POINT('',(2.32121587740595,2.54826764594521,0.));
#468=CARTESIAN_POINT('',(2.53426240747542,2.39508089480732,0.));
#469=CARTESIAN_POINT('',(2.98426807977742,2.13967047287675,0.));
#470=CARTESIAN_POINT('',(3.22599676493519,2.03497079413274,0.));
#471=CARTESIAN_POINT('',(3.96751265889,1.79420697690698,0.));
#472=CARTESIAN_POINT('',(4.47782717480147,1.72581159822014,0.));
#473=CARTESIAN_POINT('',(5.26108641259927,1.72581159822014,0.));
#474=CARTESIAN_POINT('',(0.,0.,0.));
#475=CARTESIAN_POINT('',(2.3,2.57745151745445,0.));
#476=CARTESIAN_POINT('',(160.,0.,0.));
#477=CARTESIAN_POINT('',(160.,0.,8.75));
#478=CARTESIAN_POINT('',(160.,0.,0.));
#479=CARTESIAN_POINT('',(159.,0.,0.));
#480=CARTESIAN_POINT('',(159.,0.,9.75));
#481=CARTESIAN_POINT('',(159.,0.,0.));
#482=CARTESIAN_POINT('',(156.,0.,0.));
#483=CARTESIAN_POINT('',(156.,0.,9.75));
#484=CARTESIAN_POINT('',(0.,0.,0.));
#485=CARTESIAN_POINT('',(156.,0.,0.));
#486=(
GEOMETRIC_REPRESENTATION_CONTEXT(3)
GLOBAL_UNCERTAINTY_ASSIGNED_CONTEXT((#487))
GLOBAL_UNIT_ASSIGNED_CONTEXT((#493,#489,#488))
REPRESENTATION_CONTEXT('model1','TOP_LEVEL_ASSEMBLY_PART')
);
#487=UNCERTAINTY_MEASURE_WITH_UNIT(LENGTH_MEASURE(2.E-5),#493,
'DISTANCE_ACCURACY_VALUE','Maximum Tolerance applied to model');
#488=(
NAMED_UNIT(*)
SI_UNIT($,.STERADIAN.)
SOLID_ANGLE_UNIT()
);
#489=(
CONVERSION_BASED_UNIT('DEGREE',#491)
NAMED_UNIT(#490)
PLANE_ANGLE_UNIT()
);
#490=DIMENSIONAL_EXPONENTS(0.,0.,0.,0.,0.,0.,0.);
#491=PLANE_ANGLE_MEASURE_WITH_UNIT(PLANE_ANGLE_MEASURE(0.0174532925),#492);
#492=(
NAMED_UNIT(*)
PLANE_ANGLE_UNIT()
SI_UNIT($,.RADIAN.)
);
#493=(
LENGTH_UNIT()
NAMED_UNIT(*)
SI_UNIT(.MILLI.,.METRE.)
);
ENDSEC;
END-ISO-10303-21;
