ISO-10303-21;
HEADER;
/* Generated by software containing ST-Developer
 * from STEP Tools, Inc. (www.steptools.com) 
 */
/* OPTION: using custom schema-name function */

FILE_DESCRIPTION(
/* description */ (''),
/* implementation_level */ '2;1');

FILE_NAME(
/* name */ 'model1.stp',
/* time_stamp */ '2023-11-06T17:04:55+03:00',
/* author */ (''),
/* organization */ (''),
/* preprocessor_version */ 'ST-DEVELOPER v19.4',
/* originating_system */ 'SIEMENS PLM Software NX2306.3001',
/* authorisation */ '');

FILE_SCHEMA (('AUTOMOTIVE_DESIGN { 1 0 10303 214 3 1 1 1 }'));
ENDSEC;

DATA;
#10=PROPERTY_DEFINITION_REPRESENTATION(#14,#12);
#11=PROPERTY_DEFINITION_REPRESENTATION(#15,#13);
#12=REPRESENTATION('',(#16),#486);
#13=REPRESENTATION('',(#17),#486);
#14=PROPERTY_DEFINITION('pmi validation property','',#21);
#15=PROPERTY_DEFINITION('pmi validation property','',#21);
#16=VALUE_REPRESENTATION_ITEM('number of annotations',COUNT_MEASURE(0.));
#17=VALUE_REPRESENTATION_ITEM('number of views',COUNT_MEASURE(0.));
#18=SHAPE_REPRESENTATION_RELATIONSHIP('None',
'relationship between model1_objects-None and model1_objects-None',#30,
#19);
#19=ADVANCED_BREP_SHAPE_REPRESENTATION('model1_objects-None',(#133,#134),
#486);
#20=SHAPE_DEFINITION_REPRESENTATION(#21,#30);
#21=PRODUCT_DEFINITION_SHAPE('','',#22);
#22=PRODUCT_DEFINITION(' ','',#24,#23);
#23=PRODUCT_DEFINITION_CONTEXT('part definition',#29,'design');
#24=PRODUCT_DEFINITION_FORMATION_WITH_SPECIFIED_SOURCE(' ',' ',#26,
 .NOT_KNOWN.);
#25=PRODUCT_RELATED_PRODUCT_CATEGORY('part','',(#26));
#26=PRODUCT('model1_objects','model1_objects',' ',(#27));
#27=PRODUCT_CONTEXT(' ',#29,'mechanical');
#28=APPLICATION_PROTOCOL_DEFINITION('international standard',
'automotive_design',2010,#29);
#29=APPLICATION_CONTEXT(
'core data for automotive mechanical design processes');
#30=SHAPE_REPRESENTATION('model1_objects-None',(#248),#486);
#31=OVER_RIDING_STYLED_ITEM('',(#62),#139,#59);
#32=OVER_RIDING_STYLED_ITEM('',(#63),#140,#59);
#33=OVER_RIDING_STYLED_ITEM('',(#64),#141,#59);
#34=OVER_RIDING_STYLED_ITEM('',(#65),#142,#59);
#35=OVER_RIDING_STYLED_ITEM('',(#66),#143,#59);
#36=OVER_RIDING_STYLED_ITEM('',(#67),#144,#59);
#37=OVER_RIDING_STYLED_ITEM('',(#68),#145,#59);
#38=OVER_RIDING_STYLED_ITEM('',(#69),#146,#59);
#39=OVER_RIDING_STYLED_ITEM('',(#70),#147,#59);
#40=OVER_RIDING_STYLED_ITEM('',(#71),#148,#59);
#41=COLOUR_RGB('Medium Steel',0.611764705882353,0.658823529411765,0.670588235294118);
#42=COLOUR_RGB('silver gray',0.6,0.6,0.6);
#43=TOROIDAL_SURFACE('',#265,11.25,1.);
#44=PLANE('',#261);
#45=PLANE('',#263);
#46=FACE_OUTER_BOUND('',#185,.T.);
#47=FACE_OUTER_BOUND('',#186,.T.);
#48=SURFACE_OF_REVOLUTION('',#50,#49);
#49=AXIS1_PLACEMENT('',#474,#295);
#50=B_SPLINE_CURVE_WITH_KNOTS('',3,(#410,#411,#412,#413,#414,#415,#416,
#417,#418,#419,#420,#421,#422,#423,#424,#425,#426,#427,#428,#429,#430,#431,
#432,#433,#434,#435,#436,#437,#438,#439,#440,#441,#442,#443,#444,#445,#446,
#447,#448,#449,#450,#451,#452,#453,#454,#455,#456,#457,#458,#459,#460,#461,
#462,#463,#464,#465,#466,#467,#468,#469,#470,#471,#472,#473),
 .UNSPECIFIED.,.T.,.F.,(2,2,2,2,2,2,2,2,2,2,2,2,2,2,2,2,2,2,2,2,2,2,2,2,
2,2,2,2,2,2,2,2,2,2),(-0.03125,0.,0.03125,0.0625,0.09375,0.125,0.15625,
0.1875,0.25,0.28125,0.3125,0.34375,0.375,0.40625,0.4375,0.46875,0.5,0.53125,
0.5625,0.59375,0.625,0.65625,0.6875,0.71875,0.75,0.78125,0.8125,0.84375,
0.875,0.90625,0.9375,0.96875,1.,1.03125),.UNSPECIFIED.);
#51=CONICAL_SURFACE('',#255,12.5,45.0000000000006);
#52=CONICAL_SURFACE('',#257,12.25,1.80116051572237);
#53=CONICAL_SURFACE('',#268,12.25,10.);
#54=CYLINDRICAL_SURFACE('',#253,12.5);
#55=CYLINDRICAL_SURFACE('',#259,11.0000000000007);
#56=CYLINDRICAL_SURFACE('',#267,12.25);
#57=PRESENTATION_LAYER_ASSIGNMENT('1','Layer 1',(#133,#134));
#58=STYLED_ITEM('',(#60),#133);
#59=STYLED_ITEM('',(#61),#134);
#60=PRESENTATION_STYLE_ASSIGNMENT((#72));
#61=PRESENTATION_STYLE_ASSIGNMENT((#73));
#62=PRESENTATION_STYLE_ASSIGNMENT((#74));
#63=PRESENTATION_STYLE_ASSIGNMENT((#75));
#64=PRESENTATION_STYLE_ASSIGNMENT((#76));
#65=PRESENTATION_STYLE_ASSIGNMENT((#77));
#66=PRESENTATION_STYLE_ASSIGNMENT((#78));
#67=PRESENTATION_STYLE_ASSIGNMENT((#79));
#68=PRESENTATION_STYLE_ASSIGNMENT((#80));
#69=PRESENTATION_STYLE_ASSIGNMENT((#81));
#70=PRESENTATION_STYLE_ASSIGNMENT((#82));
#71=PRESENTATION_STYLE_ASSIGNMENT((#83));
#72=SURFACE_STYLE_USAGE(.BOTH.,#84);
#73=SURFACE_STYLE_USAGE(.BOTH.,#85);
#74=SURFACE_STYLE_USAGE(.BOTH.,#86);
#75=SURFACE_STYLE_USAGE(.BOTH.,#87);
#76=SURFACE_STYLE_USAGE(.BOTH.,#88);
#77=SURFACE_STYLE_USAGE(.BOTH.,#89);
#78=SURFACE_STYLE_USAGE(.BOTH.,#90);
#79=SURFACE_STYLE_USAGE(.BOTH.,#91);
#80=SURFACE_STYLE_USAGE(.BOTH.,#92);
#81=SURFACE_STYLE_USAGE(.BOTH.,#93);
#82=SURFACE_STYLE_USAGE(.BOTH.,#94);
#83=SURFACE_STYLE_USAGE(.BOTH.,#95);
#84=SURFACE_SIDE_STYLE('',(#96));
#85=SURFACE_SIDE_STYLE('',(#97));
#86=SURFACE_SIDE_STYLE('',(#98));
#87=SURFACE_SIDE_STYLE('',(#99));
#88=SURFACE_SIDE_STYLE('',(#100));
#89=SURFACE_SIDE_STYLE('',(#101));
#90=SURFACE_SIDE_STYLE('',(#102));
#91=SURFACE_SIDE_STYLE('',(#103));
#92=SURFACE_SIDE_STYLE('',(#104));
#93=SURFACE_SIDE_STYLE('',(#105));
#94=SURFACE_SIDE_STYLE('',(#106));
#95=SURFACE_SIDE_STYLE('',(#107));
#96=SURFACE_STYLE_FILL_AREA(#108);
#97=SURFACE_STYLE_FILL_AREA(#109);
#98=SURFACE_STYLE_FILL_AREA(#110);
#99=SURFACE_STYLE_FILL_AREA(#111);
#100=SURFACE_STYLE_FILL_AREA(#112);
#101=SURFACE_STYLE_FILL_AREA(#113);
#102=SURFACE_STYLE_FILL_AREA(#114);
#103=SURFACE_STYLE_FILL_AREA(#115);
#104=SURFACE_STYLE_FILL_AREA(#116);
#105=SURFACE_STYLE_FILL_AREA(#117);
#106=SURFACE_STYLE_FILL_AREA(#118);
#107=SURFACE_STYLE_FILL_AREA(#119);
#108=FILL_AREA_STYLE('',(#120));
#109=FILL_AREA_STYLE('',(#121));
#110=FILL_AREA_STYLE('',(#122));
#111=FILL_AREA_STYLE('',(#123));
#112=FILL_AREA_STYLE('',(#124));
#113=FILL_AREA_STYLE('',(#125));
#114=FILL_AREA_STYLE('',(#126));
#115=FILL_AREA_STYLE('',(#127));
#116=FILL_AREA_STYLE('',(#128));
#117=FILL_AREA_STYLE('',(#129));
#118=FILL_AREA_STYLE('',(#130));
#119=FILL_AREA_STYLE('',(#131));
#120=FILL_AREA_STYLE_COLOUR('',#132);
#121=FILL_AREA_STYLE_COLOUR('',#41);
#122=FILL_AREA_STYLE_COLOUR('',#42);
#123=FILL_AREA_STYLE_COLOUR('',#42);
#124=FILL_AREA_STYLE_COLOUR('',#42);
#125=FILL_AREA_STYLE_COLOUR('',#42);
#126=FILL_AREA_STYLE_COLOUR('',#42);
#127=FILL_AREA_STYLE_COLOUR('',#42);
#128=FILL_AREA_STYLE_COLOUR('',#42);
#129=FILL_AREA_STYLE_COLOUR('',#42);
#130=FILL_AREA_STYLE_COLOUR('',#42);
#131=FILL_AREA_STYLE_COLOUR('',#42);
#132=DRAUGHTING_PRE_DEFINED_COLOUR('yellow');
#133=MANIFOLD_SOLID_BREP('',#135);
#134=MANIFOLD_SOLID_BREP('',#136);
#135=CLOSED_SHELL('',(#137,#138));
#136=CLOSED_SHELL('',(#139,#140,#141,#142,#143,#144,#145,#146,#147,#148));
#137=ADVANCED_FACE('',(#151,#152),#149,.F.);
#138=ADVANCED_FACE('',(#153,#154),#150,.F.);
#139=ADVANCED_FACE('',(#155,#156),#54,.T.);
#140=ADVANCED_FACE('',(#157,#158),#51,.T.);
#141=ADVANCED_FACE('',(#159,#160),#52,.T.);
#142=ADVANCED_FACE('',(#161,#162),#55,.T.);
#143=ADVANCED_FACE('',(#163,#164),#48,.T.);
#144=ADVANCED_FACE('',(#46),#44,.F.);
#145=ADVANCED_FACE('',(#47),#45,.F.);
#146=ADVANCED_FACE('',(#165,#166),#43,.T.);
#147=ADVANCED_FACE('',(#167,#168),#56,.T.);
#148=ADVANCED_FACE('',(#169,#170),#53,.T.);
#149=(
BOUNDED_SURFACE()
B_SPLINE_SURFACE(3,3,((#317,#318,#319,#320,#321,#322,#323),(#324,#325,#326,
#327,#328,#329,#330),(#331,#332,#333,#334,#335,#336,#337),(#338,#339,#340,
#341,#342,#343,#344),(#345,#346,#347,#348,#349,#350,#351),(#352,#353,#354,
#355,#356,#357,#358),(#359,#360,#361,#362,#363,#364,#365)),
 .UNSPECIFIED.,.T.,.F.,.F.)
B_SPLINE_SURFACE_WITH_KNOTS((1,3,3,3,1),(4,3,4),(-0.5,0.,0.5,1.,1.5),(0.,
0.5,1.),.UNSPECIFIED.)
GEOMETRIC_REPRESENTATION_ITEM()
RATIONAL_B_SPLINE_SURFACE(((1.,0.560046017492626,0.560046017492626,1.,0.560046017492626,
0.560046017492626,1.),(0.333333333333334,0.186682005830875,0.186682005830875,
0.333333333333334,0.186682005830875,0.186682005830875,0.333333333333334),
(0.333333333333334,0.186682005830875,0.186682005830875,0.333333333333334,
0.186682005830875,0.186682005830875,0.333333333333334),(1.,0.560046017492626,
0.560046017492626,1.,0.560046017492626,0.560046017492626,1.),(0.333333333333334,
0.186682005830875,0.186682005830875,0.333333333333334,0.186682005830875,
0.186682005830875,0.333333333333334),(0.333333333333334,0.186682005830875,
0.186682005830875,0.333333333333334,0.186682005830875,0.186682005830875,
0.333333333333334),(1.,0.560046017492626,0.560046017492626,1.,0.560046017492626,
0.560046017492626,1.)))
REPRESENTATION_ITEM('')
SURFACE()
);
#150=(
BOUNDED_SURFACE()
B_SPLINE_SURFACE(3,3,((#366,#367,#368,#369),(#370,#371,#372,#373),(#374,
#375,#376,#377),(#378,#379,#380,#381),(#382,#383,#384,#385),(#386,#387,
#388,#389),(#390,#391,#392,#393)),.UNSPECIFIED.,.T.,.F.,.F.)
B_SPLINE_SURFACE_WITH_KNOTS((1,3,3,3,1),(4,4),(-0.5,0.,0.5,1.,1.5),(0.,
1.),.UNSPECIFIED.)
GEOMETRIC_REPRESENTATION_ITEM()
RATIONAL_B_SPLINE_SURFACE(((1.,0.845804076523867,0.845804076523867,1.),
(0.333333333333334,0.281934692174622,0.281934692174622,0.333333333333334),
(0.333333333333334,0.281934692174622,0.281934692174622,0.333333333333334),
(1.,0.845804076523867,0.845804076523867,1.),(0.333333333333334,0.281934692174622,
0.281934692174622,0.333333333333334),(0.333333333333334,0.281934692174622,
0.281934692174622,0.333333333333334),(1.,0.845804076523867,0.845804076523867,
1.)))
REPRESENTATION_ITEM('')
SURFACE()
);
#151=FACE_BOUND('',#171,.T.);
#152=FACE_BOUND('',#172,.T.);
#153=FACE_BOUND('',#173,.T.);
#154=FACE_BOUND('',#174,.T.);
#155=FACE_BOUND('',#175,.T.);
#156=FACE_BOUND('',#176,.T.);
#157=FACE_BOUND('',#177,.T.);
#158=FACE_BOUND('',#178,.T.);
#159=FACE_BOUND('',#179,.T.);
#160=FACE_BOUND('',#180,.T.);
#161=FACE_BOUND('',#181,.T.);
#162=FACE_BOUND('',#182,.T.);
#163=FACE_BOUND('',#183,.T.);
#164=FACE_BOUND('',#184,.T.);
#165=FACE_BOUND('',#187,.T.);
#166=FACE_BOUND('',#188,.T.);
#167=FACE_BOUND('',#189,.T.);
#168=FACE_BOUND('',#190,.T.);
#169=FACE_BOUND('',#191,.T.);
#170=FACE_BOUND('',#192,.T.);
#171=EDGE_LOOP('',(#193));
#172=EDGE_LOOP('',(#194));
#173=EDGE_LOOP('',(#195));
#174=EDGE_LOOP('',(#196));
#175=EDGE_LOOP('',(#197));
#176=EDGE_LOOP('',(#198));
#177=EDGE_LOOP('',(#199));
#178=EDGE_LOOP('',(#200));
#179=EDGE_LOOP('',(#201));
#180=EDGE_LOOP('',(#202));
#181=EDGE_LOOP('',(#203));
#182=EDGE_LOOP('',(#204));
#183=EDGE_LOOP('',(#205));
#184=EDGE_LOOP('',(#206));
#185=EDGE_LOOP('',(#207));
#186=EDGE_LOOP('',(#208));
#187=EDGE_LOOP('',(#209));
#188=EDGE_LOOP('',(#210));
#189=EDGE_LOOP('',(#211));
#190=EDGE_LOOP('',(#212));
#191=EDGE_LOOP('',(#213));
#192=EDGE_LOOP('',(#214));
#193=ORIENTED_EDGE('',*,*,#226,.T.);
#194=ORIENTED_EDGE('',*,*,#227,.F.);
#195=ORIENTED_EDGE('',*,*,#227,.T.);
#196=ORIENTED_EDGE('',*,*,#226,.F.);
#197=ORIENTED_EDGE('',*,*,#228,.F.);
#198=ORIENTED_EDGE('',*,*,#229,.T.);
#199=ORIENTED_EDGE('',*,*,#230,.F.);
#200=ORIENTED_EDGE('',*,*,#228,.T.);
#201=ORIENTED_EDGE('',*,*,#231,.F.);
#202=ORIENTED_EDGE('',*,*,#230,.T.);
#203=ORIENTED_EDGE('',*,*,#232,.F.);
#204=ORIENTED_EDGE('',*,*,#231,.T.);
#205=ORIENTED_EDGE('',*,*,#233,.F.);
#206=ORIENTED_EDGE('',*,*,#232,.T.);
#207=ORIENTED_EDGE('',*,*,#233,.T.);
#208=ORIENTED_EDGE('',*,*,#234,.F.);
#209=ORIENTED_EDGE('',*,*,#235,.F.);
#210=ORIENTED_EDGE('',*,*,#234,.T.);
#211=ORIENTED_EDGE('',*,*,#236,.F.);
#212=ORIENTED_EDGE('',*,*,#235,.T.);
#213=ORIENTED_EDGE('',*,*,#229,.F.);
#214=ORIENTED_EDGE('',*,*,#236,.T.);
#215=VERTEX_POINT('',#314);
#216=VERTEX_POINT('',#316);
#217=VERTEX_POINT('',#395);
#218=VERTEX_POINT('',#397);
#219=VERTEX_POINT('',#400);
#220=VERTEX_POINT('',#403);
#221=VERTEX_POINT('',#406);
#222=VERTEX_POINT('',#409);
#223=VERTEX_POINT('',#477);
#224=VERTEX_POINT('',#480);
#225=VERTEX_POINT('',#483);
#226=EDGE_CURVE('',#215,#215,#237,.T.);
#227=EDGE_CURVE('',#216,#216,#238,.T.);
#228=EDGE_CURVE('',#217,#217,#239,.T.);
#229=EDGE_CURVE('',#218,#218,#240,.T.);
#230=EDGE_CURVE('',#219,#219,#241,.T.);
#231=EDGE_CURVE('',#220,#220,#242,.T.);
#232=EDGE_CURVE('',#221,#221,#243,.T.);
#233=EDGE_CURVE('',#222,#222,#244,.T.);
#234=EDGE_CURVE('',#223,#223,#245,.T.);
#235=EDGE_CURVE('',#224,#224,#246,.T.);
#236=EDGE_CURVE('',#225,#225,#247,.T.);
#237=CIRCLE('',#249,5.);
#238=CIRCLE('',#250,5.);
#239=CIRCLE('',#251,12.5);
#240=CIRCLE('',#252,12.5);
#241=CIRCLE('',#254,12.25);
#242=CIRCLE('',#256,11.);
#243=CIRCLE('',#258,11.0000000000014);
#244=CIRCLE('',#260,4.48362221418355);
#245=CIRCLE('',#262,11.25);
#246=CIRCLE('',#264,12.25);
#247=CIRCLE('',#266,12.25);
#248=AXIS2_PLACEMENT_3D('',#312,#269,#270);
#249=AXIS2_PLACEMENT_3D('',#313,#271,#272);
#250=AXIS2_PLACEMENT_3D('',#315,#273,#274);
#251=AXIS2_PLACEMENT_3D('',#394,#275,#276);
#252=AXIS2_PLACEMENT_3D('',#396,#277,#278);
#253=AXIS2_PLACEMENT_3D('',#398,#279,#280);
#254=AXIS2_PLACEMENT_3D('',#399,#281,#282);
#255=AXIS2_PLACEMENT_3D('',#401,#283,#284);
#256=AXIS2_PLACEMENT_3D('',#402,#285,#286);
#257=AXIS2_PLACEMENT_3D('',#404,#287,#288);
#258=AXIS2_PLACEMENT_3D('',#405,#289,#290);
#259=AXIS2_PLACEMENT_3D('',#407,#291,#292);
#260=AXIS2_PLACEMENT_3D('',#408,#293,#294);
#261=AXIS2_PLACEMENT_3D('',#475,#296,#297);
#262=AXIS2_PLACEMENT_3D('',#476,#298,#299);
#263=AXIS2_PLACEMENT_3D('',#478,#300,#301);
#264=AXIS2_PLACEMENT_3D('',#479,#302,#303);
#265=AXIS2_PLACEMENT_3D('',#481,#304,#305);
#266=AXIS2_PLACEMENT_3D('',#482,#306,#307);
#267=AXIS2_PLACEMENT_3D('',#484,#308,#309);
#268=AXIS2_PLACEMENT_3D('',#485,#310,#311);
#269=DIRECTION('',(0.,0.,1.));
#270=DIRECTION('',(1.,0.,0.));
#271=DIRECTION('',(0.,0.983332166035638,0.181818181818158));
#272=DIRECTION('',(1.,0.,0.));
#273=DIRECTION('',(0.,0.,1.));
#274=DIRECTION('',(1.,0.,0.));
#275=DIRECTION('',(-1.,0.,0.));
#276=DIRECTION('',(0.,0.,1.));
#277=DIRECTION('',(-1.,0.,0.));
#278=DIRECTION('',(0.,0.,1.));
#279=DIRECTION('',(-1.,0.,0.));
#280=DIRECTION('',(0.,0.,1.));
#281=DIRECTION('',(-1.,0.,0.));
#282=DIRECTION('',(0.,0.,1.));
#283=DIRECTION('',(1.,0.,0.));
#284=DIRECTION('',(5.48258283765498E-17,0.,-1.));
#285=DIRECTION('',(-1.,0.,0.));
#286=DIRECTION('',(0.,0.,1.));
#287=DIRECTION('',(1.,0.,0.));
#288=DIRECTION('',(-6.35189309184267E-16,0.,-1.));
#289=DIRECTION('',(-1.,0.,0.));
#290=DIRECTION('',(0.,0.,1.));
#291=DIRECTION('',(-1.,0.,0.));
#292=DIRECTION('',(0.,0.,1.));
#293=DIRECTION('',(-1.,0.,0.));
#294=DIRECTION('',(0.,0.,1.));
#295=DIRECTION('',(-1.,0.,0.));
#296=DIRECTION('',(1.,0.,0.));
#297=DIRECTION('',(0.,0.,-1.));
#298=DIRECTION('',(-1.,0.,0.));
#299=DIRECTION('',(0.,0.,1.));
#300=DIRECTION('',(-1.,0.,0.));
#301=DIRECTION('',(0.,0.,1.));
#302=DIRECTION('',(-1.,0.,0.));
#303=DIRECTION('',(0.,0.,1.));
#304=DIRECTION('',(-1.,0.,0.));
#305=DIRECTION('',(0.,0.,1.));
#306=DIRECTION('',(-1.,0.,0.));
#307=DIRECTION('',(0.,0.,1.));
#308=DIRECTION('',(-1.,0.,0.));
#309=DIRECTION('',(0.,0.,1.));
#310=DIRECTION('',(-1.,0.,0.));
#311=DIRECTION('',(1.4718432499743E-16,0.,1.));
#312=CARTESIAN_POINT('',(0.,0.,0.));
#313=CARTESIAN_POINT('',(5.,0.54031328116237,8.07780913993336));
#314=CARTESIAN_POINT('',(10.,0.54031328116237,8.07780913993336));
#315=CARTESIAN_POINT('',(5.,-7.84493078,2.));
#316=CARTESIAN_POINT('',(10.,-7.84493078,2.));
#317=CARTESIAN_POINT('',(10.,-7.84493078,2.));
#318=CARTESIAN_POINT('',(10.,-10.083795558395,-6.78186960614459));
#319=CARTESIAN_POINT('',(10.,-2.58668975572202,-11.8737409575036));
#320=CARTESIAN_POINT('',(10.,4.75124196252365,-6.55504681574021));
#321=CARTESIAN_POINT('',(10.,12.0891736807693,-1.23635267397683));
#322=CARTESIAN_POINT('',(10.,9.58287446615957,7.47296495268662));
#323=CARTESIAN_POINT('',(10.,0.540313281162371,8.07780913993336));
#324=CARTESIAN_POINT('',(10.,2.15506922,2.));
#325=CARTESIAN_POINT('',(10.,-0.0837955583950444,4.41245428583064));
#326=CARTESIAN_POINT('',(10.,-3.11383728492238,3.12742575981895));
#327=CARTESIAN_POINT('',(10.,-2.93581918533435,-0.159025325071798));
#328=CARTESIAN_POINT('',(10.,-2.75780108574631,-3.44547640996255));
#329=CARTESIAN_POINT('',(10.,0.393317524340647,-4.39568832439226));
#330=CARTESIAN_POINT('',(10.,2.35849509934395,-1.75551252042302));
#331=CARTESIAN_POINT('',(-5.10076676829453E-16,2.15506922,2.));
#332=CARTESIAN_POINT('',(-5.10076676829453E-16,-0.0837955583950444,4.41245428583064));
#333=CARTESIAN_POINT('',(-5.10076676829453E-16,-3.11383728492238,3.12742575981895));
#334=CARTESIAN_POINT('',(-5.10076676829453E-16,-2.93581918533435,-0.159025325071798));
#335=CARTESIAN_POINT('',(-5.10076676829453E-16,-2.75780108574631,-3.44547640996255));
#336=CARTESIAN_POINT('',(-5.10076676829453E-16,0.393317524340647,-4.39568832439226));
#337=CARTESIAN_POINT('',(-5.10076676829453E-16,2.35849509934395,-1.75551252042302));
#338=CARTESIAN_POINT('',(-1.7347234759768E-15,-7.84493078,2.));
#339=CARTESIAN_POINT('',(-1.73472347597681E-15,-10.083795558395,-6.78186960614459));
#340=CARTESIAN_POINT('',(-1.73472347597681E-15,-2.58668975572202,-11.8737409575036));
#341=CARTESIAN_POINT('',(-1.7347234759768E-15,4.75124196252365,-6.55504681574021));
#342=CARTESIAN_POINT('',(-1.73472347597681E-15,12.0891736807693,-1.23635267397683));
#343=CARTESIAN_POINT('',(-1.73472347597681E-15,9.58287446615957,7.47296495268662));
#344=CARTESIAN_POINT('',(-1.7347234759768E-15,0.540313281162371,8.07780913993336));
#345=CARTESIAN_POINT('',(-2.95937027512416E-15,-17.84493078,2.));
#346=CARTESIAN_POINT('',(-2.95937027512416E-15,-20.083795558395,-17.9761934981198));
#347=CARTESIAN_POINT('',(-2.95937027512416E-15,-2.05954222652166,-26.8749076748261));
#348=CARTESIAN_POINT('',(-2.95937027512416E-15,12.4383031103816,-12.9510683064086));
#349=CARTESIAN_POINT('',(-2.95937027512416E-15,26.936148447285,0.972771062008901));
#350=CARTESIAN_POINT('',(-2.95937027512416E-15,18.7724314079785,19.3416182297655));
#351=CARTESIAN_POINT('',(-2.95937027512416E-15,-1.27786853701921,17.9111308002897));
#352=CARTESIAN_POINT('',(10.,-17.84493078,2.));
#353=CARTESIAN_POINT('',(10.,-20.083795558395,-17.9761934981198));
#354=CARTESIAN_POINT('',(10.,-2.05954222652166,-26.8749076748261));
#355=CARTESIAN_POINT('',(10.,12.4383031103816,-12.9510683064086));
#356=CARTESIAN_POINT('',(10.,26.936148447285,0.972771062008901));
#357=CARTESIAN_POINT('',(10.,18.7724314079785,19.3416182297655));
#358=CARTESIAN_POINT('',(10.,-1.27786853701921,17.9111308002897));
#359=CARTESIAN_POINT('',(10.,-7.84493078,2.));
#360=CARTESIAN_POINT('',(10.,-10.083795558395,-6.78186960614459));
#361=CARTESIAN_POINT('',(10.,-2.58668975572202,-11.8737409575036));
#362=CARTESIAN_POINT('',(10.,4.75124196252365,-6.55504681574021));
#363=CARTESIAN_POINT('',(10.,12.0891736807693,-1.23635267397683));
#364=CARTESIAN_POINT('',(10.,9.58287446615957,7.47296495268662));
#365=CARTESIAN_POINT('',(10.,0.540313281162371,8.07780913993336));
#366=CARTESIAN_POINT('',(10.,0.54031328116237,8.07780913993336));
#367=CARTESIAN_POINT('',(10.,-3.53201207885643,8.35020125011023));
#368=CARTESIAN_POINT('',(10.,-6.83665606355816,5.95492267885518));
#369=CARTESIAN_POINT('',(10.,-7.84493078,2.));
#370=CARTESIAN_POINT('',(10.,2.35849509934395,-1.75551252042302));
#371=CARTESIAN_POINT('',(10.,3.24351454371377,-0.566507031662772));
#372=CARTESIAN_POINT('',(10.,3.16334393644184,0.91354909664598));
#373=CARTESIAN_POINT('',(10.,2.15506922,2.));
#374=CARTESIAN_POINT('',(-5.10076676829453E-16,2.35849509934395,-1.75551252042302));
#375=CARTESIAN_POINT('',(-5.10076676829454E-16,3.24351454371377,-0.566507031662772));
#376=CARTESIAN_POINT('',(-5.10076676829454E-16,3.16334393644184,0.91354909664598));
#377=CARTESIAN_POINT('',(-5.10076676829453E-16,2.15506922,2.));
#378=CARTESIAN_POINT('',(-1.7347234759768E-15,0.54031328116237,8.07780913993336));
#379=CARTESIAN_POINT('',(-1.73472347597681E-15,-3.53201207885643,8.35020125011023));
#380=CARTESIAN_POINT('',(-1.73472347597681E-15,-6.83665606355816,5.95492267885518));
#381=CARTESIAN_POINT('',(-1.7347234759768E-15,-7.84493078,2.));
#382=CARTESIAN_POINT('',(-2.95937027512416E-15,-1.27786853701921,17.9111308002897));
#383=CARTESIAN_POINT('',(-2.95937027512416E-15,-10.3075387014266,17.2669095318833));
#384=CARTESIAN_POINT('',(-2.95937027512416E-15,-16.8366560635582,10.9962962610644));
#385=CARTESIAN_POINT('',(-2.95937027512416E-15,-17.84493078,2.));
#386=CARTESIAN_POINT('',(10.,-1.27786853701921,17.9111308002897));
#387=CARTESIAN_POINT('',(10.,-10.3075387014266,17.2669095318833));
#388=CARTESIAN_POINT('',(10.,-16.8366560635582,10.9962962610644));
#389=CARTESIAN_POINT('',(10.,-17.84493078,2.));
#390=CARTESIAN_POINT('',(10.,0.54031328116237,8.07780913993336));
#391=CARTESIAN_POINT('',(10.,-3.53201207885643,8.35020125011023));
#392=CARTESIAN_POINT('',(10.,-6.83665606355816,5.95492267885518));
#393=CARTESIAN_POINT('',(10.,-7.84493078,2.));
#394=CARTESIAN_POINT('',(70.,0.,0.));
#395=CARTESIAN_POINT('',(70.,0.,12.5));
#396=CARTESIAN_POINT('',(154.582179545095,0.,0.));
#397=CARTESIAN_POINT('',(154.582179545095,0.,12.5));
#398=CARTESIAN_POINT('',(0.,0.,0.));
#399=CARTESIAN_POINT('',(69.75,0.,0.));
#400=CARTESIAN_POINT('',(69.75,0.,12.25));
#401=CARTESIAN_POINT('',(70.,0.,0.));
#402=CARTESIAN_POINT('',(30.,0.,0.));
#403=CARTESIAN_POINT('',(30.,0.,11.));
#404=CARTESIAN_POINT('',(69.75,0.,0.));
#405=CARTESIAN_POINT('',(7.6130553341704,0.,0.));
#406=CARTESIAN_POINT('',(7.6130553341704,0.,11.0000000000014));
#407=CARTESIAN_POINT('',(0.,0.,0.));
#408=CARTESIAN_POINT('',(3.,0.,0.));
#409=CARTESIAN_POINT('',(3.,0.,4.48362221418355));
#410=CARTESIAN_POINT('',(4.73456239022682,3.97613869922676,0.));
#411=CARTESIAN_POINT('',(5.26543760977319,3.97613869922676,0.));
#412=CARTESIAN_POINT('',(5.52839041451363,4.00081959252291,0.));
#413=CARTESIAN_POINT('',(6.04905835634388,4.09976561019719,0.));
#414=CARTESIAN_POINT('',(6.3027457082784,4.17351208281452,0.));
#415=CARTESIAN_POINT('',(6.7898255092011,4.36700286760863,0.));
#416=CARTESIAN_POINT('',(7.02646113036709,4.48836365252438,0.));
#417=CARTESIAN_POINT('',(7.47001020985095,4.77483052076097,0.));
#418=CARTESIAN_POINT('',(7.67499906411395,4.93805267801129,0.));
#419=CARTESIAN_POINT('',(8.05136853726202,5.30451833764963,0.));
#420=CARTESIAN_POINT('',(8.22349227080323,5.50971984339298,0.));
#421=CARTESIAN_POINT('',(8.51834367653642,5.9436970827963,0.));
#422=CARTESIAN_POINT('',(8.64323480585574,6.17405013764357,0.));
#423=CARTESIAN_POINT('',(8.94874707559041,6.90612624342703,0.));
#424=CARTESIAN_POINT('',(9.05116847738106,7.42937302748056,0.));
#425=CARTESIAN_POINT('',(9.04618066765013,8.22242946827483,0.));
#426=CARTESIAN_POINT('',(9.01832875481233,8.48291932446625,0.));
#427=CARTESIAN_POINT('',(8.91184653536961,8.99641044997611,0.));
#428=CARTESIAN_POINT('',(8.83182707017645,9.25186527969251,0.));
#429=CARTESIAN_POINT('',(8.62604744712316,9.73527986609659,0.));
#430=CARTESIAN_POINT('',(8.50047121948137,9.96498402708408,0.));
#431=CARTESIAN_POINT('',(8.20379571666991,10.4003066073749,0.));
#432=CARTESIAN_POINT('',(8.03251184669499,10.6049324955745,0.));
#433=CARTESIAN_POINT('',(7.6588850290201,10.9720434079027,0.));
#434=CARTESIAN_POINT('',(7.45497694658008,11.1370620637716,0.));
#435=CARTESIAN_POINT('',(7.01172627394307,11.4286755711641,0.));
#436=CARTESIAN_POINT('',(6.77878284811546,11.5509368212098,0.));
#437=CARTESIAN_POINT('',(6.29395500569351,11.7488107689776,0.));
#438=CARTESIAN_POINT('',(6.03898115893268,11.8251514022801,0.));
#439=CARTESIAN_POINT('',(5.52115494525296,11.9263437229936,0.));
#440=CARTESIAN_POINT('',(5.26046990433959,11.9513742376478,0.));
#441=CARTESIAN_POINT('',(4.7356126167759,11.9511215065884,0.));
#442=CARTESIAN_POINT('',(4.46920779508577,11.9250043470995,0.));
#443=CARTESIAN_POINT('',(3.95416402730576,11.8232502416752,0.));
#444=CARTESIAN_POINT('',(3.70331410513401,11.7480259749298,0.));
#445=CARTESIAN_POINT('',(3.21516433926654,11.5481307157602,0.));
#446=CARTESIAN_POINT('',(2.9797917360961,11.4235904342442,0.));
#447=CARTESIAN_POINT('',(2.54267808531191,11.1350117606683,0.));
#448=CARTESIAN_POINT('',(2.33793951003822,10.9695886821976,0.));
#449=CARTESIAN_POINT('',(1.96020925879569,10.5970965293669,0.));
#450=CARTESIAN_POINT('',(1.79246108845247,10.3953669038486,0.));
#451=CARTESIAN_POINT('',(1.49783720339561,9.9619388118796,0.));
#452=CARTESIAN_POINT('',(1.36995159560293,9.72742335371378,0.));
#453=CARTESIAN_POINT('',(1.16485823237036,9.24248009768928,0.));
#454=CARTESIAN_POINT('',(1.08698612382647,8.99241016269424,0.));
#455=CARTESIAN_POINT('',(0.980790654559265,8.47701221324524,0.));
#456=CARTESIAN_POINT('',(0.953154690547684,8.21108519551419,0.));
#457=CARTESIAN_POINT('',(0.951065066351635,7.68683122288969,0.));
#458=CARTESIAN_POINT('',(0.975793747421836,7.4256092002838,0.));
#459=CARTESIAN_POINT('',(1.07907604099195,6.90505506611841,0.));
#460=CARTESIAN_POINT('',(1.15620948615032,6.65348005210391,0.));
#461=CARTESIAN_POINT('',(1.35880366956292,6.17034178651789,0.));
#462=CARTESIAN_POINT('',(1.48623954234048,5.93575163287319,0.));
#463=CARTESIAN_POINT('',(1.78341550866962,5.50079965353498,0.));
#464=CARTESIAN_POINT('',(1.95205524198408,5.3007187797791,0.));
#465=CARTESIAN_POINT('',(2.3288189504012,4.93481005045861,0.));
#466=CARTESIAN_POINT('',(2.53871884787857,4.76851619540528,0.));
#467=CARTESIAN_POINT('',(2.9796499615364,4.48511662504933,0.));
#468=CARTESIAN_POINT('',(3.21254098369464,4.36576142282439,0.));
#469=CARTESIAN_POINT('',(3.70304950268692,4.1715163764022,0.));
#470=CARTESIAN_POINT('',(3.95871890316425,4.09798550814643,0.));
#471=CARTESIAN_POINT('',(4.47326968215616,4.00081184404002,0.));
#472=CARTESIAN_POINT('',(4.73456239022682,3.97613869922676,0.));
#473=CARTESIAN_POINT('',(5.26543760977319,3.97613869922676,0.));
#474=CARTESIAN_POINT('',(0.,0.,0.));
#475=CARTESIAN_POINT('',(3.,0.,0.));
#476=CARTESIAN_POINT('',(160.,0.,0.));
#477=CARTESIAN_POINT('',(160.,0.,11.25));
#478=CARTESIAN_POINT('',(160.,0.,0.));
#479=CARTESIAN_POINT('',(159.,0.,0.));
#480=CARTESIAN_POINT('',(159.,0.,12.25));
#481=CARTESIAN_POINT('',(159.,0.,0.));
#482=CARTESIAN_POINT('',(156.,0.,0.));
#483=CARTESIAN_POINT('',(156.,0.,12.25));
#484=CARTESIAN_POINT('',(0.,0.,0.));
#485=CARTESIAN_POINT('',(156.,0.,0.));
#486=(
GEOMETRIC_REPRESENTATION_CONTEXT(3)
GLOBAL_UNCERTAINTY_ASSIGNED_CONTEXT((#487))
GLOBAL_UNIT_ASSIGNED_CONTEXT((#493,#489,#488))
REPRESENTATION_CONTEXT('model1','TOP_LEVEL_ASSEMBLY_PART')
);
#487=UNCERTAINTY_MEASURE_WITH_UNIT(LENGTH_MEASURE(2.E-5),#493,
'DISTANCE_ACCURACY_VALUE','Maximum Tolerance applied to model');
#488=(
NAMED_UNIT(*)
SI_UNIT($,.STERADIAN.)
SOLID_ANGLE_UNIT()
);
#489=(
CONVERSION_BASED_UNIT('DEGREE',#491)
NAMED_UNIT(#490)
PLANE_ANGLE_UNIT()
);
#490=DIMENSIONAL_EXPONENTS(0.,0.,0.,0.,0.,0.,0.);
#491=PLANE_ANGLE_MEASURE_WITH_UNIT(PLANE_ANGLE_MEASURE(0.0174532925),#492);
#492=(
NAMED_UNIT(*)
PLANE_ANGLE_UNIT()
SI_UNIT($,.RADIAN.)
);
#493=(
LENGTH_UNIT()
NAMED_UNIT(*)
SI_UNIT(.MILLI.,.METRE.)
);
ENDSEC;
END-ISO-10303-21;
