ISO-10303-21;
HEADER;
/* Generated by software containing ST-Developer
 * from STEP Tools, Inc. (www.steptools.com) 
 */
/* OPTION: using custom schema-name function */

FILE_DESCRIPTION(
/* description */ (''),
/* implementation_level */ '2;1');

FILE_NAME(
/* name */ 'model1.stp',
/* time_stamp */ '2023-11-06T16:41:59+03:00',
/* author */ (''),
/* organization */ (''),
/* preprocessor_version */ 'ST-DEVELOPER v19.4',
/* originating_system */ 'SIEMENS PLM Software NX2306.3001',
/* authorisation */ '');

FILE_SCHEMA (('AUTOMOTIVE_DESIGN { 1 0 10303 214 3 1 1 1 }'));
ENDSEC;

DATA;
#10=PROPERTY_DEFINITION_REPRESENTATION(#14,#12);
#11=PROPERTY_DEFINITION_REPRESENTATION(#15,#13);
#12=REPRESENTATION('',(#16),#488);
#13=REPRESENTATION('',(#17),#488);
#14=PROPERTY_DEFINITION('pmi validation property','',#21);
#15=PROPERTY_DEFINITION('pmi validation property','',#21);
#16=VALUE_REPRESENTATION_ITEM('number of annotations',COUNT_MEASURE(0.));
#17=VALUE_REPRESENTATION_ITEM('number of views',COUNT_MEASURE(0.));
#18=SHAPE_REPRESENTATION_RELATIONSHIP('None',
'relationship between model1_objects-None and model1_objects-None',#30,
#19);
#19=ADVANCED_BREP_SHAPE_REPRESENTATION('model1_objects-None',(#133,#134),
#488);
#20=SHAPE_DEFINITION_REPRESENTATION(#21,#30);
#21=PRODUCT_DEFINITION_SHAPE('','',#22);
#22=PRODUCT_DEFINITION(' ','',#24,#23);
#23=PRODUCT_DEFINITION_CONTEXT('part definition',#29,'design');
#24=PRODUCT_DEFINITION_FORMATION_WITH_SPECIFIED_SOURCE(' ',' ',#26,
 .NOT_KNOWN.);
#25=PRODUCT_RELATED_PRODUCT_CATEGORY('part','',(#26));
#26=PRODUCT('model1_objects','model1_objects',' ',(#27));
#27=PRODUCT_CONTEXT(' ',#29,'mechanical');
#28=APPLICATION_PROTOCOL_DEFINITION('international standard',
'automotive_design',2010,#29);
#29=APPLICATION_CONTEXT(
'core data for automotive mechanical design processes');
#30=SHAPE_REPRESENTATION('model1_objects-None',(#248),#488);
#31=OVER_RIDING_STYLED_ITEM('',(#62),#139,#59);
#32=OVER_RIDING_STYLED_ITEM('',(#63),#140,#59);
#33=OVER_RIDING_STYLED_ITEM('',(#64),#141,#59);
#34=OVER_RIDING_STYLED_ITEM('',(#65),#142,#59);
#35=OVER_RIDING_STYLED_ITEM('',(#66),#143,#59);
#36=OVER_RIDING_STYLED_ITEM('',(#67),#144,#59);
#37=OVER_RIDING_STYLED_ITEM('',(#68),#145,#59);
#38=OVER_RIDING_STYLED_ITEM('',(#69),#146,#59);
#39=OVER_RIDING_STYLED_ITEM('',(#70),#147,#59);
#40=OVER_RIDING_STYLED_ITEM('',(#71),#148,#59);
#41=COLOUR_RGB('Medium Steel',0.611764705882353,0.658823529411765,0.670588235294118);
#42=COLOUR_RGB('silver gray',0.6,0.6,0.6);
#43=TOROIDAL_SURFACE('',#265,14.75,1.);
#44=PLANE('',#261);
#45=PLANE('',#263);
#46=FACE_OUTER_BOUND('',#185,.T.);
#47=FACE_OUTER_BOUND('',#186,.T.);
#48=SURFACE_OF_REVOLUTION('',#50,#49);
#49=AXIS1_PLACEMENT('',#476,#295);
#50=B_SPLINE_CURVE_WITH_KNOTS('',3,(#410,#411,#412,#413,#414,#415,#416,
#417,#418,#419,#420,#421,#422,#423,#424,#425,#426,#427,#428,#429,#430,#431,
#432,#433,#434,#435,#436,#437,#438,#439,#440,#441,#442,#443,#444,#445,#446,
#447,#448,#449,#450,#451,#452,#453,#454,#455,#456,#457,#458,#459,#460,#461,
#462,#463,#464,#465,#466,#467,#468,#469,#470,#471,#472,#473,#474,#475),
 .UNSPECIFIED.,.T.,.F.,(2,2,2,2,2,2,2,2,2,2,2,2,2,2,2,2,2,2,2,2,2,2,2,2,
2,2,2,2,2,2,2,2,2,2,2),(-0.03125,0.,0.03125,0.0625,0.09375,0.125,0.15625,
0.1875,0.21875,0.25,0.28125,0.3125,0.34375,0.375,0.40625,0.4375,0.46875,
0.5,0.53125,0.5625,0.59375,0.625,0.65625,0.6875,0.71875,0.75,0.78125,0.8125,
0.84375,0.875,0.90625,0.9375,0.96875,1.,1.03125),.UNSPECIFIED.);
#51=CONICAL_SURFACE('',#255,16.,44.9999999999988);
#52=CONICAL_SURFACE('',#257,15.75,0.837248244347848);
#53=CONICAL_SURFACE('',#268,15.75,9.99999999999993);
#54=CYLINDRICAL_SURFACE('',#253,16.);
#55=CYLINDRICAL_SURFACE('',#259,14.0000000000008);
#56=CYLINDRICAL_SURFACE('',#267,15.75);
#57=PRESENTATION_LAYER_ASSIGNMENT('1','Layer 1',(#133,#134));
#58=STYLED_ITEM('',(#60),#133);
#59=STYLED_ITEM('',(#61),#134);
#60=PRESENTATION_STYLE_ASSIGNMENT((#72));
#61=PRESENTATION_STYLE_ASSIGNMENT((#73));
#62=PRESENTATION_STYLE_ASSIGNMENT((#74));
#63=PRESENTATION_STYLE_ASSIGNMENT((#75));
#64=PRESENTATION_STYLE_ASSIGNMENT((#76));
#65=PRESENTATION_STYLE_ASSIGNMENT((#77));
#66=PRESENTATION_STYLE_ASSIGNMENT((#78));
#67=PRESENTATION_STYLE_ASSIGNMENT((#79));
#68=PRESENTATION_STYLE_ASSIGNMENT((#80));
#69=PRESENTATION_STYLE_ASSIGNMENT((#81));
#70=PRESENTATION_STYLE_ASSIGNMENT((#82));
#71=PRESENTATION_STYLE_ASSIGNMENT((#83));
#72=SURFACE_STYLE_USAGE(.BOTH.,#84);
#73=SURFACE_STYLE_USAGE(.BOTH.,#85);
#74=SURFACE_STYLE_USAGE(.BOTH.,#86);
#75=SURFACE_STYLE_USAGE(.BOTH.,#87);
#76=SURFACE_STYLE_USAGE(.BOTH.,#88);
#77=SURFACE_STYLE_USAGE(.BOTH.,#89);
#78=SURFACE_STYLE_USAGE(.BOTH.,#90);
#79=SURFACE_STYLE_USAGE(.BOTH.,#91);
#80=SURFACE_STYLE_USAGE(.BOTH.,#92);
#81=SURFACE_STYLE_USAGE(.BOTH.,#93);
#82=SURFACE_STYLE_USAGE(.BOTH.,#94);
#83=SURFACE_STYLE_USAGE(.BOTH.,#95);
#84=SURFACE_SIDE_STYLE('',(#96));
#85=SURFACE_SIDE_STYLE('',(#97));
#86=SURFACE_SIDE_STYLE('',(#98));
#87=SURFACE_SIDE_STYLE('',(#99));
#88=SURFACE_SIDE_STYLE('',(#100));
#89=SURFACE_SIDE_STYLE('',(#101));
#90=SURFACE_SIDE_STYLE('',(#102));
#91=SURFACE_SIDE_STYLE('',(#103));
#92=SURFACE_SIDE_STYLE('',(#104));
#93=SURFACE_SIDE_STYLE('',(#105));
#94=SURFACE_SIDE_STYLE('',(#106));
#95=SURFACE_SIDE_STYLE('',(#107));
#96=SURFACE_STYLE_FILL_AREA(#108);
#97=SURFACE_STYLE_FILL_AREA(#109);
#98=SURFACE_STYLE_FILL_AREA(#110);
#99=SURFACE_STYLE_FILL_AREA(#111);
#100=SURFACE_STYLE_FILL_AREA(#112);
#101=SURFACE_STYLE_FILL_AREA(#113);
#102=SURFACE_STYLE_FILL_AREA(#114);
#103=SURFACE_STYLE_FILL_AREA(#115);
#104=SURFACE_STYLE_FILL_AREA(#116);
#105=SURFACE_STYLE_FILL_AREA(#117);
#106=SURFACE_STYLE_FILL_AREA(#118);
#107=SURFACE_STYLE_FILL_AREA(#119);
#108=FILL_AREA_STYLE('',(#120));
#109=FILL_AREA_STYLE('',(#121));
#110=FILL_AREA_STYLE('',(#122));
#111=FILL_AREA_STYLE('',(#123));
#112=FILL_AREA_STYLE('',(#124));
#113=FILL_AREA_STYLE('',(#125));
#114=FILL_AREA_STYLE('',(#126));
#115=FILL_AREA_STYLE('',(#127));
#116=FILL_AREA_STYLE('',(#128));
#117=FILL_AREA_STYLE('',(#129));
#118=FILL_AREA_STYLE('',(#130));
#119=FILL_AREA_STYLE('',(#131));
#120=FILL_AREA_STYLE_COLOUR('',#132);
#121=FILL_AREA_STYLE_COLOUR('',#41);
#122=FILL_AREA_STYLE_COLOUR('',#42);
#123=FILL_AREA_STYLE_COLOUR('',#42);
#124=FILL_AREA_STYLE_COLOUR('',#42);
#125=FILL_AREA_STYLE_COLOUR('',#42);
#126=FILL_AREA_STYLE_COLOUR('',#42);
#127=FILL_AREA_STYLE_COLOUR('',#42);
#128=FILL_AREA_STYLE_COLOUR('',#42);
#129=FILL_AREA_STYLE_COLOUR('',#42);
#130=FILL_AREA_STYLE_COLOUR('',#42);
#131=FILL_AREA_STYLE_COLOUR('',#42);
#132=DRAUGHTING_PRE_DEFINED_COLOUR('yellow');
#133=MANIFOLD_SOLID_BREP('',#135);
#134=MANIFOLD_SOLID_BREP('',#136);
#135=CLOSED_SHELL('',(#137,#138));
#136=CLOSED_SHELL('',(#139,#140,#141,#142,#143,#144,#145,#146,#147,#148));
#137=ADVANCED_FACE('',(#151,#152),#149,.F.);
#138=ADVANCED_FACE('',(#153,#154),#150,.F.);
#139=ADVANCED_FACE('',(#155,#156),#54,.T.);
#140=ADVANCED_FACE('',(#157,#158),#51,.T.);
#141=ADVANCED_FACE('',(#159,#160),#52,.T.);
#142=ADVANCED_FACE('',(#161,#162),#55,.T.);
#143=ADVANCED_FACE('',(#163,#164),#48,.T.);
#144=ADVANCED_FACE('',(#46),#44,.F.);
#145=ADVANCED_FACE('',(#47),#45,.F.);
#146=ADVANCED_FACE('',(#165,#166),#43,.T.);
#147=ADVANCED_FACE('',(#167,#168),#56,.T.);
#148=ADVANCED_FACE('',(#169,#170),#53,.T.);
#149=(
BOUNDED_SURFACE()
B_SPLINE_SURFACE(3,3,((#317,#318,#319,#320,#321,#322,#323),(#324,#325,#326,
#327,#328,#329,#330),(#331,#332,#333,#334,#335,#336,#337),(#338,#339,#340,
#341,#342,#343,#344),(#345,#346,#347,#348,#349,#350,#351),(#352,#353,#354,
#355,#356,#357,#358),(#359,#360,#361,#362,#363,#364,#365)),
 .UNSPECIFIED.,.T.,.F.,.F.)
B_SPLINE_SURFACE_WITH_KNOTS((1,3,3,3,1),(4,3,4),(-0.5,0.,0.5,1.,1.5),(0.,
0.5,1.),.UNSPECIFIED.)
GEOMETRIC_REPRESENTATION_ITEM()
RATIONAL_B_SPLINE_SURFACE(((1.,0.56622389131261,0.56622389131261,1.,0.56622389131261,
0.56622389131261,1.),(0.333333333333334,0.188741297104204,0.188741297104204,
0.333333333333334,0.188741297104204,0.188741297104204,0.333333333333334),
(0.333333333333334,0.188741297104204,0.188741297104204,0.333333333333334,
0.188741297104204,0.188741297104204,0.333333333333334),(1.,0.56622389131261,
0.56622389131261,1.,0.56622389131261,0.56622389131261,1.),(0.333333333333334,
0.188741297104204,0.188741297104204,0.333333333333334,0.188741297104204,
0.188741297104204,0.333333333333334),(0.333333333333334,0.188741297104204,
0.188741297104204,0.333333333333334,0.188741297104204,0.188741297104204,
0.333333333333334),(1.,0.56622389131261,0.56622389131261,1.,0.56622389131261,
0.56622389131261,1.)))
REPRESENTATION_ITEM('')
SURFACE()
);
#150=(
BOUNDED_SURFACE()
B_SPLINE_SURFACE(3,3,((#366,#367,#368,#369),(#370,#371,#372,#373),(#374,
#375,#376,#377),(#378,#379,#380,#381),(#382,#383,#384,#385),(#386,#387,
#388,#389),(#390,#391,#392,#393)),.UNSPECIFIED.,.T.,.F.,.F.)
B_SPLINE_SURFACE_WITH_KNOTS((1,3,3,3,1),(4,4),(-0.5,0.,0.5,1.,1.5),(0.,
1.),.UNSPECIFIED.)
GEOMETRIC_REPRESENTATION_ITEM()
RATIONAL_B_SPLINE_SURFACE(((1.,0.837285964012303,0.837285964012303,1.),
(0.333333333333334,0.279095321337435,0.279095321337435,0.333333333333334),
(0.333333333333334,0.279095321337435,0.279095321337435,0.333333333333334),
(1.,0.837285964012303,0.837285964012303,1.),(0.333333333333334,0.279095321337435,
0.279095321337435,0.333333333333334),(0.333333333333334,0.279095321337435,
0.279095321337435,0.333333333333334),(1.,0.837285964012303,0.837285964012303,
1.)))
REPRESENTATION_ITEM('')
SURFACE()
);
#151=FACE_BOUND('',#171,.T.);
#152=FACE_BOUND('',#172,.T.);
#153=FACE_BOUND('',#173,.T.);
#154=FACE_BOUND('',#174,.T.);
#155=FACE_BOUND('',#175,.T.);
#156=FACE_BOUND('',#176,.T.);
#157=FACE_BOUND('',#177,.T.);
#158=FACE_BOUND('',#178,.T.);
#159=FACE_BOUND('',#179,.T.);
#160=FACE_BOUND('',#180,.T.);
#161=FACE_BOUND('',#181,.T.);
#162=FACE_BOUND('',#182,.T.);
#163=FACE_BOUND('',#183,.T.);
#164=FACE_BOUND('',#184,.T.);
#165=FACE_BOUND('',#187,.T.);
#166=FACE_BOUND('',#188,.T.);
#167=FACE_BOUND('',#189,.T.);
#168=FACE_BOUND('',#190,.T.);
#169=FACE_BOUND('',#191,.T.);
#170=FACE_BOUND('',#192,.T.);
#171=EDGE_LOOP('',(#193));
#172=EDGE_LOOP('',(#194));
#173=EDGE_LOOP('',(#195));
#174=EDGE_LOOP('',(#196));
#175=EDGE_LOOP('',(#197));
#176=EDGE_LOOP('',(#198));
#177=EDGE_LOOP('',(#199));
#178=EDGE_LOOP('',(#200));
#179=EDGE_LOOP('',(#201));
#180=EDGE_LOOP('',(#202));
#181=EDGE_LOOP('',(#203));
#182=EDGE_LOOP('',(#204));
#183=EDGE_LOOP('',(#205));
#184=EDGE_LOOP('',(#206));
#185=EDGE_LOOP('',(#207));
#186=EDGE_LOOP('',(#208));
#187=EDGE_LOOP('',(#209));
#188=EDGE_LOOP('',(#210));
#189=EDGE_LOOP('',(#211));
#190=EDGE_LOOP('',(#212));
#191=EDGE_LOOP('',(#213));
#192=EDGE_LOOP('',(#214));
#193=ORIENTED_EDGE('',*,*,#226,.T.);
#194=ORIENTED_EDGE('',*,*,#227,.F.);
#195=ORIENTED_EDGE('',*,*,#227,.T.);
#196=ORIENTED_EDGE('',*,*,#226,.F.);
#197=ORIENTED_EDGE('',*,*,#228,.F.);
#198=ORIENTED_EDGE('',*,*,#229,.T.);
#199=ORIENTED_EDGE('',*,*,#230,.F.);
#200=ORIENTED_EDGE('',*,*,#228,.T.);
#201=ORIENTED_EDGE('',*,*,#231,.F.);
#202=ORIENTED_EDGE('',*,*,#230,.T.);
#203=ORIENTED_EDGE('',*,*,#232,.F.);
#204=ORIENTED_EDGE('',*,*,#231,.T.);
#205=ORIENTED_EDGE('',*,*,#233,.F.);
#206=ORIENTED_EDGE('',*,*,#232,.T.);
#207=ORIENTED_EDGE('',*,*,#233,.T.);
#208=ORIENTED_EDGE('',*,*,#234,.F.);
#209=ORIENTED_EDGE('',*,*,#235,.F.);
#210=ORIENTED_EDGE('',*,*,#234,.T.);
#211=ORIENTED_EDGE('',*,*,#236,.F.);
#212=ORIENTED_EDGE('',*,*,#235,.T.);
#213=ORIENTED_EDGE('',*,*,#229,.F.);
#214=ORIENTED_EDGE('',*,*,#236,.T.);
#215=VERTEX_POINT('',#314);
#216=VERTEX_POINT('',#316);
#217=VERTEX_POINT('',#395);
#218=VERTEX_POINT('',#397);
#219=VERTEX_POINT('',#400);
#220=VERTEX_POINT('',#403);
#221=VERTEX_POINT('',#406);
#222=VERTEX_POINT('',#409);
#223=VERTEX_POINT('',#479);
#224=VERTEX_POINT('',#482);
#225=VERTEX_POINT('',#485);
#226=EDGE_CURVE('',#215,#215,#237,.T.);
#227=EDGE_CURVE('',#216,#216,#238,.T.);
#228=EDGE_CURVE('',#217,#217,#239,.T.);
#229=EDGE_CURVE('',#218,#218,#240,.T.);
#230=EDGE_CURVE('',#219,#219,#241,.T.);
#231=EDGE_CURVE('',#220,#220,#242,.T.);
#232=EDGE_CURVE('',#221,#221,#243,.T.);
#233=EDGE_CURVE('',#222,#222,#244,.T.);
#234=EDGE_CURVE('',#223,#223,#245,.T.);
#235=EDGE_CURVE('',#224,#224,#246,.T.);
#236=EDGE_CURVE('',#225,#225,#247,.T.);
#237=CIRCLE('',#249,5.);
#238=CIRCLE('',#250,5.);
#239=CIRCLE('',#251,16.);
#240=CIRCLE('',#252,16.);
#241=CIRCLE('',#254,15.75);
#242=CIRCLE('',#256,14.);
#243=CIRCLE('',#258,14.0000000000016);
#244=CIRCLE('',#260,7.44899292492092);
#245=CIRCLE('',#262,14.75);
#246=CIRCLE('',#264,15.75);
#247=CIRCLE('',#266,15.75);
#248=AXIS2_PLACEMENT_3D('',#312,#269,#270);
#249=AXIS2_PLACEMENT_3D('',#313,#271,#272);
#250=AXIS2_PLACEMENT_3D('',#315,#273,#274);
#251=AXIS2_PLACEMENT_3D('',#394,#275,#276);
#252=AXIS2_PLACEMENT_3D('',#396,#277,#278);
#253=AXIS2_PLACEMENT_3D('',#398,#279,#280);
#254=AXIS2_PLACEMENT_3D('',#399,#281,#282);
#255=AXIS2_PLACEMENT_3D('',#401,#283,#284);
#256=AXIS2_PLACEMENT_3D('',#402,#285,#286);
#257=AXIS2_PLACEMENT_3D('',#404,#287,#288);
#258=AXIS2_PLACEMENT_3D('',#405,#289,#290);
#259=AXIS2_PLACEMENT_3D('',#407,#291,#292);
#260=AXIS2_PLACEMENT_3D('',#408,#293,#294);
#261=AXIS2_PLACEMENT_3D('',#477,#296,#297);
#262=AXIS2_PLACEMENT_3D('',#478,#298,#299);
#263=AXIS2_PLACEMENT_3D('',#480,#300,#301);
#264=AXIS2_PLACEMENT_3D('',#481,#302,#303);
#265=AXIS2_PLACEMENT_3D('',#483,#304,#305);
#266=AXIS2_PLACEMENT_3D('',#484,#306,#307);
#267=AXIS2_PLACEMENT_3D('',#486,#308,#309);
#268=AXIS2_PLACEMENT_3D('',#487,#310,#311);
#269=DIRECTION('',(0.,0.,1.));
#270=DIRECTION('',(1.,0.,0.));
#271=DIRECTION('',(0.,0.989743318610787,0.142857142857143));
#272=DIRECTION('',(1.,0.,0.));
#273=DIRECTION('',(0.,0.,1.));
#274=DIRECTION('',(1.,0.,0.));
#275=DIRECTION('',(-1.,0.,0.));
#276=DIRECTION('',(0.,0.,1.));
#277=DIRECTION('',(-1.,0.,0.));
#278=DIRECTION('',(0.,0.,1.));
#279=DIRECTION('',(-1.,0.,0.));
#280=DIRECTION('',(0.,0.,1.));
#281=DIRECTION('',(-1.,0.,0.));
#282=DIRECTION('',(0.,0.,1.));
#283=DIRECTION('',(1.,0.,0.));
#284=DIRECTION('',(-8.19554398099312E-17,0.,-1.));
#285=DIRECTION('',(-1.,0.,0.));
#286=DIRECTION('',(0.,0.,1.));
#287=DIRECTION('',(1.,0.,0.));
#288=DIRECTION('',(1.82820299704505E-15,0.,-1.));
#289=DIRECTION('',(-1.,0.,0.));
#290=DIRECTION('',(0.,0.,1.));
#291=DIRECTION('',(-1.,0.,0.));
#292=DIRECTION('',(0.,0.,1.));
#293=DIRECTION('',(-1.,0.,0.));
#294=DIRECTION('',(0.,0.,1.));
#295=DIRECTION('',(-1.,0.,0.));
#296=DIRECTION('',(1.,0.,0.));
#297=DIRECTION('',(0.,0.,-1.));
#298=DIRECTION('',(-1.,0.,0.));
#299=DIRECTION('',(0.,0.,1.));
#300=DIRECTION('',(-1.,0.,0.));
#301=DIRECTION('',(0.,0.,1.));
#302=DIRECTION('',(-1.,0.,0.));
#303=DIRECTION('',(0.,0.,1.));
#304=DIRECTION('',(-1.,0.,0.));
#305=DIRECTION('',(0.,0.,1.));
#306=DIRECTION('',(-1.,0.,0.));
#307=DIRECTION('',(0.,0.,1.));
#308=DIRECTION('',(-1.,0.,0.));
#309=DIRECTION('',(0.,0.,1.));
#310=DIRECTION('',(-1.,0.,0.));
#311=DIRECTION('',(0.,0.,1.));
#312=CARTESIAN_POINT('',(0.,0.,0.));
#313=CARTESIAN_POINT('',(5.,0.426013791507288,11.0484898735373));
#314=CARTESIAN_POINT('',(10.,0.426013791507288,11.0484898735373));
#315=CARTESIAN_POINT('',(5.,-10.87430992,2.));
#316=CARTESIAN_POINT('',(10.,-10.87430992,2.));
#317=CARTESIAN_POINT('',(10.,-10.87430992,2.));
#318=CARTESIAN_POINT('',(10.,-13.0807341482708,-9.99667043660683));
#319=CARTESIAN_POINT('',(10.,-2.6106659838572,-16.2549515162795));
#320=CARTESIAN_POINT('',(10.,6.91089829508767,-8.63076479758108));
#321=CARTESIAN_POINT('',(10.,16.4324625740325,-1.00657807888263));
#322=CARTESIAN_POINT('',(10.,12.614841662896,10.5785062979577));
#323=CARTESIAN_POINT('',(10.,0.426013791507286,11.0484898735373));
#324=CARTESIAN_POINT('',(10.,-0.874309919999998,2.));
#325=CARTESIAN_POINT('',(10.,-3.08073414827081,1.03545070474724));
#326=CARTESIAN_POINT('',(10.,-2.94773684315922,-1.36891510246806));
#327=CARTESIAN_POINT('',(10.,-0.648391165096876,-2.08422809050131));
#328=CARTESIAN_POINT('',(10.,1.65095451296547,-2.79954107853455));
#329=CARTESIAN_POINT('',(10.,3.12444490170742,-0.894944194057905));
#330=CARTESIAN_POINT('',(10.,1.85458522007871,1.15105668742942));
#331=CARTESIAN_POINT('',(-5.10076676829453E-16,-0.874309919999998,2.));
#332=CARTESIAN_POINT('',(-5.10076676829454E-16,-3.08073414827081,1.03545070474724));
#333=CARTESIAN_POINT('',(-5.10076676829454E-16,-2.94773684315922,-1.36891510246806));
#334=CARTESIAN_POINT('',(-5.10076676829453E-16,-0.648391165096876,-2.08422809050131));
#335=CARTESIAN_POINT('',(-5.10076676829454E-16,1.65095451296547,-2.79954107853455));
#336=CARTESIAN_POINT('',(-5.10076676829454E-16,3.12444490170742,-0.894944194057905));
#337=CARTESIAN_POINT('',(-5.10076676829453E-16,1.85458522007871,1.15105668742942));
#338=CARTESIAN_POINT('',(-1.7347234759768E-15,-10.87430992,2.));
#339=CARTESIAN_POINT('',(-1.73472347597681E-15,-13.0807341482708,-9.99667043660683));
#340=CARTESIAN_POINT('',(-1.73472347597681E-15,-2.6106659838572,-16.2549515162795));
#341=CARTESIAN_POINT('',(-1.7347234759768E-15,6.91089829508767,-8.63076479758108));
#342=CARTESIAN_POINT('',(-1.73472347597681E-15,16.4324625740325,-1.00657807888263));
#343=CARTESIAN_POINT('',(-1.73472347597681E-15,12.614841662896,10.5785062979577));
#344=CARTESIAN_POINT('',(-1.7347234759768E-15,0.426013791507286,11.0484898735373));
#345=CARTESIAN_POINT('',(-2.95937027512416E-15,-20.87430992,2.));
#346=CARTESIAN_POINT('',(-2.95937027512416E-15,-23.0807341482708,-21.0287915779609));
#347=CARTESIAN_POINT('',(-2.95937027512416E-15,-2.27359512455518,-31.140987930091));
#348=CARTESIAN_POINT('',(-2.95937027512416E-15,14.4701877552722,-15.1773015046609));
#349=CARTESIAN_POINT('',(-2.95937027512416E-15,31.2139706350996,0.786384920769295));
#350=CARTESIAN_POINT('',(-2.95937027512416E-15,22.1052384240846,22.0519567899733));
#351=CARTESIAN_POINT('',(-2.95937027512416E-15,-1.00255763706415,20.9459230596452));
#352=CARTESIAN_POINT('',(10.,-20.87430992,2.));
#353=CARTESIAN_POINT('',(10.,-23.0807341482708,-21.0287915779609));
#354=CARTESIAN_POINT('',(10.,-2.27359512455518,-31.140987930091));
#355=CARTESIAN_POINT('',(10.,14.4701877552722,-15.1773015046609));
#356=CARTESIAN_POINT('',(10.,31.2139706350996,0.786384920769295));
#357=CARTESIAN_POINT('',(10.,22.1052384240846,22.0519567899733));
#358=CARTESIAN_POINT('',(10.,-1.00255763706415,20.9459230596452));
#359=CARTESIAN_POINT('',(10.,-10.87430992,2.));
#360=CARTESIAN_POINT('',(10.,-13.0807341482708,-9.99667043660683));
#361=CARTESIAN_POINT('',(10.,-2.6106659838572,-16.2549515162795));
#362=CARTESIAN_POINT('',(10.,6.91089829508767,-8.63076479758108));
#363=CARTESIAN_POINT('',(10.,16.4324625740325,-1.00657807888263));
#364=CARTESIAN_POINT('',(10.,12.614841662896,10.5785062979577));
#365=CARTESIAN_POINT('',(10.,0.426013791507286,11.0484898735373));
#366=CARTESIAN_POINT('',(10.,0.426013791507288,11.0484898735373));
#367=CARTESIAN_POINT('',(10.,-5.33301777984151,11.2705498023785));
#368=CARTESIAN_POINT('',(10.,-9.83180879319126,7.66824017243374));
#369=CARTESIAN_POINT('',(10.,-10.87430992,2.));
#370=CARTESIAN_POINT('',(10.,1.85458522007872,1.15105668742942));
#371=CARTESIAN_POINT('',(10.,1.25459627324576,2.11776027827686));
#372=CARTESIAN_POINT('',(10.,0.168191206808743,2.45573453839003));
#373=CARTESIAN_POINT('',(10.,-0.874309919999998,2.));
#374=CARTESIAN_POINT('',(-5.10076676829453E-16,1.85458522007872,1.15105668742942));
#375=CARTESIAN_POINT('',(-5.10076676829453E-16,1.25459627324576,2.11776027827686));
#376=CARTESIAN_POINT('',(-5.10076676829453E-16,0.168191206808743,2.45573453839003));
#377=CARTESIAN_POINT('',(-5.10076676829453E-16,-0.874309919999998,2.));
#378=CARTESIAN_POINT('',(-1.7347234759768E-15,0.426013791507288,11.0484898735373));
#379=CARTESIAN_POINT('',(-1.73472347597681E-15,-5.33301777984151,11.2705498023785));
#380=CARTESIAN_POINT('',(-1.73472347597681E-15,-9.83180879319126,7.66824017243374));
#381=CARTESIAN_POINT('',(-1.7347234759768E-15,-10.87430992,2.));
#382=CARTESIAN_POINT('',(-2.95937027512416E-15,-1.00255763706414,20.9459230596451));
#383=CARTESIAN_POINT('',(-2.95937027512416E-15,-11.9206318329288,20.4233393264801));
#384=CARTESIAN_POINT('',(-2.95937027512416E-15,-19.8318087931912,12.8807458064774));
#385=CARTESIAN_POINT('',(-2.95937027512416E-15,-20.87430992,2.));
#386=CARTESIAN_POINT('',(10.,-1.00255763706414,20.9459230596451));
#387=CARTESIAN_POINT('',(10.,-11.9206318329288,20.4233393264801));
#388=CARTESIAN_POINT('',(10.,-19.8318087931912,12.8807458064774));
#389=CARTESIAN_POINT('',(10.,-20.87430992,2.));
#390=CARTESIAN_POINT('',(10.,0.426013791507288,11.0484898735373));
#391=CARTESIAN_POINT('',(10.,-5.33301777984151,11.2705498023785));
#392=CARTESIAN_POINT('',(10.,-9.83180879319126,7.66824017243374));
#393=CARTESIAN_POINT('',(10.,-10.87430992,2.));
#394=CARTESIAN_POINT('',(150.,0.,0.));
#395=CARTESIAN_POINT('',(150.,0.,16.));
#396=CARTESIAN_POINT('',(244.582179545095,0.,0.));
#397=CARTESIAN_POINT('',(244.582179545095,0.,16.));
#398=CARTESIAN_POINT('',(0.,0.,0.));
#399=CARTESIAN_POINT('',(149.75,0.,0.));
#400=CARTESIAN_POINT('',(149.75,0.,15.75));
#401=CARTESIAN_POINT('',(150.,0.,0.));
#402=CARTESIAN_POINT('',(30.,0.,0.));
#403=CARTESIAN_POINT('',(30.,0.,14.));
#404=CARTESIAN_POINT('',(149.75,0.,0.));
#405=CARTESIAN_POINT('',(7.63154238542649,0.,0.));
#406=CARTESIAN_POINT('',(7.63154238542649,0.,14.0000000000016));
#407=CARTESIAN_POINT('',(0.,0.,0.));
#408=CARTESIAN_POINT('',(3.,0.,0.));
#409=CARTESIAN_POINT('',(3.,0.,7.44899292492092));
#410=CARTESIAN_POINT('',(4.7334916368075,6.92762426314959,0.));
#411=CARTESIAN_POINT('',(5.2665083631925,6.92762426314959,0.));
#412=CARTESIAN_POINT('',(5.53032723936392,6.95330661269406,0.));
#413=CARTESIAN_POINT('',(6.05254973386509,7.05593153399451,0.));
#414=CARTESIAN_POINT('',(6.30613893095912,7.13213462954704,0.));
#415=CARTESIAN_POINT('',(6.79278387173788,7.33106645454991,0.));
#416=CARTESIAN_POINT('',(7.02892901559386,7.4554369406005,0.));
#417=CARTESIAN_POINT('',(7.47107735167307,7.7474959826707,0.));
#418=CARTESIAN_POINT('',(7.67517739209448,7.91326675945268,0.));
#419=CARTESIAN_POINT('',(8.04976607576922,8.28389905172382,0.));
#420=CARTESIAN_POINT('',(8.22117762338576,8.49089289842887,0.));
#421=CARTESIAN_POINT('',(8.51524794593457,8.9279895104474,0.));
#422=CARTESIAN_POINT('',(8.63989391247079,9.15948325258446,0.));
#423=CARTESIAN_POINT('',(8.8435103331257,9.64888032574821,0.));
#424=CARTESIAN_POINT('',(8.9208136582003,9.90420745283621,0.));
#425=CARTESIAN_POINT('',(9.02288780474532,10.4197573527844,0.));
#426=CARTESIAN_POINT('',(9.04866245500087,10.6838035717825,0.));
#427=CARTESIAN_POINT('',(9.04714820407253,11.2152843374996,0.));
#428=CARTESIAN_POINT('',(9.02018705640444,11.4769834974096,0.));
#429=CARTESIAN_POINT('',(8.91557785028875,11.9925648070991,0.));
#430=CARTESIAN_POINT('',(8.83654723000217,12.2491182220136,0.));
#431=CARTESIAN_POINT('',(8.63205986386082,12.735724354502,0.));
#432=CARTESIAN_POINT('',(8.50704911262822,12.9668270029832,0.));
#433=CARTESIAN_POINT('',(8.2115112696211,13.4046410008241,0.));
#434=CARTESIAN_POINT('',(8.04025937670964,13.6110431336341,0.));
#435=CARTESIAN_POINT('',(7.66654736391524,13.981078461844,0.));
#436=CARTESIAN_POINT('',(7.46254349004669,14.1473295150123,0.));
#437=CARTESIAN_POINT('',(7.01912130115618,14.4410740883917,0.));
#438=CARTESIAN_POINT('',(6.7850147303603,14.5647826741299,0.));
#439=CARTESIAN_POINT('',(6.29886231692644,14.7644189339051,0.));
#440=CARTESIAN_POINT('',(6.04340518454589,14.8413951501423,0.));
#441=CARTESIAN_POINT('',(5.52342309857954,14.9436466725591,0.));
#442=CARTESIAN_POINT('',(5.26175017938917,14.968915704951,0.));
#443=CARTESIAN_POINT('',(4.7351037726113,14.968711686804,0.));
#444=CARTESIAN_POINT('',(4.46772333930929,14.9423942944584,0.));
#445=CARTESIAN_POINT('',(3.95074884827124,14.8397428581512,0.));
#446=CARTESIAN_POINT('',(3.6991084337717,14.7638622631545,0.));
#447=CARTESIAN_POINT('',(3.20970470788455,14.5623334424305,0.));
#448=CARTESIAN_POINT('',(2.97364474878003,14.4366946682894,0.));
#449=CARTESIAN_POINT('',(2.53576221644087,14.1457859316066,0.));
#450=CARTESIAN_POINT('',(2.330956391782,13.9791965613953,0.));
#451=CARTESIAN_POINT('',(1.95308910641088,13.6038528297528,0.));
#452=CARTESIAN_POINT('',(1.78553675097366,13.4007028216551,0.));
#453=CARTESIAN_POINT('',(1.49169807626018,12.9645298809972,0.));
#454=CARTESIAN_POINT('',(1.36439875758977,12.7286712732455,0.));
#455=CARTESIAN_POINT('',(1.16063009227744,12.2409836574127,0.));
#456=CARTESIAN_POINT('',(1.08358498127866,11.9897042867839,0.));
#457=CARTESIAN_POINT('',(0.979121208349387,11.472289984457,0.));
#458=CARTESIAN_POINT('',(0.952338393709766,11.2051629002374,0.));
#459=CARTESIAN_POINT('',(0.951822318687494,10.6789750033907,0.));
#460=CARTESIAN_POINT('',(0.977261485585845,10.4170472943045,0.));
#461=CARTESIAN_POINT('',(1.08128554876934,9.89560383656301,0.));
#462=CARTESIAN_POINT('',(1.15893524544975,9.64217168516167,0.));
#463=CARTESIAN_POINT('',(1.36142223205973,9.15716609815946,0.));
#464=CARTESIAN_POINT('',(1.48804977302139,8.92212849957124,0.));
#465=CARTESIAN_POINT('',(1.78469653488854,8.48315130313364,0.));
#466=CARTESIAN_POINT('',(1.95274583767815,8.28108373025467,0.));
#467=CARTESIAN_POINT('',(2.32742776453459,7.91102359617788,0.));
#468=CARTESIAN_POINT('',(2.53636045143242,7.74198713011044,0.));
#469=CARTESIAN_POINT('',(2.97654995727031,7.45243143267962,0.));
#470=CARTESIAN_POINT('',(3.20906219208525,7.33004723088612,0.));
#471=CARTESIAN_POINT('',(3.69904288661994,7.13028480304403,0.));
#472=CARTESIAN_POINT('',(3.95541092019554,7.05404948367385,0.));
#473=CARTESIAN_POINT('',(4.47133889811284,6.95330283106787,0.));
#474=CARTESIAN_POINT('',(4.7334916368075,6.92762426314959,0.));
#475=CARTESIAN_POINT('',(5.2665083631925,6.92762426314959,0.));
#476=CARTESIAN_POINT('',(0.,0.,0.));
#477=CARTESIAN_POINT('',(3.,7.44899292492092,0.));
#478=CARTESIAN_POINT('',(250.,0.,0.));
#479=CARTESIAN_POINT('',(250.,0.,14.75));
#480=CARTESIAN_POINT('',(250.,0.,0.));
#481=CARTESIAN_POINT('',(249.,0.,0.));
#482=CARTESIAN_POINT('',(249.,0.,15.75));
#483=CARTESIAN_POINT('',(249.,0.,0.));
#484=CARTESIAN_POINT('',(246.,0.,0.));
#485=CARTESIAN_POINT('',(246.,0.,15.75));
#486=CARTESIAN_POINT('',(0.,0.,0.));
#487=CARTESIAN_POINT('',(246.,0.,0.));
#488=(
GEOMETRIC_REPRESENTATION_CONTEXT(3)
GLOBAL_UNCERTAINTY_ASSIGNED_CONTEXT((#489))
GLOBAL_UNIT_ASSIGNED_CONTEXT((#495,#491,#490))
REPRESENTATION_CONTEXT('model1','TOP_LEVEL_ASSEMBLY_PART')
);
#489=UNCERTAINTY_MEASURE_WITH_UNIT(LENGTH_MEASURE(2.E-5),#495,
'DISTANCE_ACCURACY_VALUE','Maximum Tolerance applied to model');
#490=(
NAMED_UNIT(*)
SI_UNIT($,.STERADIAN.)
SOLID_ANGLE_UNIT()
);
#491=(
CONVERSION_BASED_UNIT('DEGREE',#493)
NAMED_UNIT(#492)
PLANE_ANGLE_UNIT()
);
#492=DIMENSIONAL_EXPONENTS(0.,0.,0.,0.,0.,0.,0.);
#493=PLANE_ANGLE_MEASURE_WITH_UNIT(PLANE_ANGLE_MEASURE(0.0174532925),#494);
#494=(
NAMED_UNIT(*)
PLANE_ANGLE_UNIT()
SI_UNIT($,.RADIAN.)
);
#495=(
LENGTH_UNIT()
NAMED_UNIT(*)
SI_UNIT(.MILLI.,.METRE.)
);
ENDSEC;
END-ISO-10303-21;
