ISO-10303-21;
HEADER;
/* Generated by software containing ST-Developer
 * from STEP Tools, Inc. (www.steptools.com) 
 */
/* OPTION: using custom schema-name function */

FILE_DESCRIPTION(
/* description */ (''),
/* implementation_level */ '2;1');

FILE_NAME(
/* name */ 'AEMRC-RD10T3-D20-M10-L30-Z02.stp',
/* time_stamp */ '2023-10-19T18:35:21+03:00',
/* author */ (''),
/* organization */ (''),
/* preprocessor_version */ 'ST-DEVELOPER v19.4',
/* originating_system */ 'SIEMENS PLM Software NX2306.5001',
/* authorisation */ '');

FILE_SCHEMA (('AUTOMOTIVE_DESIGN { 1 0 10303 214 3 1 1 1 }'));
ENDSEC;

DATA;
#10=PROPERTY_DEFINITION_REPRESENTATION(#14,#12);
#11=PROPERTY_DEFINITION_REPRESENTATION(#15,#13);
#12=REPRESENTATION('',(#16),#540);
#13=REPRESENTATION('',(#17),#540);
#14=PROPERTY_DEFINITION('pmi validation property','',#21);
#15=PROPERTY_DEFINITION('pmi validation property','',#21);
#16=VALUE_REPRESENTATION_ITEM('number of annotations',COUNT_MEASURE(0.));
#17=VALUE_REPRESENTATION_ITEM('number of views',COUNT_MEASURE(0.));
#18=SHAPE_REPRESENTATION_RELATIONSHIP('None',
'relationship between AEMRC-RD10T3-D20-M10-L30-Z02-LIGHT_x_t_objects-N
one and AEMRC-RD10T3-D20-M10-L30-Z02-LIGHT_x_t_objects-None',#30,#19);
#19=ADVANCED_BREP_SHAPE_REPRESENTATION(
'AEMRC-RD10T3-D20-M10-L30-Z02-LIGHT_x_t_objects-None',(#50,#51),#540);
#20=SHAPE_DEFINITION_REPRESENTATION(#21,#30);
#21=PRODUCT_DEFINITION_SHAPE('','',#22);
#22=PRODUCT_DEFINITION(' ','',#24,#23);
#23=PRODUCT_DEFINITION_CONTEXT('part definition',#29,'design');
#24=PRODUCT_DEFINITION_FORMATION_WITH_SPECIFIED_SOURCE(' ',' ',#26,
 .NOT_KNOWN.);
#25=PRODUCT_RELATED_PRODUCT_CATEGORY('part','',(#26));
#26=PRODUCT('AEMRC-RD10T3-D20-M10-L30-Z02-LIGHT_x_t_objects',
'AEMRC-RD10T3-D20-M10-L30-Z02-LIGHT_x_t_objects',' ',(#27));
#27=PRODUCT_CONTEXT(' ',#29,'mechanical');
#28=APPLICATION_PROTOCOL_DEFINITION('international standard',
'automotive_design',2010,#29);
#29=APPLICATION_CONTEXT(
'core data for automotive mechanical design processes');
#30=SHAPE_REPRESENTATION(
'AEMRC-RD10T3-D20-M10-L30-Z02-LIGHT_x_t_objects-None',(#243),#540);
#31=DRAUGHTING_PRE_DEFINED_COLOUR('yellow');
#32=(
BOUNDED_SURFACE()
B_SPLINE_SURFACE(3,3,((#462,#463,#464,#465,#466,#467,#468),(#469,#470,#471,
#472,#473,#474,#475),(#476,#477,#478,#479,#480,#481,#482),(#483,#484,#485,
#486,#487,#488,#489),(#490,#491,#492,#493,#494,#495,#496),(#497,#498,#499,
#500,#501,#502,#503),(#504,#505,#506,#507,#508,#509,#510)),
 .UNSPECIFIED.,.T.,.F.,.F.)
B_SPLINE_SURFACE_WITH_KNOTS((1,3,3,3,1),(4,3,4),(-0.5,0.,0.5,1.,1.5),(0.,
0.5,1.),.UNSPECIFIED.)
GEOMETRIC_REPRESENTATION_ITEM()
RATIONAL_B_SPLINE_SURFACE(((1.,0.541820121329416,0.541820121329416,1.,0.541820121329416,
0.541820121329416,1.),(0.333333333333334,0.180606707109806,0.180606707109806,
0.333333333333334,0.180606707109806,0.180606707109806,0.333333333333334),
(0.333333333333334,0.180606707109806,0.180606707109806,0.333333333333334,
0.180606707109806,0.180606707109806,0.333333333333334),(1.,0.541820121329416,
0.541820121329416,1.,0.541820121329416,0.541820121329416,1.),(0.333333333333334,
0.180606707109806,0.180606707109806,0.333333333333334,0.180606707109806,
0.180606707109806,0.333333333333334),(0.333333333333334,0.180606707109806,
0.180606707109806,0.333333333333334,0.180606707109806,0.180606707109806,
0.333333333333334),(1.,0.541820121329416,0.541820121329416,1.,0.541820121329416,
0.541820121329416,1.)))
REPRESENTATION_ITEM('')
SURFACE()
);
#33=(
BOUNDED_SURFACE()
B_SPLINE_SURFACE(3,3,((#511,#512,#513,#514),(#515,#516,#517,#518),(#519,
#520,#521,#522),(#523,#524,#525,#526),(#527,#528,#529,#530),(#531,#532,
#533,#534),(#535,#536,#537,#538)),.UNSPECIFIED.,.T.,.F.,.F.)
B_SPLINE_SURFACE_WITH_KNOTS((1,3,3,3,1),(4,4),(-0.5,0.,0.5,1.,1.5),(0.,
1.),.UNSPECIFIED.)
GEOMETRIC_REPRESENTATION_ITEM()
RATIONAL_B_SPLINE_SURFACE(((1.,0.869599777693229,0.869599777693229,1.),
(0.333333333333334,0.28986659256441,0.28986659256441,0.333333333333334),
(0.333333333333334,0.28986659256441,0.28986659256441,0.333333333333334),
(1.,0.869599777693229,0.869599777693229,1.),(0.333333333333334,0.28986659256441,
0.28986659256441,0.333333333333334),(0.333333333333334,0.28986659256441,
0.28986659256441,0.333333333333334),(1.,0.869599777693229,0.869599777693229,
1.)))
REPRESENTATION_ITEM('')
SURFACE()
);
#34=PRESENTATION_LAYER_ASSIGNMENT('1','Layer 1',(#50,#51));
#35=STYLED_ITEM('',(#37),#50);
#36=STYLED_ITEM('',(#38),#51);
#37=PRESENTATION_STYLE_ASSIGNMENT((#39));
#38=PRESENTATION_STYLE_ASSIGNMENT((#40));
#39=SURFACE_STYLE_USAGE(.BOTH.,#41);
#40=SURFACE_STYLE_USAGE(.BOTH.,#42);
#41=SURFACE_SIDE_STYLE('',(#43));
#42=SURFACE_SIDE_STYLE('',(#44));
#43=SURFACE_STYLE_FILL_AREA(#45);
#44=SURFACE_STYLE_FILL_AREA(#46);
#45=FILL_AREA_STYLE('',(#47));
#46=FILL_AREA_STYLE('',(#48));
#47=FILL_AREA_STYLE_COLOUR('',#49);
#48=FILL_AREA_STYLE_COLOUR('',#31);
#49=COLOUR_RGB('silver gray',0.6,0.6,0.6);
#50=MANIFOLD_SOLID_BREP('',#52);
#51=MANIFOLD_SOLID_BREP('',#53);
#52=CLOSED_SHELL('',(#101,#102,#103,#104,#105,#106,#107,#108,#109,#110,
#111,#112,#113,#114,#115,#116));
#53=CLOSED_SHELL('',(#117,#118));
#54=SURFACE_OF_REVOLUTION('',#56,#55);
#55=AXIS1_PLACEMENT('',#456,#336);
#56=B_SPLINE_CURVE_WITH_KNOTS('',3,(#388,#389,#390,#391,#392,#393,#394,
#395,#396,#397,#398,#399,#400,#401,#402,#403,#404,#405,#406,#407,#408,#409,
#410,#411,#412,#413,#414,#415,#416,#417,#418,#419,#420,#421,#422,#423,#424,
#425,#426,#427,#428,#429,#430,#431,#432,#433,#434,#435,#436,#437,#438,#439,
#440,#441,#442,#443,#444,#445,#446,#447,#448,#449,#450,#451,#452,#453,#454,
#455),.UNSPECIFIED.,.T.,.F.,(2,2,2,2,2,2,2,2,2,2,2,2,2,2,2,2,2,2,2,2,2,
2,2,2,2,2,2,2,2,2,2,2,2,2,2,2),(-0.03125,0.,0.03125,0.0625,0.09375,0.125,
0.15625,0.1875,0.21875,0.25,0.28125,0.3125,0.34375,0.375,0.40625,0.4375,
0.46875,0.5,0.53125,0.5625,0.59375,0.625,0.65625,0.6875,0.71875,0.75,0.78125,
0.8125,0.84375,0.875,0.890625,0.90625,0.9375,0.96875,1.,1.03125),
 .UNSPECIFIED.);
#57=TOROIDAL_SURFACE('',#257,5.63,0.6);
#58=TOROIDAL_SURFACE('',#271,10.5,2.);
#59=CYLINDRICAL_SURFACE('',#249,4.875);
#60=CYLINDRICAL_SURFACE('',#253,5.25);
#61=CYLINDRICAL_SURFACE('',#265,9.);
#62=CYLINDRICAL_SURFACE('',#269,8.5);
#63=CONICAL_SURFACE('',#247,3.875,44.9999999999998);
#64=CONICAL_SURFACE('',#251,4.875,30.);
#65=CONICAL_SURFACE('',#255,5.25,15.0000000000003);
#66=CONICAL_SURFACE('',#259,5.78529142706151,75.0000000000001);
#67=CONICAL_SURFACE('',#263,8.5,45.);
#68=CONICAL_SURFACE('',#267,9.,45.0000000000002);
#69=FACE_BOUND('',#125,.T.);
#70=FACE_BOUND('',#126,.T.);
#71=FACE_BOUND('',#127,.T.);
#72=FACE_BOUND('',#128,.T.);
#73=FACE_BOUND('',#129,.T.);
#74=FACE_BOUND('',#130,.T.);
#75=FACE_BOUND('',#131,.T.);
#76=FACE_BOUND('',#132,.T.);
#77=FACE_BOUND('',#133,.T.);
#78=FACE_BOUND('',#134,.T.);
#79=FACE_BOUND('',#135,.T.);
#80=FACE_BOUND('',#136,.T.);
#81=FACE_BOUND('',#137,.T.);
#82=FACE_BOUND('',#138,.T.);
#83=FACE_BOUND('',#139,.T.);
#84=FACE_BOUND('',#140,.T.);
#85=FACE_BOUND('',#141,.T.);
#86=FACE_BOUND('',#142,.T.);
#87=FACE_BOUND('',#143,.T.);
#88=FACE_BOUND('',#144,.T.);
#89=FACE_BOUND('',#145,.T.);
#90=FACE_BOUND('',#146,.T.);
#91=FACE_BOUND('',#147,.T.);
#92=FACE_BOUND('',#148,.T.);
#93=FACE_BOUND('',#149,.T.);
#94=FACE_BOUND('',#150,.T.);
#95=FACE_BOUND('',#151,.T.);
#96=FACE_BOUND('',#152,.T.);
#97=FACE_BOUND('',#154,.T.);
#98=FACE_BOUND('',#155,.T.);
#99=FACE_BOUND('',#156,.T.);
#100=FACE_BOUND('',#157,.T.);
#101=ADVANCED_FACE('',(#122),#119,.F.);
#102=ADVANCED_FACE('',(#69,#70),#63,.T.);
#103=ADVANCED_FACE('',(#71,#72),#59,.T.);
#104=ADVANCED_FACE('',(#73,#74),#64,.T.);
#105=ADVANCED_FACE('',(#75,#76),#60,.T.);
#106=ADVANCED_FACE('',(#77,#78),#65,.T.);
#107=ADVANCED_FACE('',(#79,#80),#57,.F.);
#108=ADVANCED_FACE('',(#81,#82),#66,.F.);
#109=ADVANCED_FACE('',(#83,#84),#120,.F.);
#110=ADVANCED_FACE('',(#85,#86),#67,.T.);
#111=ADVANCED_FACE('',(#87,#88),#61,.T.);
#112=ADVANCED_FACE('',(#89,#90),#68,.T.);
#113=ADVANCED_FACE('',(#91,#92),#62,.T.);
#114=ADVANCED_FACE('',(#93,#94),#58,.F.);
#115=ADVANCED_FACE('',(#95,#96),#54,.T.);
#116=ADVANCED_FACE('',(#123),#121,.F.);
#117=ADVANCED_FACE('',(#97,#98),#32,.F.);
#118=ADVANCED_FACE('',(#99,#100),#33,.F.);
#119=PLANE('',#245);
#120=PLANE('',#261);
#121=PLANE('',#273);
#122=FACE_OUTER_BOUND('',#124,.T.);
#123=FACE_OUTER_BOUND('',#153,.T.);
#124=EDGE_LOOP('',(#158));
#125=EDGE_LOOP('',(#159));
#126=EDGE_LOOP('',(#160));
#127=EDGE_LOOP('',(#161));
#128=EDGE_LOOP('',(#162));
#129=EDGE_LOOP('',(#163));
#130=EDGE_LOOP('',(#164));
#131=EDGE_LOOP('',(#165));
#132=EDGE_LOOP('',(#166));
#133=EDGE_LOOP('',(#167));
#134=EDGE_LOOP('',(#168));
#135=EDGE_LOOP('',(#169));
#136=EDGE_LOOP('',(#170));
#137=EDGE_LOOP('',(#171));
#138=EDGE_LOOP('',(#172));
#139=EDGE_LOOP('',(#173));
#140=EDGE_LOOP('',(#174));
#141=EDGE_LOOP('',(#175));
#142=EDGE_LOOP('',(#176));
#143=EDGE_LOOP('',(#177));
#144=EDGE_LOOP('',(#178));
#145=EDGE_LOOP('',(#179));
#146=EDGE_LOOP('',(#180));
#147=EDGE_LOOP('',(#181));
#148=EDGE_LOOP('',(#182));
#149=EDGE_LOOP('',(#183));
#150=EDGE_LOOP('',(#184));
#151=EDGE_LOOP('',(#185));
#152=EDGE_LOOP('',(#186));
#153=EDGE_LOOP('',(#187));
#154=EDGE_LOOP('',(#188));
#155=EDGE_LOOP('',(#189));
#156=EDGE_LOOP('',(#190));
#157=EDGE_LOOP('',(#191));
#158=ORIENTED_EDGE('',*,*,#209,.F.);
#159=ORIENTED_EDGE('',*,*,#210,.F.);
#160=ORIENTED_EDGE('',*,*,#209,.T.);
#161=ORIENTED_EDGE('',*,*,#211,.F.);
#162=ORIENTED_EDGE('',*,*,#210,.T.);
#163=ORIENTED_EDGE('',*,*,#212,.F.);
#164=ORIENTED_EDGE('',*,*,#211,.T.);
#165=ORIENTED_EDGE('',*,*,#213,.F.);
#166=ORIENTED_EDGE('',*,*,#212,.T.);
#167=ORIENTED_EDGE('',*,*,#214,.F.);
#168=ORIENTED_EDGE('',*,*,#213,.T.);
#169=ORIENTED_EDGE('',*,*,#215,.F.);
#170=ORIENTED_EDGE('',*,*,#214,.T.);
#171=ORIENTED_EDGE('',*,*,#216,.F.);
#172=ORIENTED_EDGE('',*,*,#215,.T.);
#173=ORIENTED_EDGE('',*,*,#217,.F.);
#174=ORIENTED_EDGE('',*,*,#216,.T.);
#175=ORIENTED_EDGE('',*,*,#218,.F.);
#176=ORIENTED_EDGE('',*,*,#217,.T.);
#177=ORIENTED_EDGE('',*,*,#219,.F.);
#178=ORIENTED_EDGE('',*,*,#218,.T.);
#179=ORIENTED_EDGE('',*,*,#220,.F.);
#180=ORIENTED_EDGE('',*,*,#219,.T.);
#181=ORIENTED_EDGE('',*,*,#221,.F.);
#182=ORIENTED_EDGE('',*,*,#220,.T.);
#183=ORIENTED_EDGE('',*,*,#222,.F.);
#184=ORIENTED_EDGE('',*,*,#221,.T.);
#185=ORIENTED_EDGE('',*,*,#223,.F.);
#186=ORIENTED_EDGE('',*,*,#222,.T.);
#187=ORIENTED_EDGE('',*,*,#223,.T.);
#188=ORIENTED_EDGE('',*,*,#224,.T.);
#189=ORIENTED_EDGE('',*,*,#225,.T.);
#190=ORIENTED_EDGE('',*,*,#225,.F.);
#191=ORIENTED_EDGE('',*,*,#224,.F.);
#192=VERTEX_POINT('',#345);
#193=VERTEX_POINT('',#348);
#194=VERTEX_POINT('',#351);
#195=VERTEX_POINT('',#354);
#196=VERTEX_POINT('',#357);
#197=VERTEX_POINT('',#360);
#198=VERTEX_POINT('',#363);
#199=VERTEX_POINT('',#366);
#200=VERTEX_POINT('',#369);
#201=VERTEX_POINT('',#372);
#202=VERTEX_POINT('',#375);
#203=VERTEX_POINT('',#378);
#204=VERTEX_POINT('',#381);
#205=VERTEX_POINT('',#384);
#206=VERTEX_POINT('',#387);
#207=VERTEX_POINT('',#459);
#208=VERTEX_POINT('',#461);
#209=EDGE_CURVE('',#192,#192,#226,.T.);
#210=EDGE_CURVE('',#193,#193,#227,.T.);
#211=EDGE_CURVE('',#194,#194,#228,.T.);
#212=EDGE_CURVE('',#195,#195,#229,.T.);
#213=EDGE_CURVE('',#196,#196,#230,.T.);
#214=EDGE_CURVE('',#197,#197,#231,.T.);
#215=EDGE_CURVE('',#198,#198,#232,.T.);
#216=EDGE_CURVE('',#199,#199,#233,.T.);
#217=EDGE_CURVE('',#200,#200,#234,.T.);
#218=EDGE_CURVE('',#201,#201,#235,.T.);
#219=EDGE_CURVE('',#202,#202,#236,.T.);
#220=EDGE_CURVE('',#203,#203,#237,.T.);
#221=EDGE_CURVE('',#204,#204,#238,.T.);
#222=EDGE_CURVE('',#205,#205,#239,.T.);
#223=EDGE_CURVE('',#206,#206,#240,.T.);
#224=EDGE_CURVE('',#207,#207,#241,.T.);
#225=EDGE_CURVE('',#208,#208,#242,.T.);
#226=CIRCLE('',#244,3.875);
#227=CIRCLE('',#246,4.875);
#228=CIRCLE('',#248,4.875);
#229=CIRCLE('',#250,5.25);
#230=CIRCLE('',#252,5.25);
#231=CIRCLE('',#254,5.05044450422656);
#232=CIRCLE('',#256,5.78529142706151);
#233=CIRCLE('',#258,6.53004267621759);
#234=CIRCLE('',#260,8.5);
#235=CIRCLE('',#262,9.);
#236=CIRCLE('',#264,9.);
#237=CIRCLE('',#266,8.5);
#238=CIRCLE('',#268,8.5);
#239=CIRCLE('',#270,8.5000022703591);
#240=CIRCLE('',#272,2.03556884045541);
#241=CIRCLE('',#274,5.);
#242=CIRCLE('',#275,5.);
#243=AXIS2_PLACEMENT_3D('',#343,#276,#277);
#244=AXIS2_PLACEMENT_3D('',#344,#278,#279);
#245=AXIS2_PLACEMENT_3D('',#346,#280,#281);
#246=AXIS2_PLACEMENT_3D('',#347,#282,#283);
#247=AXIS2_PLACEMENT_3D('',#349,#284,#285);
#248=AXIS2_PLACEMENT_3D('',#350,#286,#287);
#249=AXIS2_PLACEMENT_3D('',#352,#288,#289);
#250=AXIS2_PLACEMENT_3D('',#353,#290,#291);
#251=AXIS2_PLACEMENT_3D('',#355,#292,#293);
#252=AXIS2_PLACEMENT_3D('',#356,#294,#295);
#253=AXIS2_PLACEMENT_3D('',#358,#296,#297);
#254=AXIS2_PLACEMENT_3D('',#359,#298,#299);
#255=AXIS2_PLACEMENT_3D('',#361,#300,#301);
#256=AXIS2_PLACEMENT_3D('',#362,#302,#303);
#257=AXIS2_PLACEMENT_3D('',#364,#304,#305);
#258=AXIS2_PLACEMENT_3D('',#365,#306,#307);
#259=AXIS2_PLACEMENT_3D('',#367,#308,#309);
#260=AXIS2_PLACEMENT_3D('',#368,#310,#311);
#261=AXIS2_PLACEMENT_3D('',#370,#312,#313);
#262=AXIS2_PLACEMENT_3D('',#371,#314,#315);
#263=AXIS2_PLACEMENT_3D('',#373,#316,#317);
#264=AXIS2_PLACEMENT_3D('',#374,#318,#319);
#265=AXIS2_PLACEMENT_3D('',#376,#320,#321);
#266=AXIS2_PLACEMENT_3D('',#377,#322,#323);
#267=AXIS2_PLACEMENT_3D('',#379,#324,#325);
#268=AXIS2_PLACEMENT_3D('',#380,#326,#327);
#269=AXIS2_PLACEMENT_3D('',#382,#328,#329);
#270=AXIS2_PLACEMENT_3D('',#383,#330,#331);
#271=AXIS2_PLACEMENT_3D('',#385,#332,#333);
#272=AXIS2_PLACEMENT_3D('',#386,#334,#335);
#273=AXIS2_PLACEMENT_3D('',#457,#337,#338);
#274=AXIS2_PLACEMENT_3D('',#458,#339,#340);
#275=AXIS2_PLACEMENT_3D('',#460,#341,#342);
#276=DIRECTION('',(0.,0.,1.));
#277=DIRECTION('',(1.,0.,0.));
#278=DIRECTION('',(-1.,0.,0.));
#279=DIRECTION('',(0.,0.,1.));
#280=DIRECTION('',(-1.,0.,0.));
#281=DIRECTION('',(0.,0.,1.));
#282=DIRECTION('',(-1.,0.,0.));
#283=DIRECTION('',(0.,0.,1.));
#284=DIRECTION('',(-1.,0.,0.));
#285=DIRECTION('',(4.14726568780413E-17,0.,1.));
#286=DIRECTION('',(-1.,0.,0.));
#287=DIRECTION('',(0.,0.,1.));
#288=DIRECTION('',(-1.,0.,0.));
#289=DIRECTION('',(0.,0.,1.));
#290=DIRECTION('',(-1.,0.,0.));
#291=DIRECTION('',(0.,0.,1.));
#292=DIRECTION('',(-1.,0.,0.));
#293=DIRECTION('',(-7.15073110471331E-17,0.,1.));
#294=DIRECTION('',(-1.,0.,0.));
#295=DIRECTION('',(0.,0.,1.));
#296=DIRECTION('',(-1.,0.,0.));
#297=DIRECTION('',(0.,0.,1.));
#298=DIRECTION('',(-1.,0.,0.));
#299=DIRECTION('',(0.,0.,1.));
#300=DIRECTION('',(1.,0.,0.));
#301=DIRECTION('',(3.30182603938458E-16,0.,-1.));
#302=DIRECTION('',(-1.,0.,0.));
#303=DIRECTION('',(0.,0.,1.));
#304=DIRECTION('',(-1.,0.,0.));
#305=DIRECTION('',(0.,0.,1.));
#306=DIRECTION('',(-1.,0.,0.));
#307=DIRECTION('',(0.,0.,1.));
#308=DIRECTION('',(1.,0.,0.));
#309=DIRECTION('',(1.02101631694716E-17,0.,-1.));
#310=DIRECTION('',(-1.,0.,0.));
#311=DIRECTION('',(0.,0.,1.));
#312=DIRECTION('',(-1.,0.,0.));
#313=DIRECTION('',(0.,0.,1.));
#314=DIRECTION('',(-1.,0.,0.));
#315=DIRECTION('',(0.,0.,1.));
#316=DIRECTION('',(-1.,0.,0.));
#317=DIRECTION('',(2.75216416615061E-17,0.,1.));
#318=DIRECTION('',(-1.,0.,0.));
#319=DIRECTION('',(0.,0.,1.));
#320=DIRECTION('',(-1.,0.,0.));
#321=DIRECTION('',(0.,0.,1.));
#322=DIRECTION('',(-1.,0.,0.));
#323=DIRECTION('',(0.,0.,1.));
#324=DIRECTION('',(1.,0.,0.));
#325=DIRECTION('',(-8.59625111980572E-17,0.,-1.));
#326=DIRECTION('',(-1.,0.,0.));
#327=DIRECTION('',(0.,0.,1.));
#328=DIRECTION('',(-1.,0.,0.));
#329=DIRECTION('',(0.,0.,1.));
#330=DIRECTION('',(-1.,0.,0.));
#331=DIRECTION('',(0.,0.,1.));
#332=DIRECTION('',(-1.,0.,0.));
#333=DIRECTION('',(0.,0.,1.));
#334=DIRECTION('',(-1.,0.,0.));
#335=DIRECTION('',(0.,0.,1.));
#336=DIRECTION('',(-1.,0.,0.));
#337=DIRECTION('',(1.,0.,0.));
#338=DIRECTION('',(0.,0.,-1.));
#339=DIRECTION('',(0.,0.955769224074819,0.294117647058824));
#340=DIRECTION('',(1.,0.,0.));
#341=DIRECTION('',(0.,0.,-1.));
#342=DIRECTION('',(1.,0.,0.));
#343=CARTESIAN_POINT('',(0.,0.,0.));
#344=CARTESIAN_POINT('',(50.,0.,0.));
#345=CARTESIAN_POINT('',(50.,0.,3.875));
#346=CARTESIAN_POINT('',(50.,0.,0.));
#347=CARTESIAN_POINT('',(49.,0.,0.));
#348=CARTESIAN_POINT('',(49.,0.,4.875));
#349=CARTESIAN_POINT('',(50.,0.,0.));
#350=CARTESIAN_POINT('',(36.6495190528384,0.,0.));
#351=CARTESIAN_POINT('',(36.6495190528384,0.,4.875));
#352=CARTESIAN_POINT('',(0.,0.,0.));
#353=CARTESIAN_POINT('',(36.,0.,0.));
#354=CARTESIAN_POINT('',(36.,0.,5.25));
#355=CARTESIAN_POINT('',(36.6495190528384,0.,0.));
#356=CARTESIAN_POINT('',(31.2800426762176,0.,0.));
#357=CARTESIAN_POINT('',(31.2800426762176,0.,5.25));
#358=CARTESIAN_POINT('',(0.,0.,0.));
#359=CARTESIAN_POINT('',(30.5352914270615,0.,0.));
#360=CARTESIAN_POINT('',(30.5352914270615,0.,5.05044450422656));
#361=CARTESIAN_POINT('',(31.2800426762176,0.,0.));
#362=CARTESIAN_POINT('',(29.8004445042265,0.,0.));
#363=CARTESIAN_POINT('',(29.8004445042265,0.,5.78529142706151));
#364=CARTESIAN_POINT('',(30.38,0.,0.));
#365=CARTESIAN_POINT('',(30.,0.,0.));
#366=CARTESIAN_POINT('',(30.,0.,6.53004267621759));
#367=CARTESIAN_POINT('',(29.8004445042265,0.,0.));
#368=CARTESIAN_POINT('',(30.,0.,0.));
#369=CARTESIAN_POINT('',(30.,0.,8.5));
#370=CARTESIAN_POINT('',(30.,6.53004267621759,0.));
#371=CARTESIAN_POINT('',(29.5,0.,0.));
#372=CARTESIAN_POINT('',(29.5,0.,9.));
#373=CARTESIAN_POINT('',(30.,0.,0.));
#374=CARTESIAN_POINT('',(27.,0.,0.));
#375=CARTESIAN_POINT('',(27.,0.,9.));
#376=CARTESIAN_POINT('',(0.,0.,0.));
#377=CARTESIAN_POINT('',(26.5,0.,0.));
#378=CARTESIAN_POINT('',(26.5,0.,8.5));
#379=CARTESIAN_POINT('',(27.,0.,0.));
#380=CARTESIAN_POINT('',(6.05125021024807,0.,0.));
#381=CARTESIAN_POINT('',(6.05125021024807,0.,8.5));
#382=CARTESIAN_POINT('',(0.,0.,0.));
#383=CARTESIAN_POINT('',(6.04823666892911,0.,0.));
#384=CARTESIAN_POINT('',(6.04823666892911,0.,8.5000022703591));
#385=CARTESIAN_POINT('',(6.05125021024807,0.,0.));
#386=CARTESIAN_POINT('',(3.00000000000014,0.,0.));
#387=CARTESIAN_POINT('',(3.00000000000014,0.,2.03556884045541));
#388=CARTESIAN_POINT('',(4.7576432065902,1.6957570737869,0.));
#389=CARTESIAN_POINT('',(5.2423567934098,1.6957570737869,0.));
#390=CARTESIAN_POINT('',(5.4845365062117,1.7068311289403,0.));
#391=CARTESIAN_POINT('',(5.96449335531172,1.75558758942126,0.));
#392=CARTESIAN_POINT('',(6.20284873262028,1.7933206020234,0.));
#393=CARTESIAN_POINT('',(6.67463005247062,1.90934707845546,0.));
#394=CARTESIAN_POINT('',(6.90600894974189,1.98785423731988,0.));
#395=CARTESIAN_POINT('',(7.34320497592745,2.19469127296987,0.));
#396=CARTESIAN_POINT('',(7.55268464412459,2.32563238066647,0.));
#397=CARTESIAN_POINT('',(7.9252207270471,2.63148247451961,0.));
#398=CARTESIAN_POINT('',(8.09134446505603,2.80732260260853,0.));
#399=CARTESIAN_POINT('',(8.37938088357179,3.20159788919332,0.));
#400=CARTESIAN_POINT('',(8.49588134328235,3.41200826119608,0.));
#401=CARTESIAN_POINT('',(8.67983045036869,3.85648833085806,0.));
#402=CARTESIAN_POINT('',(8.74734066977528,4.09367579412647,0.));
#403=CARTESIAN_POINT('',(8.82836564906826,4.56898157601501,0.));
#404=CARTESIAN_POINT('',(8.84320488035452,4.80874724549851,0.));
#405=CARTESIAN_POINT('',(8.82339139938209,5.29235151960757,0.));
#406=CARTESIAN_POINT('',(8.78808171333634,5.53483718369623,0.));
#407=CARTESIAN_POINT('',(8.67219679218854,6.00134926024293,0.));
#408=CARTESIAN_POINT('',(8.5915762470323,6.22827505159779,0.));
#409=CARTESIAN_POINT('',(8.38416702546442,6.6692394934403,0.));
#410=CARTESIAN_POINT('',(8.26038074486408,6.87666643521404,0.));
#411=CARTESIAN_POINT('',(7.97636105888747,7.26438946272208,0.));
#412=CARTESIAN_POINT('',(7.81436262877876,7.44650208976135,0.));
#413=CARTESIAN_POINT('',(7.45876497799899,7.7766164835893,0.));
#414=CARTESIAN_POINT('',(7.26775040060087,7.92279696748024,0.));
#415=CARTESIAN_POINT('',(6.86012243003979,8.17859387907973,0.));
#416=CARTESIAN_POINT('',(6.64099443607849,8.28899760178538,0.));
#417=CARTESIAN_POINT('',(6.19102771837784,8.46493330489063,0.));
#418=CARTESIAN_POINT('',(5.96000724535694,8.53124625009948,0.));
#419=CARTESIAN_POINT('',(5.48597715646927,8.62086752636974,0.));
#420=CARTESIAN_POINT('',(5.24140628452095,8.64376031350078,0.));
#421=CARTESIAN_POINT('',(4.7596278428051,8.64382430356035,0.));
#422=CARTESIAN_POINT('',(4.52017945034744,8.62169340585402,0.));
#423=CARTESIAN_POINT('',(4.04421185105276,8.53237473433938,0.));
#424=CARTESIAN_POINT('',(3.80913406360685,8.46491728179451,0.));
#425=CARTESIAN_POINT('',(3.36105660810819,8.28987844302267,0.));
#426=CARTESIAN_POINT('',(3.145642188583,8.18193142493968,0.));
#427=CARTESIAN_POINT('',(2.73280536554734,7.92342136980171,0.));
#428=CARTESIAN_POINT('',(2.54098555526266,7.77624743232829,0.));
#429=CARTESIAN_POINT('',(2.18823176280011,7.44904711017315,0.));
#430=CARTESIAN_POINT('',(2.02553352866124,7.26686666664122,0.));
#431=CARTESIAN_POINT('',(1.73891427306482,6.87581274204442,0.));
#432=CARTESIAN_POINT('',(1.61581657149108,6.6688988500852,0.));
#433=CARTESIAN_POINT('',(1.41014615736965,6.232240228847,0.));
#434=CARTESIAN_POINT('',(1.32755069585983,6.00075072326351,0.));
#435=CARTESIAN_POINT('',(1.21143528031702,5.53247212796935,0.));
#436=CARTESIAN_POINT('',(1.17664419826515,5.29377738198699,0.));
#437=CARTESIAN_POINT('',(1.15673256775762,4.80666273467273,0.));
#438=CARTESIAN_POINT('',(1.1719846317193,4.56507174104856,0.));
#439=CARTESIAN_POINT('',(1.25378287414329,4.08897378727177,0.));
#440=CARTESIAN_POINT('',(1.3214893372911,3.85223566599642,0.));
#441=CARTESIAN_POINT('',(1.50690164094519,3.4063711591794,0.));
#442=CARTESIAN_POINT('',(1.62630601535284,3.19256572301316,0.));
#443=CARTESIAN_POINT('',(1.91368309570975,2.80173590486622,0.));
#444=CARTESIAN_POINT('',(2.07911565108743,2.62711139440781,0.));
#445=CARTESIAN_POINT('',(2.36071345564841,2.39715664511705,0.));
#446=CARTESIAN_POINT('',(2.46066684259856,2.32570542019978,0.));
#447=CARTESIAN_POINT('',(2.66603825389187,2.19736213868402,0.));
#448=CARTESIAN_POINT('',(2.77205854854424,2.13990173087189,0.));
#449=CARTESIAN_POINT('',(3.0992529470847,1.98590272601702,0.));
#450=CARTESIAN_POINT('',(3.33192861124168,1.90742055226218,0.));
#451=CARTESIAN_POINT('',(3.80122715692994,1.79263893419864,0.));
#452=CARTESIAN_POINT('',(4.03855522669867,1.75519465938954,0.));
#453=CARTESIAN_POINT('',(4.51676714206674,1.70678269843743,0.));
#454=CARTESIAN_POINT('',(4.7576432065902,1.6957570737869,0.));
#455=CARTESIAN_POINT('',(5.2423567934098,1.6957570737869,0.));
#456=CARTESIAN_POINT('',(0.,0.,0.));
#457=CARTESIAN_POINT('',(3.00000000000007,2.03556884045548,0.));
#458=CARTESIAN_POINT('',(5.,1.01247120136352,5.20985803061395));
#459=CARTESIAN_POINT('',(10.,1.01247120136352,5.20985803061395));
#460=CARTESIAN_POINT('',(5.,-4.68163632,2.5));
#461=CARTESIAN_POINT('',(10.,-4.68163632,2.5));
#462=CARTESIAN_POINT('',(10.,-4.68163632,2.5));
#463=CARTESIAN_POINT('',(10.,-7.60339936453749,-2.9714527950962));
#464=CARTESIAN_POINT('',(10.,-3.32010716347701,-7.4577544900032));
#465=CARTESIAN_POINT('',(10.,2.28068538020381,-4.79230558596462));
#466=CARTESIAN_POINT('',(10.,7.88147792388462,-2.12685668192605));
#467=CARTESIAN_POINT('',(10.,7.1012594658174,4.02657765469299));
#468=CARTESIAN_POINT('',(10.,1.01247120136352,5.20985803061395));
#469=CARTESIAN_POINT('',(10.,5.31836368,2.5));
#470=CARTESIAN_POINT('',(10.,2.39660063546251,8.71559938305378));
#471=CARTESIAN_POINT('',(10.,-4.42096022957421,7.88419164279443));
#472=CARTESIAN_POINT('',(10.,-5.76331128519463,1.14857967189542));
#473=CARTESIAN_POINT('',(10.,-7.10566234081504,-5.5870322990036));
#474=CARTESIAN_POINT('',(10.,-1.12768885562668,-8.96848287374636));
#475=CARTESIAN_POINT('',(10.,3.95364767195175,-4.34783421013424));
#476=CARTESIAN_POINT('',(-5.10076676829453E-16,5.31836368,2.5));
#477=CARTESIAN_POINT('',(-5.10076676829453E-16,2.39660063546251,8.71559938305378));
#478=CARTESIAN_POINT('',(-5.10076676829453E-16,-4.42096022957421,7.88419164279443));
#479=CARTESIAN_POINT('',(-5.10076676829453E-16,-5.76331128519463,1.14857967189542));
#480=CARTESIAN_POINT('',(-5.10076676829453E-16,-7.10566234081504,-5.5870322990036));
#481=CARTESIAN_POINT('',(-5.10076676829453E-16,-1.12768885562668,-8.96848287374636));
#482=CARTESIAN_POINT('',(-5.10076676829453E-16,3.95364767195175,-4.34783421013424));
#483=CARTESIAN_POINT('',(-1.7347234759768E-15,-4.68163632,2.5));
#484=CARTESIAN_POINT('',(-1.73472347597681E-15,-7.60339936453749,-2.9714527950962));
#485=CARTESIAN_POINT('',(-1.73472347597681E-15,-3.32010716347701,-7.4577544900032));
#486=CARTESIAN_POINT('',(-1.7347234759768E-15,2.28068538020381,-4.79230558596462));
#487=CARTESIAN_POINT('',(-1.73472347597681E-15,7.88147792388462,-2.12685668192605));
#488=CARTESIAN_POINT('',(-1.73472347597681E-15,7.1012594658174,4.02657765469299));
#489=CARTESIAN_POINT('',(-1.7347234759768E-15,1.01247120136352,5.20985803061395));
#490=CARTESIAN_POINT('',(-2.95937027512416E-15,-14.68163632,2.5));
#491=CARTESIAN_POINT('',(-2.95937027512416E-15,-17.6033993645375,-14.6585049732462));
#492=CARTESIAN_POINT('',(-2.95937027512416E-15,-2.21925409737979,-22.7997006228008));
#493=CARTESIAN_POINT('',(-2.95937027512416E-15,10.3246820456022,-10.7331908438247));
#494=CARTESIAN_POINT('',(-2.95937027512416E-15,22.8686181885843,1.3333189351515));
#495=CARTESIAN_POINT('',(-2.95937027512416E-15,15.3302077872615,17.0216381831323));
#496=CARTESIAN_POINT('',(-2.95937027512416E-15,-1.92870526922472,14.7675502713621));
#497=CARTESIAN_POINT('',(10.,-14.68163632,2.5));
#498=CARTESIAN_POINT('',(10.,-17.6033993645375,-14.6585049732462));
#499=CARTESIAN_POINT('',(10.,-2.21925409737979,-22.7997006228008));
#500=CARTESIAN_POINT('',(10.,10.3246820456023,-10.7331908438247));
#501=CARTESIAN_POINT('',(10.,22.8686181885843,1.3333189351515));
#502=CARTESIAN_POINT('',(10.,15.3302077872615,17.0216381831323));
#503=CARTESIAN_POINT('',(10.,-1.92870526922472,14.7675502713621));
#504=CARTESIAN_POINT('',(10.,-4.68163632,2.5));
#505=CARTESIAN_POINT('',(10.,-7.60339936453749,-2.9714527950962));
#506=CARTESIAN_POINT('',(10.,-3.32010716347701,-7.4577544900032));
#507=CARTESIAN_POINT('',(10.,2.28068538020381,-4.79230558596462));
#508=CARTESIAN_POINT('',(10.,7.88147792388462,-2.12685668192605));
#509=CARTESIAN_POINT('',(10.,7.1012594658174,4.02657765469299));
#510=CARTESIAN_POINT('',(10.,1.01247120136352,5.20985803061395));
#511=CARTESIAN_POINT('',(10.,1.01247120136352,5.20985803061395));
#512=CARTESIAN_POINT('',(10.,-1.3603574311155,5.67098780459988));
#513=CARTESIAN_POINT('',(10.,-3.54301189946114,4.63225017681347));
#514=CARTESIAN_POINT('',(10.,-4.68163632,2.5));
#515=CARTESIAN_POINT('',(10.,3.95364767195175,-4.34783421013424));
#516=CARTESIAN_POINT('',(10.,5.933867755197,-2.54714629433789));
#517=CARTESIAN_POINT('',(10.,6.45698810053886,0.0777524946580319));
#518=CARTESIAN_POINT('',(10.,5.31836368,2.5));
#519=CARTESIAN_POINT('',(-5.10076676829453E-16,3.95364767195175,-4.34783421013424));
#520=CARTESIAN_POINT('',(-5.10076676829453E-16,5.933867755197,-2.54714629433789));
#521=CARTESIAN_POINT('',(-5.10076676829453E-16,6.45698810053886,0.0777524946580319));
#522=CARTESIAN_POINT('',(-5.10076676829453E-16,5.31836368,2.5));
#523=CARTESIAN_POINT('',(-1.7347234759768E-15,1.01247120136352,5.20985803061395));
#524=CARTESIAN_POINT('',(-1.7347234759768E-15,-1.3603574311155,5.67098780459988));
#525=CARTESIAN_POINT('',(-1.7347234759768E-15,-3.54301189946114,4.63225017681347));
#526=CARTESIAN_POINT('',(-1.7347234759768E-15,-4.68163632,2.5));
#527=CARTESIAN_POINT('',(-2.95937027512416E-15,-1.92870526922472,14.7675502713621));
#528=CARTESIAN_POINT('',(-2.95937027512416E-15,-8.65458261742799,13.8891219035376));
#529=CARTESIAN_POINT('',(-2.95937027512416E-15,-13.5430118994611,9.1867478589689));
#530=CARTESIAN_POINT('',(-2.95937027512416E-15,-14.68163632,2.5));
#531=CARTESIAN_POINT('',(10.,-1.92870526922472,14.7675502713621));
#532=CARTESIAN_POINT('',(10.,-8.65458261742799,13.8891219035376));
#533=CARTESIAN_POINT('',(10.,-13.5430118994611,9.1867478589689));
#534=CARTESIAN_POINT('',(10.,-14.68163632,2.5));
#535=CARTESIAN_POINT('',(10.,1.01247120136352,5.20985803061395));
#536=CARTESIAN_POINT('',(10.,-1.3603574311155,5.67098780459988));
#537=CARTESIAN_POINT('',(10.,-3.54301189946114,4.63225017681347));
#538=CARTESIAN_POINT('',(10.,-4.68163632,2.5));
#539=MECHANICAL_DESIGN_GEOMETRIC_PRESENTATION_REPRESENTATION('',(#35,#36),
#540);
#540=(
GEOMETRIC_REPRESENTATION_CONTEXT(3)
GLOBAL_UNCERTAINTY_ASSIGNED_CONTEXT((#541))
GLOBAL_UNIT_ASSIGNED_CONTEXT((#547,#543,#542))
REPRESENTATION_CONTEXT('AEMRC-RD10T3-D20-M10-L30-Z02',
'TOP_LEVEL_ASSEMBLY_PART')
);
#541=UNCERTAINTY_MEASURE_WITH_UNIT(LENGTH_MEASURE(2.E-5),#547,
'DISTANCE_ACCURACY_VALUE','Maximum Tolerance applied to model');
#542=(
NAMED_UNIT(*)
SI_UNIT($,.STERADIAN.)
SOLID_ANGLE_UNIT()
);
#543=(
CONVERSION_BASED_UNIT('DEGREE',#545)
NAMED_UNIT(#544)
PLANE_ANGLE_UNIT()
);
#544=DIMENSIONAL_EXPONENTS(0.,0.,0.,0.,0.,0.,0.);
#545=PLANE_ANGLE_MEASURE_WITH_UNIT(PLANE_ANGLE_MEASURE(0.0174532925),#546);
#546=(
NAMED_UNIT(*)
PLANE_ANGLE_UNIT()
SI_UNIT($,.RADIAN.)
);
#547=(
LENGTH_UNIT()
NAMED_UNIT(*)
SI_UNIT(.MILLI.,.METRE.)
);
ENDSEC;
END-ISO-10303-21;
