ISO-10303-21;
HEADER;
/* Generated by software containing ST-Developer
 * from STEP Tools, Inc. (www.steptools.com) 
 */
/* OPTION: using custom schema-name function */

FILE_DESCRIPTION(
/* description */ (''),
/* implementation_level */ '2;1');

FILE_NAME(
/* name */ 'model1.stp',
/* time_stamp */ '2023-11-06T16:52:41+03:00',
/* author */ (''),
/* organization */ (''),
/* preprocessor_version */ 'ST-DEVELOPER v19.4',
/* originating_system */ 'SIEMENS PLM Software NX2306.3001',
/* authorisation */ '');

FILE_SCHEMA (('AUTOMOTIVE_DESIGN { 1 0 10303 214 3 1 1 1 }'));
ENDSEC;

DATA;
#10=PROPERTY_DEFINITION_REPRESENTATION(#14,#12);
#11=PROPERTY_DEFINITION_REPRESENTATION(#15,#13);
#12=REPRESENTATION('',(#16),#490);
#13=REPRESENTATION('',(#17),#490);
#14=PROPERTY_DEFINITION('pmi validation property','',#21);
#15=PROPERTY_DEFINITION('pmi validation property','',#21);
#16=VALUE_REPRESENTATION_ITEM('number of annotations',COUNT_MEASURE(0.));
#17=VALUE_REPRESENTATION_ITEM('number of views',COUNT_MEASURE(0.));
#18=SHAPE_REPRESENTATION_RELATIONSHIP('None',
'relationship between model1_objects-None and model1_objects-None',#30,
#19);
#19=ADVANCED_BREP_SHAPE_REPRESENTATION('model1_objects-None',(#133,#134),
#490);
#20=SHAPE_DEFINITION_REPRESENTATION(#21,#30);
#21=PRODUCT_DEFINITION_SHAPE('','',#22);
#22=PRODUCT_DEFINITION(' ','',#24,#23);
#23=PRODUCT_DEFINITION_CONTEXT('part definition',#29,'design');
#24=PRODUCT_DEFINITION_FORMATION_WITH_SPECIFIED_SOURCE(' ',' ',#26,
 .NOT_KNOWN.);
#25=PRODUCT_RELATED_PRODUCT_CATEGORY('part','',(#26));
#26=PRODUCT('model1_objects','model1_objects',' ',(#27));
#27=PRODUCT_CONTEXT(' ',#29,'mechanical');
#28=APPLICATION_PROTOCOL_DEFINITION('international standard',
'automotive_design',2010,#29);
#29=APPLICATION_CONTEXT(
'core data for automotive mechanical design processes');
#30=SHAPE_REPRESENTATION('model1_objects-None',(#248),#490);
#31=OVER_RIDING_STYLED_ITEM('',(#62),#139,#59);
#32=OVER_RIDING_STYLED_ITEM('',(#63),#140,#59);
#33=OVER_RIDING_STYLED_ITEM('',(#64),#141,#59);
#34=OVER_RIDING_STYLED_ITEM('',(#65),#142,#59);
#35=OVER_RIDING_STYLED_ITEM('',(#66),#143,#59);
#36=OVER_RIDING_STYLED_ITEM('',(#67),#144,#59);
#37=OVER_RIDING_STYLED_ITEM('',(#68),#145,#59);
#38=OVER_RIDING_STYLED_ITEM('',(#69),#146,#59);
#39=OVER_RIDING_STYLED_ITEM('',(#70),#147,#59);
#40=OVER_RIDING_STYLED_ITEM('',(#71),#148,#59);
#41=COLOUR_RGB('Medium Steel',0.611764705882353,0.658823529411765,0.670588235294118);
#42=COLOUR_RGB('silver gray',0.6,0.6,0.6);
#43=TOROIDAL_SURFACE('',#265,8.75,1.);
#44=PLANE('',#261);
#45=PLANE('',#263);
#46=FACE_OUTER_BOUND('',#185,.T.);
#47=FACE_OUTER_BOUND('',#186,.T.);
#48=SURFACE_OF_REVOLUTION('',#50,#49);
#49=AXIS1_PLACEMENT('',#478,#295);
#50=B_SPLINE_CURVE_WITH_KNOTS('',3,(#410,#411,#412,#413,#414,#415,#416,
#417,#418,#419,#420,#421,#422,#423,#424,#425,#426,#427,#428,#429,#430,#431,
#432,#433,#434,#435,#436,#437,#438,#439,#440,#441,#442,#443,#444,#445,#446,
#447,#448,#449,#450,#451,#452,#453,#454,#455,#456,#457,#458,#459,#460,#461,
#462,#463,#464,#465,#466,#467,#468,#469,#470,#471,#472,#473,#474,#475,#476,
#477),.UNSPECIFIED.,.T.,.F.,(2,2,2,2,2,2,2,2,2,2,2,2,2,2,2,2,2,2,2,2,2,
2,2,2,2,2,2,2,2,2,2,2,2,2,2,2),(-0.03125,0.,0.03125,0.0625,0.09375,0.125,
0.15625,0.1875,0.21875,0.25,0.28125,0.3125,0.34375,0.375,0.40625,0.4375,
0.46875,0.5,0.53125,0.5625,0.59375,0.625,0.65625,0.6875,0.71875,0.75,0.78125,
0.8125,0.84375,0.875,0.890625,0.90625,0.9375,0.96875,1.,1.03125),
 .UNSPECIFIED.);
#51=CONICAL_SURFACE('',#255,10.,45.0000000000004);
#52=CONICAL_SURFACE('',#257,9.75,3.3664606634298);
#53=CONICAL_SURFACE('',#268,9.75,9.99999999999998);
#54=CYLINDRICAL_SURFACE('',#253,10.);
#55=CYLINDRICAL_SURFACE('',#259,8.);
#56=CYLINDRICAL_SURFACE('',#267,9.75);
#57=PRESENTATION_LAYER_ASSIGNMENT('1','Layer 1',(#133,#134));
#58=STYLED_ITEM('',(#60),#133);
#59=STYLED_ITEM('',(#61),#134);
#60=PRESENTATION_STYLE_ASSIGNMENT((#72));
#61=PRESENTATION_STYLE_ASSIGNMENT((#73));
#62=PRESENTATION_STYLE_ASSIGNMENT((#74));
#63=PRESENTATION_STYLE_ASSIGNMENT((#75));
#64=PRESENTATION_STYLE_ASSIGNMENT((#76));
#65=PRESENTATION_STYLE_ASSIGNMENT((#77));
#66=PRESENTATION_STYLE_ASSIGNMENT((#78));
#67=PRESENTATION_STYLE_ASSIGNMENT((#79));
#68=PRESENTATION_STYLE_ASSIGNMENT((#80));
#69=PRESENTATION_STYLE_ASSIGNMENT((#81));
#70=PRESENTATION_STYLE_ASSIGNMENT((#82));
#71=PRESENTATION_STYLE_ASSIGNMENT((#83));
#72=SURFACE_STYLE_USAGE(.BOTH.,#84);
#73=SURFACE_STYLE_USAGE(.BOTH.,#85);
#74=SURFACE_STYLE_USAGE(.BOTH.,#86);
#75=SURFACE_STYLE_USAGE(.BOTH.,#87);
#76=SURFACE_STYLE_USAGE(.BOTH.,#88);
#77=SURFACE_STYLE_USAGE(.BOTH.,#89);
#78=SURFACE_STYLE_USAGE(.BOTH.,#90);
#79=SURFACE_STYLE_USAGE(.BOTH.,#91);
#80=SURFACE_STYLE_USAGE(.BOTH.,#92);
#81=SURFACE_STYLE_USAGE(.BOTH.,#93);
#82=SURFACE_STYLE_USAGE(.BOTH.,#94);
#83=SURFACE_STYLE_USAGE(.BOTH.,#95);
#84=SURFACE_SIDE_STYLE('',(#96));
#85=SURFACE_SIDE_STYLE('',(#97));
#86=SURFACE_SIDE_STYLE('',(#98));
#87=SURFACE_SIDE_STYLE('',(#99));
#88=SURFACE_SIDE_STYLE('',(#100));
#89=SURFACE_SIDE_STYLE('',(#101));
#90=SURFACE_SIDE_STYLE('',(#102));
#91=SURFACE_SIDE_STYLE('',(#103));
#92=SURFACE_SIDE_STYLE('',(#104));
#93=SURFACE_SIDE_STYLE('',(#105));
#94=SURFACE_SIDE_STYLE('',(#106));
#95=SURFACE_SIDE_STYLE('',(#107));
#96=SURFACE_STYLE_FILL_AREA(#108);
#97=SURFACE_STYLE_FILL_AREA(#109);
#98=SURFACE_STYLE_FILL_AREA(#110);
#99=SURFACE_STYLE_FILL_AREA(#111);
#100=SURFACE_STYLE_FILL_AREA(#112);
#101=SURFACE_STYLE_FILL_AREA(#113);
#102=SURFACE_STYLE_FILL_AREA(#114);
#103=SURFACE_STYLE_FILL_AREA(#115);
#104=SURFACE_STYLE_FILL_AREA(#116);
#105=SURFACE_STYLE_FILL_AREA(#117);
#106=SURFACE_STYLE_FILL_AREA(#118);
#107=SURFACE_STYLE_FILL_AREA(#119);
#108=FILL_AREA_STYLE('',(#120));
#109=FILL_AREA_STYLE('',(#121));
#110=FILL_AREA_STYLE('',(#122));
#111=FILL_AREA_STYLE('',(#123));
#112=FILL_AREA_STYLE('',(#124));
#113=FILL_AREA_STYLE('',(#125));
#114=FILL_AREA_STYLE('',(#126));
#115=FILL_AREA_STYLE('',(#127));
#116=FILL_AREA_STYLE('',(#128));
#117=FILL_AREA_STYLE('',(#129));
#118=FILL_AREA_STYLE('',(#130));
#119=FILL_AREA_STYLE('',(#131));
#120=FILL_AREA_STYLE_COLOUR('',#132);
#121=FILL_AREA_STYLE_COLOUR('',#41);
#122=FILL_AREA_STYLE_COLOUR('',#42);
#123=FILL_AREA_STYLE_COLOUR('',#42);
#124=FILL_AREA_STYLE_COLOUR('',#42);
#125=FILL_AREA_STYLE_COLOUR('',#42);
#126=FILL_AREA_STYLE_COLOUR('',#42);
#127=FILL_AREA_STYLE_COLOUR('',#42);
#128=FILL_AREA_STYLE_COLOUR('',#42);
#129=FILL_AREA_STYLE_COLOUR('',#42);
#130=FILL_AREA_STYLE_COLOUR('',#42);
#131=FILL_AREA_STYLE_COLOUR('',#42);
#132=DRAUGHTING_PRE_DEFINED_COLOUR('yellow');
#133=MANIFOLD_SOLID_BREP('',#135);
#134=MANIFOLD_SOLID_BREP('',#136);
#135=CLOSED_SHELL('',(#137,#138));
#136=CLOSED_SHELL('',(#139,#140,#141,#142,#143,#144,#145,#146,#147,#148));
#137=ADVANCED_FACE('',(#151,#152),#149,.F.);
#138=ADVANCED_FACE('',(#153,#154),#150,.F.);
#139=ADVANCED_FACE('',(#155,#156),#54,.T.);
#140=ADVANCED_FACE('',(#157,#158),#51,.T.);
#141=ADVANCED_FACE('',(#159,#160),#52,.T.);
#142=ADVANCED_FACE('',(#161,#162),#55,.T.);
#143=ADVANCED_FACE('',(#163,#164),#48,.T.);
#144=ADVANCED_FACE('',(#46),#44,.F.);
#145=ADVANCED_FACE('',(#47),#45,.F.);
#146=ADVANCED_FACE('',(#165,#166),#43,.T.);
#147=ADVANCED_FACE('',(#167,#168),#56,.T.);
#148=ADVANCED_FACE('',(#169,#170),#53,.T.);
#149=(
BOUNDED_SURFACE()
B_SPLINE_SURFACE(3,3,((#317,#318,#319,#320,#321,#322,#323),(#324,#325,#326,
#327,#328,#329,#330),(#331,#332,#333,#334,#335,#336,#337),(#338,#339,#340,
#341,#342,#343,#344),(#345,#346,#347,#348,#349,#350,#351),(#352,#353,#354,
#355,#356,#357,#358),(#359,#360,#361,#362,#363,#364,#365)),
 .UNSPECIFIED.,.T.,.F.,.F.)
B_SPLINE_SURFACE_WITH_KNOTS((1,3,3,3,1),(4,3,4),(-0.5,0.,0.5,1.,1.5),(0.,
0.5,1.),.UNSPECIFIED.)
GEOMETRIC_REPRESENTATION_ITEM()
RATIONAL_B_SPLINE_SURFACE(((1.,0.538763728519753,0.538763728519753,1.,0.538763728519753,
0.538763728519753,1.),(0.333333333333334,0.179587909506584,0.179587909506584,
0.333333333333334,0.179587909506584,0.179587909506584,0.333333333333334),
(0.333333333333334,0.179587909506584,0.179587909506584,0.333333333333334,
0.179587909506584,0.179587909506584,0.333333333333334),(1.,0.538763728519753,
0.538763728519753,1.,0.538763728519753,0.538763728519753,1.),(0.333333333333334,
0.179587909506584,0.179587909506584,0.333333333333334,0.179587909506584,
0.179587909506584,0.333333333333334),(0.333333333333334,0.179587909506584,
0.179587909506584,0.333333333333334,0.179587909506584,0.179587909506584,
0.333333333333334),(1.,0.538763728519753,0.538763728519753,1.,0.538763728519753,
0.538763728519753,1.)))
REPRESENTATION_ITEM('')
SURFACE()
);
#150=(
BOUNDED_SURFACE()
B_SPLINE_SURFACE(3,3,((#366,#367,#368,#369),(#370,#371,#372,#373),(#374,
#375,#376,#377),(#378,#379,#380,#381),(#382,#383,#384,#385),(#386,#387,
#388,#389),(#390,#391,#392,#393)),.UNSPECIFIED.,.T.,.F.,.F.)
B_SPLINE_SURFACE_WITH_KNOTS((1,3,3,3,1),(4,4),(-0.5,0.,0.5,1.,1.5),(0.,
1.),.UNSPECIFIED.)
GEOMETRIC_REPRESENTATION_ITEM()
RATIONAL_B_SPLINE_SURFACE(((1.,0.873395058200655,0.873395058200655,1.),
(0.333333333333334,0.291131686066885,0.291131686066885,0.333333333333334),
(0.333333333333334,0.291131686066885,0.291131686066885,0.333333333333334),
(1.,0.873395058200655,0.873395058200655,1.),(0.333333333333334,0.291131686066885,
0.291131686066885,0.333333333333334),(0.333333333333334,0.291131686066885,
0.291131686066885,0.333333333333334),(1.,0.873395058200655,0.873395058200655,
1.)))
REPRESENTATION_ITEM('')
SURFACE()
);
#151=FACE_BOUND('',#171,.T.);
#152=FACE_BOUND('',#172,.T.);
#153=FACE_BOUND('',#173,.T.);
#154=FACE_BOUND('',#174,.T.);
#155=FACE_BOUND('',#175,.T.);
#156=FACE_BOUND('',#176,.T.);
#157=FACE_BOUND('',#177,.T.);
#158=FACE_BOUND('',#178,.T.);
#159=FACE_BOUND('',#179,.T.);
#160=FACE_BOUND('',#180,.T.);
#161=FACE_BOUND('',#181,.T.);
#162=FACE_BOUND('',#182,.T.);
#163=FACE_BOUND('',#183,.T.);
#164=FACE_BOUND('',#184,.T.);
#165=FACE_BOUND('',#187,.T.);
#166=FACE_BOUND('',#188,.T.);
#167=FACE_BOUND('',#189,.T.);
#168=FACE_BOUND('',#190,.T.);
#169=FACE_BOUND('',#191,.T.);
#170=FACE_BOUND('',#192,.T.);
#171=EDGE_LOOP('',(#193));
#172=EDGE_LOOP('',(#194));
#173=EDGE_LOOP('',(#195));
#174=EDGE_LOOP('',(#196));
#175=EDGE_LOOP('',(#197));
#176=EDGE_LOOP('',(#198));
#177=EDGE_LOOP('',(#199));
#178=EDGE_LOOP('',(#200));
#179=EDGE_LOOP('',(#201));
#180=EDGE_LOOP('',(#202));
#181=EDGE_LOOP('',(#203));
#182=EDGE_LOOP('',(#204));
#183=EDGE_LOOP('',(#205));
#184=EDGE_LOOP('',(#206));
#185=EDGE_LOOP('',(#207));
#186=EDGE_LOOP('',(#208));
#187=EDGE_LOOP('',(#209));
#188=EDGE_LOOP('',(#210));
#189=EDGE_LOOP('',(#211));
#190=EDGE_LOOP('',(#212));
#191=EDGE_LOOP('',(#213));
#192=EDGE_LOOP('',(#214));
#193=ORIENTED_EDGE('',*,*,#226,.T.);
#194=ORIENTED_EDGE('',*,*,#227,.F.);
#195=ORIENTED_EDGE('',*,*,#227,.T.);
#196=ORIENTED_EDGE('',*,*,#226,.F.);
#197=ORIENTED_EDGE('',*,*,#228,.F.);
#198=ORIENTED_EDGE('',*,*,#229,.T.);
#199=ORIENTED_EDGE('',*,*,#230,.F.);
#200=ORIENTED_EDGE('',*,*,#228,.T.);
#201=ORIENTED_EDGE('',*,*,#231,.F.);
#202=ORIENTED_EDGE('',*,*,#230,.T.);
#203=ORIENTED_EDGE('',*,*,#232,.F.);
#204=ORIENTED_EDGE('',*,*,#231,.T.);
#205=ORIENTED_EDGE('',*,*,#233,.F.);
#206=ORIENTED_EDGE('',*,*,#232,.T.);
#207=ORIENTED_EDGE('',*,*,#233,.T.);
#208=ORIENTED_EDGE('',*,*,#234,.F.);
#209=ORIENTED_EDGE('',*,*,#235,.F.);
#210=ORIENTED_EDGE('',*,*,#234,.T.);
#211=ORIENTED_EDGE('',*,*,#236,.F.);
#212=ORIENTED_EDGE('',*,*,#235,.T.);
#213=ORIENTED_EDGE('',*,*,#229,.F.);
#214=ORIENTED_EDGE('',*,*,#236,.T.);
#215=VERTEX_POINT('',#314);
#216=VERTEX_POINT('',#316);
#217=VERTEX_POINT('',#395);
#218=VERTEX_POINT('',#397);
#219=VERTEX_POINT('',#400);
#220=VERTEX_POINT('',#403);
#221=VERTEX_POINT('',#406);
#222=VERTEX_POINT('',#409);
#223=VERTEX_POINT('',#481);
#224=VERTEX_POINT('',#484);
#225=VERTEX_POINT('',#487);
#226=EDGE_CURVE('',#215,#215,#237,.T.);
#227=EDGE_CURVE('',#216,#216,#238,.T.);
#228=EDGE_CURVE('',#217,#217,#239,.T.);
#229=EDGE_CURVE('',#218,#218,#240,.T.);
#230=EDGE_CURVE('',#219,#219,#241,.T.);
#231=EDGE_CURVE('',#220,#220,#242,.T.);
#232=EDGE_CURVE('',#221,#221,#243,.T.);
#233=EDGE_CURVE('',#222,#222,#244,.T.);
#234=EDGE_CURVE('',#223,#223,#245,.T.);
#235=EDGE_CURVE('',#224,#224,#246,.T.);
#236=EDGE_CURVE('',#225,#225,#247,.T.);
#237=CIRCLE('',#249,5.);
#238=CIRCLE('',#250,5.);
#239=CIRCLE('',#251,10.);
#240=CIRCLE('',#252,10.);
#241=CIRCLE('',#254,9.75);
#242=CIRCLE('',#256,8.);
#243=CIRCLE('',#258,8.);
#244=CIRCLE('',#260,2.03556884045548);
#245=CIRCLE('',#262,8.75);
#246=CIRCLE('',#264,9.75);
#247=CIRCLE('',#266,9.75);
#248=AXIS2_PLACEMENT_3D('',#312,#269,#270);
#249=AXIS2_PLACEMENT_3D('',#313,#271,#272);
#250=AXIS2_PLACEMENT_3D('',#315,#273,#274);
#251=AXIS2_PLACEMENT_3D('',#394,#275,#276);
#252=AXIS2_PLACEMENT_3D('',#396,#277,#278);
#253=AXIS2_PLACEMENT_3D('',#398,#279,#280);
#254=AXIS2_PLACEMENT_3D('',#399,#281,#282);
#255=AXIS2_PLACEMENT_3D('',#401,#283,#284);
#256=AXIS2_PLACEMENT_3D('',#402,#285,#286);
#257=AXIS2_PLACEMENT_3D('',#404,#287,#288);
#258=AXIS2_PLACEMENT_3D('',#405,#289,#290);
#259=AXIS2_PLACEMENT_3D('',#407,#291,#292);
#260=AXIS2_PLACEMENT_3D('',#408,#293,#294);
#261=AXIS2_PLACEMENT_3D('',#479,#296,#297);
#262=AXIS2_PLACEMENT_3D('',#480,#298,#299);
#263=AXIS2_PLACEMENT_3D('',#482,#300,#301);
#264=AXIS2_PLACEMENT_3D('',#483,#302,#303);
#265=AXIS2_PLACEMENT_3D('',#485,#304,#305);
#266=AXIS2_PLACEMENT_3D('',#486,#306,#307);
#267=AXIS2_PLACEMENT_3D('',#488,#308,#309);
#268=AXIS2_PLACEMENT_3D('',#489,#310,#311);
#269=DIRECTION('',(0.,0.,1.));
#270=DIRECTION('',(1.,0.,0.));
#271=DIRECTION('',(0.,0.949917759598167,0.3125));
#272=DIRECTION('',(1.,0.,0.));
#273=DIRECTION('',(0.,0.,1.));
#274=DIRECTION('',(1.,0.,0.));
#275=DIRECTION('',(-1.,0.,0.));
#276=DIRECTION('',(0.,0.,1.));
#277=DIRECTION('',(-1.,0.,0.));
#278=DIRECTION('',(0.,0.,1.));
#279=DIRECTION('',(-1.,0.,0.));
#280=DIRECTION('',(0.,0.,1.));
#281=DIRECTION('',(-1.,0.,0.));
#282=DIRECTION('',(0.,0.,1.));
#283=DIRECTION('',(1.,0.,0.));
#284=DIRECTION('',(5.49615358725317E-17,0.,-1.));
#285=DIRECTION('',(-1.,0.,0.));
#286=DIRECTION('',(0.,0.,1.));
#287=DIRECTION('',(1.,0.,0.));
#288=DIRECTION('',(-4.04756410435936E-16,0.,-1.));
#289=DIRECTION('',(-1.,0.,0.));
#290=DIRECTION('',(0.,0.,1.));
#291=DIRECTION('',(-1.,0.,0.));
#292=DIRECTION('',(0.,0.,1.));
#293=DIRECTION('',(-1.,0.,0.));
#294=DIRECTION('',(0.,0.,1.));
#295=DIRECTION('',(-1.,0.,0.));
#296=DIRECTION('',(1.,0.,0.));
#297=DIRECTION('',(0.,0.,-1.));
#298=DIRECTION('',(-1.,0.,0.));
#299=DIRECTION('',(0.,0.,1.));
#300=DIRECTION('',(-1.,0.,0.));
#301=DIRECTION('',(0.,0.,1.));
#302=DIRECTION('',(-1.,0.,0.));
#303=DIRECTION('',(0.,0.,1.));
#304=DIRECTION('',(-1.,0.,0.));
#305=DIRECTION('',(0.,0.,1.));
#306=DIRECTION('',(-1.,0.,0.));
#307=DIRECTION('',(0.,0.,1.));
#308=DIRECTION('',(-1.,0.,0.));
#309=DIRECTION('',(0.,0.,1.));
#310=DIRECTION('',(-1.,0.,0.));
#311=DIRECTION('',(1.4916179051247E-16,0.,1.));
#312=CARTESIAN_POINT('',(0.,0.,0.));
#313=CARTESIAN_POINT('',(5.,0.911783048995422,5.2284194843478));
#314=CARTESIAN_POINT('',(10.,0.911783048995422,5.2284194843478));
#315=CARTESIAN_POINT('',(5.,-4.68163632,2.5));
#316=CARTESIAN_POINT('',(10.,-4.68163632,2.5));
#317=CARTESIAN_POINT('',(10.,-4.68163632,2.5));
#318=CARTESIAN_POINT('',(10.,-7.62460606181729,-3.01116561278115));
#319=CARTESIAN_POINT('',(10.,-3.28848127381927,-7.50916951847784));
#320=CARTESIAN_POINT('',(10.,2.32680395432623,-4.77008406538868));
#321=CARTESIAN_POINT('',(10.,7.94208918247171,-2.03099861229951));
#322=CARTESIAN_POINT('',(10.,7.06661518498086,4.15507951462962));
#323=CARTESIAN_POINT('',(10.,0.911783048995422,5.2284194843478));
#324=CARTESIAN_POINT('',(10.,5.31836368,2.5));
#325=CARTESIAN_POINT('',(10.,2.37539393818271,8.76071335448807));
#326=CARTESIAN_POINT('',(10.,-4.48753131797741,7.89016207129057));
#327=CARTESIAN_POINT('',(10.,-5.77412191868359,1.09293563439061));
#328=CARTESIAN_POINT('',(10.,-7.0607125193898,-5.70429080250933));
#329=CARTESIAN_POINT('',(10.,-0.990701709868293,-9.02281025862366));
#330=CARTESIAN_POINT('',(10.,4.03678304899541,-4.27075811163387));
#331=CARTESIAN_POINT('',(-5.10076676829453E-16,5.31836368,2.5));
#332=CARTESIAN_POINT('',(-5.10076676829454E-16,2.37539393818271,8.76071335448807));
#333=CARTESIAN_POINT('',(-5.10076676829454E-16,-4.48753131797742,7.89016207129057));
#334=CARTESIAN_POINT('',(-5.10076676829453E-16,-5.77412191868359,1.09293563439061));
#335=CARTESIAN_POINT('',(-5.10076676829454E-16,-7.0607125193898,-5.70429080250933));
#336=CARTESIAN_POINT('',(-5.10076676829454E-16,-0.990701709868293,-9.02281025862366));
#337=CARTESIAN_POINT('',(-5.10076676829453E-16,4.03678304899541,-4.27075811163387));
#338=CARTESIAN_POINT('',(-1.7347234759768E-15,-4.68163632,2.5));
#339=CARTESIAN_POINT('',(-1.73472347597681E-15,-7.62460606181729,-3.01116561278115));
#340=CARTESIAN_POINT('',(-1.73472347597681E-15,-3.28848127381927,-7.50916951847784));
#341=CARTESIAN_POINT('',(-1.7347234759768E-15,2.32680395432623,-4.77008406538868));
#342=CARTESIAN_POINT('',(-1.73472347597681E-15,7.94208918247171,-2.03099861229951));
#343=CARTESIAN_POINT('',(-1.73472347597681E-15,7.06661518498086,4.15507951462962));
#344=CARTESIAN_POINT('',(-1.7347234759768E-15,0.911783048995423,5.2284194843478));
#345=CARTESIAN_POINT('',(-2.95937027512416E-15,-14.68163632,2.5));
#346=CARTESIAN_POINT('',(-2.95937027512416E-15,-17.6246060618173,-14.7830445800504));
#347=CARTESIAN_POINT('',(-2.95937027512416E-15,-2.08943122966113,-22.9085011082463));
#348=CARTESIAN_POINT('',(-2.95937027512416E-15,10.427729827336,-10.633103765168));
#349=CARTESIAN_POINT('',(-2.95937027512416E-15,22.9448908843333,1.64229357791032));
#350=CARTESIAN_POINT('',(-2.95937027512416E-15,15.12393207983,17.3329692878829));
#351=CARTESIAN_POINT('',(-2.95937027512416E-15,-2.21321695100457,14.7275970803295));
#352=CARTESIAN_POINT('',(10.,-14.68163632,2.5));
#353=CARTESIAN_POINT('',(10.,-17.6246060618173,-14.7830445800504));
#354=CARTESIAN_POINT('',(10.,-2.08943122966113,-22.9085011082463));
#355=CARTESIAN_POINT('',(10.,10.427729827336,-10.633103765168));
#356=CARTESIAN_POINT('',(10.,22.9448908843333,1.64229357791032));
#357=CARTESIAN_POINT('',(10.,15.12393207983,17.3329692878829));
#358=CARTESIAN_POINT('',(10.,-2.21321695100457,14.7275970803295));
#359=CARTESIAN_POINT('',(10.,-4.68163632,2.5));
#360=CARTESIAN_POINT('',(10.,-7.62460606181729,-3.01116561278115));
#361=CARTESIAN_POINT('',(10.,-3.28848127381927,-7.50916951847784));
#362=CARTESIAN_POINT('',(10.,2.32680395432623,-4.77008406538868));
#363=CARTESIAN_POINT('',(10.,7.94208918247171,-2.03099861229951));
#364=CARTESIAN_POINT('',(10.,7.06661518498086,4.15507951462962));
#365=CARTESIAN_POINT('',(10.,0.911783048995422,5.2284194843478));
#366=CARTESIAN_POINT('',(10.,0.911783048995422,5.2284194843478));
#367=CARTESIAN_POINT('',(10.,-1.42807649471777,5.63646713151434));
#368=CARTESIAN_POINT('',(10.,-3.56281850578388,4.59515924579887));
#369=CARTESIAN_POINT('',(10.,-4.68163632,2.5));
#370=CARTESIAN_POINT('',(10.,4.03678304899541,-4.27075811163387));
#371=CARTESIAN_POINT('',(10.,5.94806315119699,-2.46418819669718));
#372=CARTESIAN_POINT('',(10.,6.43718149421612,0.119887988934404));
#373=CARTESIAN_POINT('',(10.,5.31836368,2.5));
#374=CARTESIAN_POINT('',(-5.10076676829453E-16,4.03678304899541,-4.27075811163387));
#375=CARTESIAN_POINT('',(-5.10076676829453E-16,5.94806315119699,-2.46418819669718));
#376=CARTESIAN_POINT('',(-5.10076676829453E-16,6.43718149421612,0.119887988934404));
#377=CARTESIAN_POINT('',(-5.10076676829453E-16,5.31836368,2.5));
#378=CARTESIAN_POINT('',(-1.7347234759768E-15,0.911783048995423,5.2284194843478));
#379=CARTESIAN_POINT('',(-1.73472347597681E-15,-1.42807649471777,5.63646713151434));
#380=CARTESIAN_POINT('',(-1.73472347597681E-15,-3.56281850578388,4.59515924579887));
#381=CARTESIAN_POINT('',(-1.7347234759768E-15,-4.68163632,2.5));
#382=CARTESIAN_POINT('',(-2.95937027512416E-15,-2.21321695100457,14.7275970803295));
#383=CARTESIAN_POINT('',(-2.95937027512416E-15,-8.80421614063252,13.7371224597259));
#384=CARTESIAN_POINT('',(-2.95937027512416E-15,-13.5628185057839,9.07043050266333));
#385=CARTESIAN_POINT('',(-2.95937027512416E-15,-14.68163632,2.5));
#386=CARTESIAN_POINT('',(10.,-2.21321695100457,14.7275970803295));
#387=CARTESIAN_POINT('',(10.,-8.80421614063252,13.7371224597259));
#388=CARTESIAN_POINT('',(10.,-13.5628185057839,9.07043050266335));
#389=CARTESIAN_POINT('',(10.,-14.68163632,2.5));
#390=CARTESIAN_POINT('',(10.,0.911783048995422,5.2284194843478));
#391=CARTESIAN_POINT('',(10.,-1.42807649471777,5.63646713151434));
#392=CARTESIAN_POINT('',(10.,-3.56281850578388,4.59515924579887));
#393=CARTESIAN_POINT('',(10.,-4.68163632,2.5));
#394=CARTESIAN_POINT('',(60.,0.,0.));
#395=CARTESIAN_POINT('',(60.,0.,10.));
#396=CARTESIAN_POINT('',(144.582179545096,0.,0.));
#397=CARTESIAN_POINT('',(144.582179545096,0.,10.));
#398=CARTESIAN_POINT('',(0.,0.,0.));
#399=CARTESIAN_POINT('',(59.75,0.,0.));
#400=CARTESIAN_POINT('',(59.75,0.,9.75));
#401=CARTESIAN_POINT('',(60.,0.,0.));
#402=CARTESIAN_POINT('',(30.,0.,0.));
#403=CARTESIAN_POINT('',(30.,0.,8.));
#404=CARTESIAN_POINT('',(59.75,0.,0.));
#405=CARTESIAN_POINT('',(7.1426029772227,0.,0.));
#406=CARTESIAN_POINT('',(7.1426029772227,0.,8.));
#407=CARTESIAN_POINT('',(0.,0.,0.));
#408=CARTESIAN_POINT('',(3.,0.,0.));
#409=CARTESIAN_POINT('',(3.,0.,2.03556884045548));
#410=CARTESIAN_POINT('',(4.7576432065902,1.6957570737869,0.));
#411=CARTESIAN_POINT('',(5.2423567934098,1.6957570737869,0.));
#412=CARTESIAN_POINT('',(5.4845365062117,1.7068311289403,0.));
#413=CARTESIAN_POINT('',(5.96449335531172,1.75558758942126,0.));
#414=CARTESIAN_POINT('',(6.20284873262028,1.7933206020234,0.));
#415=CARTESIAN_POINT('',(6.67463005247062,1.90934707845546,0.));
#416=CARTESIAN_POINT('',(6.90600894974189,1.98785423731988,0.));
#417=CARTESIAN_POINT('',(7.34320497592745,2.19469127296987,0.));
#418=CARTESIAN_POINT('',(7.55268464412459,2.32563238066647,0.));
#419=CARTESIAN_POINT('',(7.9252207270471,2.63148247451961,0.));
#420=CARTESIAN_POINT('',(8.09134446505603,2.80732260260853,0.));
#421=CARTESIAN_POINT('',(8.37938088357179,3.20159788919332,0.));
#422=CARTESIAN_POINT('',(8.49588134328235,3.41200826119608,0.));
#423=CARTESIAN_POINT('',(8.67983045036869,3.85648833085806,0.));
#424=CARTESIAN_POINT('',(8.74734066977528,4.09367579412647,0.));
#425=CARTESIAN_POINT('',(8.82836564906826,4.56898157601501,0.));
#426=CARTESIAN_POINT('',(8.84320488035452,4.80874724549851,0.));
#427=CARTESIAN_POINT('',(8.82339139938209,5.29235151960757,0.));
#428=CARTESIAN_POINT('',(8.78808171333634,5.53483718369623,0.));
#429=CARTESIAN_POINT('',(8.67219679218854,6.00134926024293,0.));
#430=CARTESIAN_POINT('',(8.5915762470323,6.22827505159779,0.));
#431=CARTESIAN_POINT('',(8.38416702546442,6.6692394934403,0.));
#432=CARTESIAN_POINT('',(8.26038074486408,6.87666643521404,0.));
#433=CARTESIAN_POINT('',(7.97636105888747,7.26438946272208,0.));
#434=CARTESIAN_POINT('',(7.81436262877876,7.44650208976135,0.));
#435=CARTESIAN_POINT('',(7.45876497799899,7.7766164835893,0.));
#436=CARTESIAN_POINT('',(7.26775040060087,7.92279696748024,0.));
#437=CARTESIAN_POINT('',(6.86012243003979,8.17859387907973,0.));
#438=CARTESIAN_POINT('',(6.64099443607849,8.28899760178538,0.));
#439=CARTESIAN_POINT('',(6.19102771837784,8.46493330489063,0.));
#440=CARTESIAN_POINT('',(5.96000724535694,8.53124625009948,0.));
#441=CARTESIAN_POINT('',(5.48597715646927,8.62086752636974,0.));
#442=CARTESIAN_POINT('',(5.24140628452095,8.64376031350078,0.));
#443=CARTESIAN_POINT('',(4.7596278428051,8.64382430356035,0.));
#444=CARTESIAN_POINT('',(4.52017945034744,8.62169340585402,0.));
#445=CARTESIAN_POINT('',(4.04421185105276,8.53237473433938,0.));
#446=CARTESIAN_POINT('',(3.80913406360685,8.46491728179451,0.));
#447=CARTESIAN_POINT('',(3.36105660810819,8.28987844302267,0.));
#448=CARTESIAN_POINT('',(3.145642188583,8.18193142493968,0.));
#449=CARTESIAN_POINT('',(2.73280536554734,7.92342136980171,0.));
#450=CARTESIAN_POINT('',(2.54098555526266,7.77624743232829,0.));
#451=CARTESIAN_POINT('',(2.18823176280011,7.44904711017315,0.));
#452=CARTESIAN_POINT('',(2.02553352866124,7.26686666664122,0.));
#453=CARTESIAN_POINT('',(1.73891427306482,6.87581274204442,0.));
#454=CARTESIAN_POINT('',(1.61581657149108,6.6688988500852,0.));
#455=CARTESIAN_POINT('',(1.41014615736965,6.232240228847,0.));
#456=CARTESIAN_POINT('',(1.32755069585983,6.00075072326351,0.));
#457=CARTESIAN_POINT('',(1.21143528031702,5.53247212796935,0.));
#458=CARTESIAN_POINT('',(1.17664419826515,5.29377738198699,0.));
#459=CARTESIAN_POINT('',(1.15673256775762,4.80666273467273,0.));
#460=CARTESIAN_POINT('',(1.1719846317193,4.56507174104856,0.));
#461=CARTESIAN_POINT('',(1.25378287414329,4.08897378727177,0.));
#462=CARTESIAN_POINT('',(1.3214893372911,3.85223566599642,0.));
#463=CARTESIAN_POINT('',(1.50690164094519,3.4063711591794,0.));
#464=CARTESIAN_POINT('',(1.62630601535284,3.19256572301316,0.));
#465=CARTESIAN_POINT('',(1.91368309570975,2.80173590486622,0.));
#466=CARTESIAN_POINT('',(2.07911565108743,2.62711139440781,0.));
#467=CARTESIAN_POINT('',(2.36071345564841,2.39715664511705,0.));
#468=CARTESIAN_POINT('',(2.46066684259856,2.32570542019978,0.));
#469=CARTESIAN_POINT('',(2.66603825389187,2.19736213868402,0.));
#470=CARTESIAN_POINT('',(2.77205854854424,2.13990173087189,0.));
#471=CARTESIAN_POINT('',(3.0992529470847,1.98590272601702,0.));
#472=CARTESIAN_POINT('',(3.33192861124168,1.90742055226218,0.));
#473=CARTESIAN_POINT('',(3.80122715692994,1.79263893419864,0.));
#474=CARTESIAN_POINT('',(4.03855522669867,1.75519465938954,0.));
#475=CARTESIAN_POINT('',(4.51676714206674,1.70678269843743,0.));
#476=CARTESIAN_POINT('',(4.7576432065902,1.6957570737869,0.));
#477=CARTESIAN_POINT('',(5.2423567934098,1.6957570737869,0.));
#478=CARTESIAN_POINT('',(0.,0.,0.));
#479=CARTESIAN_POINT('',(3.,2.03556884045548,0.));
#480=CARTESIAN_POINT('',(150.,0.,0.));
#481=CARTESIAN_POINT('',(150.,0.,8.75));
#482=CARTESIAN_POINT('',(150.,0.,0.));
#483=CARTESIAN_POINT('',(149.,0.,0.));
#484=CARTESIAN_POINT('',(149.,0.,9.75));
#485=CARTESIAN_POINT('',(149.,0.,0.));
#486=CARTESIAN_POINT('',(146.,0.,0.));
#487=CARTESIAN_POINT('',(146.,0.,9.75));
#488=CARTESIAN_POINT('',(0.,0.,0.));
#489=CARTESIAN_POINT('',(146.,0.,0.));
#490=(
GEOMETRIC_REPRESENTATION_CONTEXT(3)
GLOBAL_UNCERTAINTY_ASSIGNED_CONTEXT((#491))
GLOBAL_UNIT_ASSIGNED_CONTEXT((#497,#493,#492))
REPRESENTATION_CONTEXT('model1','TOP_LEVEL_ASSEMBLY_PART')
);
#491=UNCERTAINTY_MEASURE_WITH_UNIT(LENGTH_MEASURE(2.E-5),#497,
'DISTANCE_ACCURACY_VALUE','Maximum Tolerance applied to model');
#492=(
NAMED_UNIT(*)
SI_UNIT($,.STERADIAN.)
SOLID_ANGLE_UNIT()
);
#493=(
CONVERSION_BASED_UNIT('DEGREE',#495)
NAMED_UNIT(#494)
PLANE_ANGLE_UNIT()
);
#494=DIMENSIONAL_EXPONENTS(0.,0.,0.,0.,0.,0.,0.);
#495=PLANE_ANGLE_MEASURE_WITH_UNIT(PLANE_ANGLE_MEASURE(0.0174532925),#496);
#496=(
NAMED_UNIT(*)
PLANE_ANGLE_UNIT()
SI_UNIT($,.RADIAN.)
);
#497=(
LENGTH_UNIT()
NAMED_UNIT(*)
SI_UNIT(.MILLI.,.METRE.)
);
ENDSEC;
END-ISO-10303-21;
