ISO-10303-21;
HEADER;
/* Generated by software containing ST-Developer
 * from STEP Tools, Inc. (www.steptools.com) 
 */
/* OPTION: using custom schema-name function */

FILE_DESCRIPTION(
/* description */ (''),
/* implementation_level */ '2;1');

FILE_NAME(
/* name */ 'model1.stp',
/* time_stamp */ '2023-11-06T16:55:24+03:00',
/* author */ (''),
/* organization */ (''),
/* preprocessor_version */ 'ST-DEVELOPER v19.4',
/* originating_system */ 'SIEMENS PLM Software NX2306.3001',
/* authorisation */ '');

FILE_SCHEMA (('AUTOMOTIVE_DESIGN { 1 0 10303 214 3 1 1 1 }'));
ENDSEC;

DATA;
#10=PROPERTY_DEFINITION_REPRESENTATION(#14,#12);
#11=PROPERTY_DEFINITION_REPRESENTATION(#15,#13);
#12=REPRESENTATION('',(#16),#459);
#13=REPRESENTATION('',(#17),#459);
#14=PROPERTY_DEFINITION('pmi validation property','',#21);
#15=PROPERTY_DEFINITION('pmi validation property','',#21);
#16=VALUE_REPRESENTATION_ITEM('number of annotations',COUNT_MEASURE(0.));
#17=VALUE_REPRESENTATION_ITEM('number of views',COUNT_MEASURE(0.));
#18=SHAPE_REPRESENTATION_RELATIONSHIP('None',
'relationship between model1_objects-None and model1_objects-None',#30,
#19);
#19=ADVANCED_BREP_SHAPE_REPRESENTATION('model1_objects-None',(#125,#126),
#459);
#20=SHAPE_DEFINITION_REPRESENTATION(#21,#30);
#21=PRODUCT_DEFINITION_SHAPE('','',#22);
#22=PRODUCT_DEFINITION(' ','',#24,#23);
#23=PRODUCT_DEFINITION_CONTEXT('part definition',#29,'design');
#24=PRODUCT_DEFINITION_FORMATION_WITH_SPECIFIED_SOURCE(' ',' ',#26,
 .NOT_KNOWN.);
#25=PRODUCT_RELATED_PRODUCT_CATEGORY('part','',(#26));
#26=PRODUCT('model1_objects','model1_objects',' ',(#27));
#27=PRODUCT_CONTEXT(' ',#29,'mechanical');
#28=APPLICATION_PROTOCOL_DEFINITION('international standard',
'automotive_design',2010,#29);
#29=APPLICATION_CONTEXT(
'core data for automotive mechanical design processes');
#30=SHAPE_REPRESENTATION('model1_objects-None',(#230),#459);
#31=OVER_RIDING_STYLED_ITEM('',(#60),#131,#57);
#32=OVER_RIDING_STYLED_ITEM('',(#61),#132,#57);
#33=OVER_RIDING_STYLED_ITEM('',(#62),#133,#57);
#34=OVER_RIDING_STYLED_ITEM('',(#63),#134,#57);
#35=OVER_RIDING_STYLED_ITEM('',(#64),#135,#57);
#36=OVER_RIDING_STYLED_ITEM('',(#65),#136,#57);
#37=OVER_RIDING_STYLED_ITEM('',(#66),#137,#57);
#38=OVER_RIDING_STYLED_ITEM('',(#67),#138,#57);
#39=OVER_RIDING_STYLED_ITEM('',(#68),#139,#57);
#40=COLOUR_RGB('Medium Steel',0.611764705882353,0.658823529411765,0.670588235294118);
#41=COLOUR_RGB('silver gray',0.6,0.6,0.6);
#42=TOROIDAL_SURFACE('',#245,14.5,1.);
#43=PLANE('',#241);
#44=PLANE('',#243);
#45=FACE_OUTER_BOUND('',#172,.T.);
#46=FACE_OUTER_BOUND('',#173,.T.);
#47=SURFACE_OF_REVOLUTION('',#49,#48);
#48=AXIS1_PLACEMENT('',#447,#271);
#49=B_SPLINE_CURVE_WITH_KNOTS('',3,(#383,#384,#385,#386,#387,#388,#389,
#390,#391,#392,#393,#394,#395,#396,#397,#398,#399,#400,#401,#402,#403,#404,
#405,#406,#407,#408,#409,#410,#411,#412,#413,#414,#415,#416,#417,#418,#419,
#420,#421,#422,#423,#424,#425,#426,#427,#428,#429,#430,#431,#432,#433,#434,
#435,#436,#437,#438,#439,#440,#441,#442,#443,#444,#445,#446),
 .UNSPECIFIED.,.T.,.F.,(2,2,2,2,2,2,2,2,2,2,2,2,2,2,2,2,2,2,2,2,2,2,2,2,
2,2,2,2,2,2,2,2,2,2),(-0.03125,0.,0.0625,0.09375,0.125,0.15625,0.1875,0.21875,
0.25,0.28125,0.3125,0.34375,0.375,0.40625,0.4375,0.46875,0.5,0.53125,0.5625,
0.59375,0.625,0.65625,0.6875,0.71875,0.75,0.78125,0.8125,0.84375,0.875,
0.90625,0.9375,0.96875,1.,1.0625),.UNSPECIFIED.);
#50=CONICAL_SURFACE('',#237,16.,28.810793742973);
#51=CONICAL_SURFACE('',#248,15.5,9.99999999999995);
#52=CYLINDRICAL_SURFACE('',#235,16.);
#53=CYLINDRICAL_SURFACE('',#239,10.4999999999825);
#54=CYLINDRICAL_SURFACE('',#247,15.5);
#55=PRESENTATION_LAYER_ASSIGNMENT('1','Layer 1',(#125,#126));
#56=STYLED_ITEM('',(#58),#125);
#57=STYLED_ITEM('',(#59),#126);
#58=PRESENTATION_STYLE_ASSIGNMENT((#69));
#59=PRESENTATION_STYLE_ASSIGNMENT((#70));
#60=PRESENTATION_STYLE_ASSIGNMENT((#71));
#61=PRESENTATION_STYLE_ASSIGNMENT((#72));
#62=PRESENTATION_STYLE_ASSIGNMENT((#73));
#63=PRESENTATION_STYLE_ASSIGNMENT((#74));
#64=PRESENTATION_STYLE_ASSIGNMENT((#75));
#65=PRESENTATION_STYLE_ASSIGNMENT((#76));
#66=PRESENTATION_STYLE_ASSIGNMENT((#77));
#67=PRESENTATION_STYLE_ASSIGNMENT((#78));
#68=PRESENTATION_STYLE_ASSIGNMENT((#79));
#69=SURFACE_STYLE_USAGE(.BOTH.,#80);
#70=SURFACE_STYLE_USAGE(.BOTH.,#81);
#71=SURFACE_STYLE_USAGE(.BOTH.,#82);
#72=SURFACE_STYLE_USAGE(.BOTH.,#83);
#73=SURFACE_STYLE_USAGE(.BOTH.,#84);
#74=SURFACE_STYLE_USAGE(.BOTH.,#85);
#75=SURFACE_STYLE_USAGE(.BOTH.,#86);
#76=SURFACE_STYLE_USAGE(.BOTH.,#87);
#77=SURFACE_STYLE_USAGE(.BOTH.,#88);
#78=SURFACE_STYLE_USAGE(.BOTH.,#89);
#79=SURFACE_STYLE_USAGE(.BOTH.,#90);
#80=SURFACE_SIDE_STYLE('',(#91));
#81=SURFACE_SIDE_STYLE('',(#92));
#82=SURFACE_SIDE_STYLE('',(#93));
#83=SURFACE_SIDE_STYLE('',(#94));
#84=SURFACE_SIDE_STYLE('',(#95));
#85=SURFACE_SIDE_STYLE('',(#96));
#86=SURFACE_SIDE_STYLE('',(#97));
#87=SURFACE_SIDE_STYLE('',(#98));
#88=SURFACE_SIDE_STYLE('',(#99));
#89=SURFACE_SIDE_STYLE('',(#100));
#90=SURFACE_SIDE_STYLE('',(#101));
#91=SURFACE_STYLE_FILL_AREA(#102);
#92=SURFACE_STYLE_FILL_AREA(#103);
#93=SURFACE_STYLE_FILL_AREA(#104);
#94=SURFACE_STYLE_FILL_AREA(#105);
#95=SURFACE_STYLE_FILL_AREA(#106);
#96=SURFACE_STYLE_FILL_AREA(#107);
#97=SURFACE_STYLE_FILL_AREA(#108);
#98=SURFACE_STYLE_FILL_AREA(#109);
#99=SURFACE_STYLE_FILL_AREA(#110);
#100=SURFACE_STYLE_FILL_AREA(#111);
#101=SURFACE_STYLE_FILL_AREA(#112);
#102=FILL_AREA_STYLE('',(#113));
#103=FILL_AREA_STYLE('',(#114));
#104=FILL_AREA_STYLE('',(#115));
#105=FILL_AREA_STYLE('',(#116));
#106=FILL_AREA_STYLE('',(#117));
#107=FILL_AREA_STYLE('',(#118));
#108=FILL_AREA_STYLE('',(#119));
#109=FILL_AREA_STYLE('',(#120));
#110=FILL_AREA_STYLE('',(#121));
#111=FILL_AREA_STYLE('',(#122));
#112=FILL_AREA_STYLE('',(#123));
#113=FILL_AREA_STYLE_COLOUR('',#124);
#114=FILL_AREA_STYLE_COLOUR('',#40);
#115=FILL_AREA_STYLE_COLOUR('',#41);
#116=FILL_AREA_STYLE_COLOUR('',#41);
#117=FILL_AREA_STYLE_COLOUR('',#41);
#118=FILL_AREA_STYLE_COLOUR('',#41);
#119=FILL_AREA_STYLE_COLOUR('',#41);
#120=FILL_AREA_STYLE_COLOUR('',#41);
#121=FILL_AREA_STYLE_COLOUR('',#41);
#122=FILL_AREA_STYLE_COLOUR('',#41);
#123=FILL_AREA_STYLE_COLOUR('',#41);
#124=DRAUGHTING_PRE_DEFINED_COLOUR('yellow');
#125=MANIFOLD_SOLID_BREP('',#127);
#126=MANIFOLD_SOLID_BREP('',#128);
#127=CLOSED_SHELL('',(#129,#130));
#128=CLOSED_SHELL('',(#131,#132,#133,#134,#135,#136,#137,#138,#139));
#129=ADVANCED_FACE('',(#142,#143),#140,.F.);
#130=ADVANCED_FACE('',(#144,#145),#141,.F.);
#131=ADVANCED_FACE('',(#146,#147),#52,.T.);
#132=ADVANCED_FACE('',(#148,#149),#50,.T.);
#133=ADVANCED_FACE('',(#150,#151),#53,.T.);
#134=ADVANCED_FACE('',(#152,#153),#47,.T.);
#135=ADVANCED_FACE('',(#45),#43,.F.);
#136=ADVANCED_FACE('',(#46),#44,.F.);
#137=ADVANCED_FACE('',(#154,#155),#42,.T.);
#138=ADVANCED_FACE('',(#156,#157),#54,.T.);
#139=ADVANCED_FACE('',(#158,#159),#51,.T.);
#140=(
BOUNDED_SURFACE()
B_SPLINE_SURFACE(3,3,((#293,#294,#295,#296,#297,#298,#299),(#300,#301,#302,
#303,#304,#305,#306),(#307,#308,#309,#310,#311,#312,#313),(#314,#315,#316,
#317,#318,#319,#320),(#321,#322,#323,#324,#325,#326,#327),(#328,#329,#330,
#331,#332,#333,#334),(#335,#336,#337,#338,#339,#340,#341)),
 .UNSPECIFIED.,.T.,.F.,.F.)
B_SPLINE_SURFACE_WITH_KNOTS((1,3,3,3,1),(4,3,4),(-0.5,0.,0.5,1.,1.5),(0.,
0.5,1.),.UNSPECIFIED.)
GEOMETRIC_REPRESENTATION_ITEM()
RATIONAL_B_SPLINE_SURFACE(((1.,0.558664324538782,0.558664324538782,1.,0.558664324538782,
0.558664324538782,1.),(0.333333333333334,0.186221441512927,0.186221441512927,
0.333333333333334,0.186221441512927,0.186221441512927,0.333333333333334),
(0.333333333333334,0.186221441512927,0.186221441512927,0.333333333333334,
0.186221441512927,0.186221441512927,0.333333333333334),(1.,0.558664324538782,
0.558664324538782,1.,0.558664324538782,0.558664324538782,1.),(0.333333333333334,
0.186221441512927,0.186221441512927,0.333333333333334,0.186221441512927,
0.186221441512927,0.333333333333334),(0.333333333333334,0.186221441512927,
0.186221441512927,0.333333333333334,0.186221441512927,0.186221441512927,
0.333333333333334),(1.,0.558664324538782,0.558664324538782,1.,0.558664324538782,
0.558664324538782,1.)))
REPRESENTATION_ITEM('')
SURFACE()
);
#141=(
BOUNDED_SURFACE()
B_SPLINE_SURFACE(3,3,((#342,#343,#344,#345),(#346,#347,#348,#349),(#350,
#351,#352,#353),(#354,#355,#356,#357),(#358,#359,#360,#361),(#362,#363,
#364,#365),(#366,#367,#368,#369)),.UNSPECIFIED.,.T.,.F.,.F.)
B_SPLINE_SURFACE_WITH_KNOTS((1,3,3,3,1),(4,4),(-0.5,0.,0.5,1.,1.5),(0.,
1.),.UNSPECIFIED.)
GEOMETRIC_REPRESENTATION_ITEM()
RATIONAL_B_SPLINE_SURFACE(((1.,0.84767783320711,0.84767783320711,1.),(0.333333333333334,
0.282559277735703,0.282559277735703,0.333333333333334),(0.333333333333334,
0.282559277735703,0.282559277735703,0.333333333333334),(1.,0.84767783320711,
0.84767783320711,1.),(0.333333333333334,0.282559277735703,0.282559277735703,
0.333333333333334),(0.333333333333334,0.282559277735703,0.282559277735703,
0.333333333333334),(1.,0.84767783320711,0.84767783320711,1.)))
REPRESENTATION_ITEM('')
SURFACE()
);
#142=FACE_BOUND('',#160,.T.);
#143=FACE_BOUND('',#161,.T.);
#144=FACE_BOUND('',#162,.T.);
#145=FACE_BOUND('',#163,.T.);
#146=FACE_BOUND('',#164,.T.);
#147=FACE_BOUND('',#165,.T.);
#148=FACE_BOUND('',#166,.T.);
#149=FACE_BOUND('',#167,.T.);
#150=FACE_BOUND('',#168,.T.);
#151=FACE_BOUND('',#169,.T.);
#152=FACE_BOUND('',#170,.T.);
#153=FACE_BOUND('',#171,.T.);
#154=FACE_BOUND('',#174,.T.);
#155=FACE_BOUND('',#175,.T.);
#156=FACE_BOUND('',#176,.T.);
#157=FACE_BOUND('',#177,.T.);
#158=FACE_BOUND('',#178,.T.);
#159=FACE_BOUND('',#179,.T.);
#160=EDGE_LOOP('',(#180));
#161=EDGE_LOOP('',(#181));
#162=EDGE_LOOP('',(#182));
#163=EDGE_LOOP('',(#183));
#164=EDGE_LOOP('',(#184));
#165=EDGE_LOOP('',(#185));
#166=EDGE_LOOP('',(#186));
#167=EDGE_LOOP('',(#187));
#168=EDGE_LOOP('',(#188));
#169=EDGE_LOOP('',(#189));
#170=EDGE_LOOP('',(#190));
#171=EDGE_LOOP('',(#191));
#172=EDGE_LOOP('',(#192));
#173=EDGE_LOOP('',(#193));
#174=EDGE_LOOP('',(#194));
#175=EDGE_LOOP('',(#195));
#176=EDGE_LOOP('',(#196));
#177=EDGE_LOOP('',(#197));
#178=EDGE_LOOP('',(#198));
#179=EDGE_LOOP('',(#199));
#180=ORIENTED_EDGE('',*,*,#210,.T.);
#181=ORIENTED_EDGE('',*,*,#211,.F.);
#182=ORIENTED_EDGE('',*,*,#211,.T.);
#183=ORIENTED_EDGE('',*,*,#210,.F.);
#184=ORIENTED_EDGE('',*,*,#212,.F.);
#185=ORIENTED_EDGE('',*,*,#213,.T.);
#186=ORIENTED_EDGE('',*,*,#214,.F.);
#187=ORIENTED_EDGE('',*,*,#212,.T.);
#188=ORIENTED_EDGE('',*,*,#215,.F.);
#189=ORIENTED_EDGE('',*,*,#214,.T.);
#190=ORIENTED_EDGE('',*,*,#216,.F.);
#191=ORIENTED_EDGE('',*,*,#215,.T.);
#192=ORIENTED_EDGE('',*,*,#216,.T.);
#193=ORIENTED_EDGE('',*,*,#217,.F.);
#194=ORIENTED_EDGE('',*,*,#218,.F.);
#195=ORIENTED_EDGE('',*,*,#217,.T.);
#196=ORIENTED_EDGE('',*,*,#219,.F.);
#197=ORIENTED_EDGE('',*,*,#218,.T.);
#198=ORIENTED_EDGE('',*,*,#213,.F.);
#199=ORIENTED_EDGE('',*,*,#219,.T.);
#200=VERTEX_POINT('',#290);
#201=VERTEX_POINT('',#292);
#202=VERTEX_POINT('',#371);
#203=VERTEX_POINT('',#373);
#204=VERTEX_POINT('',#376);
#205=VERTEX_POINT('',#379);
#206=VERTEX_POINT('',#382);
#207=VERTEX_POINT('',#450);
#208=VERTEX_POINT('',#453);
#209=VERTEX_POINT('',#456);
#210=EDGE_CURVE('',#200,#200,#220,.T.);
#211=EDGE_CURVE('',#201,#201,#221,.T.);
#212=EDGE_CURVE('',#202,#202,#222,.T.);
#213=EDGE_CURVE('',#203,#203,#223,.T.);
#214=EDGE_CURVE('',#204,#204,#224,.T.);
#215=EDGE_CURVE('',#205,#205,#225,.T.);
#216=EDGE_CURVE('',#206,#206,#226,.T.);
#217=EDGE_CURVE('',#207,#207,#227,.T.);
#218=EDGE_CURVE('',#208,#208,#228,.T.);
#219=EDGE_CURVE('',#209,#209,#229,.T.);
#220=CIRCLE('',#231,5.);
#221=CIRCLE('',#232,5.);
#222=CIRCLE('',#233,16.);
#223=CIRCLE('',#234,16.);
#224=CIRCLE('',#236,10.5);
#225=CIRCLE('',#238,10.499999999965);
#226=CIRCLE('',#240,4.5171819551236);
#227=CIRCLE('',#242,14.5);
#228=CIRCLE('',#244,15.5);
#229=CIRCLE('',#246,15.5);
#230=AXIS2_PLACEMENT_3D('',#288,#249,#250);
#231=AXIS2_PLACEMENT_3D('',#289,#251,#252);
#232=AXIS2_PLACEMENT_3D('',#291,#253,#254);
#233=AXIS2_PLACEMENT_3D('',#370,#255,#256);
#234=AXIS2_PLACEMENT_3D('',#372,#257,#258);
#235=AXIS2_PLACEMENT_3D('',#374,#259,#260);
#236=AXIS2_PLACEMENT_3D('',#375,#261,#262);
#237=AXIS2_PLACEMENT_3D('',#377,#263,#264);
#238=AXIS2_PLACEMENT_3D('',#378,#265,#266);
#239=AXIS2_PLACEMENT_3D('',#380,#267,#268);
#240=AXIS2_PLACEMENT_3D('',#381,#269,#270);
#241=AXIS2_PLACEMENT_3D('',#448,#272,#273);
#242=AXIS2_PLACEMENT_3D('',#449,#274,#275);
#243=AXIS2_PLACEMENT_3D('',#451,#276,#277);
#244=AXIS2_PLACEMENT_3D('',#452,#278,#279);
#245=AXIS2_PLACEMENT_3D('',#454,#280,#281);
#246=AXIS2_PLACEMENT_3D('',#455,#282,#283);
#247=AXIS2_PLACEMENT_3D('',#457,#284,#285);
#248=AXIS2_PLACEMENT_3D('',#458,#286,#287);
#249=DIRECTION('',(0.,0.,1.));
#250=DIRECTION('',(1.,0.,0.));
#251=DIRECTION('',(0.,0.981691815623129,0.190476190476825));
#252=DIRECTION('',(1.,0.,0.));
#253=DIRECTION('',(0.,0.,1.));
#254=DIRECTION('',(1.,0.,0.));
#255=DIRECTION('',(-1.,0.,0.));
#256=DIRECTION('',(0.,0.,1.));
#257=DIRECTION('',(-1.,0.,0.));
#258=DIRECTION('',(0.,0.,1.));
#259=DIRECTION('',(-1.,0.,0.));
#260=DIRECTION('',(0.,0.,1.));
#261=DIRECTION('',(-1.,0.,0.));
#262=DIRECTION('',(0.,0.,1.));
#263=DIRECTION('',(1.,0.,0.));
#264=DIRECTION('',(9.8076238924484E-17,0.,-1.));
#265=DIRECTION('',(-1.,0.,0.));
#266=DIRECTION('',(0.,0.,1.));
#267=DIRECTION('',(-1.,0.,0.));
#268=DIRECTION('',(0.,0.,1.));
#269=DIRECTION('',(-1.,0.,0.));
#270=DIRECTION('',(0.,0.,1.));
#271=DIRECTION('',(-1.,0.,0.));
#272=DIRECTION('',(1.,0.,0.));
#273=DIRECTION('',(0.,0.,-1.));
#274=DIRECTION('',(-1.,0.,0.));
#275=DIRECTION('',(0.,0.,1.));
#276=DIRECTION('',(-1.,0.,0.));
#277=DIRECTION('',(0.,0.,1.));
#278=DIRECTION('',(-1.,0.,0.));
#279=DIRECTION('',(0.,0.,1.));
#280=DIRECTION('',(-1.,0.,0.));
#281=DIRECTION('',(0.,0.,1.));
#282=DIRECTION('',(-1.,0.,0.));
#283=DIRECTION('',(0.,0.,1.));
#284=DIRECTION('',(-1.,0.,0.));
#285=DIRECTION('',(0.,0.,1.));
#286=DIRECTION('',(-1.,0.,0.));
#287=DIRECTION('',(1.44690676531116E-16,0.,1.));
#288=CARTESIAN_POINT('',(0.,0.,0.));
#289=CARTESIAN_POINT('',(5.,0.565548254098743,7.58523101493412));
#290=CARTESIAN_POINT('',(10.,0.565548254098743,7.58523101493412));
#291=CARTESIAN_POINT('',(5.,-7.33863573,2.));
#292=CARTESIAN_POINT('',(10.,-7.33863573,2.));
#293=CARTESIAN_POINT('',(10.,-7.33863573,2.));
#294=CARTESIAN_POINT('',(10.,-9.58482025780739,-6.24196501597026));
#295=CARTESIAN_POINT('',(10.,-2.58711902604882,-11.1417109000426));
#296=CARTESIAN_POINT('',(10.,4.38946236589381,-6.21193967421083));
#297=CARTESIAN_POINT('',(10.,11.3660437578364,-1.28216844837906));
#298=CARTESIAN_POINT('',(10.,9.08446252689365,6.95006814589158));
#299=CARTESIAN_POINT('',(10.,0.565548254098743,7.58523101493412));
#300=CARTESIAN_POINT('',(10.,2.66136427,2.));
#301=CARTESIAN_POINT('',(10.,0.415179742192606,4.98895762306671));
#302=CARTESIAN_POINT('',(10.,-3.15707234744136,3.88522413460326));
#303=CARTESIAN_POINT('',(10.,-3.32570513221284,0.150150428590198));
#304=CARTESIAN_POINT('',(10.,-3.49433791698431,-3.58492327742286));
#305=CARTESIAN_POINT('',(10.,-0.0360804049772205,-5.00607337016341));
#306=CARTESIAN_POINT('',(10.,2.470310158867,-2.23168714129717));
#307=CARTESIAN_POINT('',(-5.10076676829453E-16,2.66136427,2.));
#308=CARTESIAN_POINT('',(-5.10076676829453E-16,0.415179742192607,4.98895762306671));
#309=CARTESIAN_POINT('',(-5.10076676829453E-16,-3.15707234744136,3.88522413460326));
#310=CARTESIAN_POINT('',(-5.10076676829453E-16,-3.32570513221284,0.150150428590198));
#311=CARTESIAN_POINT('',(-5.10076676829453E-16,-3.49433791698431,-3.58492327742286));
#312=CARTESIAN_POINT('',(-5.10076676829453E-16,-0.0360804049772218,-5.00607337016341));
#313=CARTESIAN_POINT('',(-5.10076676829453E-16,2.470310158867,-2.23168714129718));
#314=CARTESIAN_POINT('',(-1.7347234759768E-15,-7.33863573,2.));
#315=CARTESIAN_POINT('',(-1.73472347597681E-15,-9.58482025780739,-6.24196501597026));
#316=CARTESIAN_POINT('',(-1.73472347597681E-15,-2.58711902604882,-11.1417109000426));
#317=CARTESIAN_POINT('',(-1.7347234759768E-15,4.38946236589381,-6.21193967421083));
#318=CARTESIAN_POINT('',(-1.73472347597681E-15,11.3660437578364,-1.28216844837906));
#319=CARTESIAN_POINT('',(-1.73472347597681E-15,9.08446252689365,6.95006814589158));
#320=CARTESIAN_POINT('',(-1.7347234759768E-15,0.565548254098744,7.58523101493412));
#321=CARTESIAN_POINT('',(-2.95937027512416E-15,-17.33863573,2.));
#322=CARTESIAN_POINT('',(-2.95937027512416E-15,-19.5848202578074,-17.4728876550072));
#323=CARTESIAN_POINT('',(-2.95937027512416E-15,-2.01716570465628,-26.1686459346884));
#324=CARTESIAN_POINT('',(-2.95937027512416E-15,12.1046298640005,-12.5740297770118));
#325=CARTESIAN_POINT('',(-2.95937027512416E-15,26.2264254326572,1.02058638066474));
#326=CARTESIAN_POINT('',(-2.95937027512416E-15,18.2050054587645,18.9062096619466));
#327=CARTESIAN_POINT('',(-2.95937027512416E-15,-1.33921365066951,17.4021491711654));
#328=CARTESIAN_POINT('',(10.,-17.33863573,2.));
#329=CARTESIAN_POINT('',(10.,-19.5848202578074,-17.4728876550072));
#330=CARTESIAN_POINT('',(10.,-2.01716570465628,-26.1686459346884));
#331=CARTESIAN_POINT('',(10.,12.1046298640005,-12.5740297770118));
#332=CARTESIAN_POINT('',(10.,26.2264254326572,1.02058638066474));
#333=CARTESIAN_POINT('',(10.,18.2050054587645,18.9062096619466));
#334=CARTESIAN_POINT('',(10.,-1.33921365066951,17.4021491711654));
#335=CARTESIAN_POINT('',(10.,-7.33863573,2.));
#336=CARTESIAN_POINT('',(10.,-9.58482025780739,-6.24196501597026));
#337=CARTESIAN_POINT('',(10.,-2.58711902604882,-11.1417109000426));
#338=CARTESIAN_POINT('',(10.,4.38946236589381,-6.21193967421083));
#339=CARTESIAN_POINT('',(10.,11.3660437578364,-1.28216844837906));
#340=CARTESIAN_POINT('',(10.,9.08446252689365,6.95006814589158));
#341=CARTESIAN_POINT('',(10.,0.565548254098743,7.58523101493412));
#342=CARTESIAN_POINT('',(10.,0.565548254098743,7.58523101493412));
#343=CARTESIAN_POINT('',(10.,-3.22975551793238,7.8682055766608));
#344=CARTESIAN_POINT('',(10.,-6.33792691452457,5.671918734287));
#345=CARTESIAN_POINT('',(10.,-7.33863573,2.));
#346=CARTESIAN_POINT('',(10.,2.470310158867,-2.23168714129717));
#347=CARTESIAN_POINT('',(10.,3.58694465670662,-0.995656564828815));
#348=CARTESIAN_POINT('',(10.,3.66207308547544,0.668374656909826));
#349=CARTESIAN_POINT('',(10.,2.66136427,2.));
#350=CARTESIAN_POINT('',(-5.10076676829453E-16,2.470310158867,-2.23168714129718));
#351=CARTESIAN_POINT('',(-5.10076676829453E-16,3.58694465670662,-0.995656564828815));
#352=CARTESIAN_POINT('',(-5.10076676829453E-16,3.66207308547544,0.668374656909826));
#353=CARTESIAN_POINT('',(-5.10076676829453E-16,2.66136427,2.));
#354=CARTESIAN_POINT('',(-1.7347234759768E-15,0.565548254098743,7.58523101493412));
#355=CARTESIAN_POINT('',(-1.73472347597681E-15,-3.22975551793238,7.8682055766608));
#356=CARTESIAN_POINT('',(-1.73472347597681E-15,-6.33792691452457,5.671918734287));
#357=CARTESIAN_POINT('',(-1.7347234759768E-15,-7.33863573,2.));
#358=CARTESIAN_POINT('',(-2.95937027512416E-15,-1.33921365066951,17.4021491711654));
#359=CARTESIAN_POINT('',(-2.95937027512416E-15,-10.0464556925714,16.7320677181504));
#360=CARTESIAN_POINT('',(-2.95937027512416E-15,-16.3379269145246,10.6754628116642));
#361=CARTESIAN_POINT('',(-2.95937027512416E-15,-17.33863573,2.));
#362=CARTESIAN_POINT('',(10.,-1.33921365066951,17.4021491711654));
#363=CARTESIAN_POINT('',(10.,-10.0464556925714,16.7320677181504));
#364=CARTESIAN_POINT('',(10.,-16.3379269145246,10.6754628116642));
#365=CARTESIAN_POINT('',(10.,-17.33863573,2.));
#366=CARTESIAN_POINT('',(10.,0.565548254098743,7.58523101493412));
#367=CARTESIAN_POINT('',(10.,-3.22975551793238,7.8682055766608));
#368=CARTESIAN_POINT('',(10.,-6.33792691452457,5.671918734287));
#369=CARTESIAN_POINT('',(10.,-7.33863573,2.));
#370=CARTESIAN_POINT('',(60.,0.,0.));
#371=CARTESIAN_POINT('',(60.,0.,16.));
#372=CARTESIAN_POINT('',(143.164359090191,0.,0.));
#373=CARTESIAN_POINT('',(143.164359090191,0.,16.));
#374=CARTESIAN_POINT('',(0.,0.,0.));
#375=CARTESIAN_POINT('',(50.,0.,0.));
#376=CARTESIAN_POINT('',(50.,0.,10.5));
#377=CARTESIAN_POINT('',(60.,0.,0.));
#378=CARTESIAN_POINT('',(7.42207535810795,0.,0.));
#379=CARTESIAN_POINT('',(7.42207535810795,0.,10.499999999965));
#380=CARTESIAN_POINT('',(0.,0.,0.));
#381=CARTESIAN_POINT('',(3.,0.,0.));
#382=CARTESIAN_POINT('',(3.,0.,4.5171819551236));
#383=CARTESIAN_POINT('',(4.75225717172466,4.01841559560626,0.));
#384=CARTESIAN_POINT('',(5.49548565655068,4.01841559560626,0.));
#385=CARTESIAN_POINT('',(5.9904686935477,4.10207238449857,0.));
#386=CARTESIAN_POINT('',(6.68226865295666,4.35297832364099,0.));
#387=CARTESIAN_POINT('',(6.90737812317682,4.45883852636159,0.));
#388=CARTESIAN_POINT('',(7.33082888804275,4.7122307683109,0.));
#389=CARTESIAN_POINT('',(7.52768871521299,4.85831482722851,0.));
#390=CARTESIAN_POINT('',(7.89032286300265,5.19102524982676,0.));
#391=CARTESIAN_POINT('',(8.05583498188012,5.37852527114257,0.));
#392=CARTESIAN_POINT('',(8.33907598776312,5.77825463994064,0.));
#393=CARTESIAN_POINT('',(8.45945876255391,5.99300086103452,0.));
#394=CARTESIAN_POINT('',(8.65393622992304,6.44939256987357,0.));
#395=CARTESIAN_POINT('',(8.72516420370365,6.68385826890323,0.));
#396=CARTESIAN_POINT('',(8.81831524260522,7.16467452218992,0.));
#397=CARTESIAN_POINT('',(8.83991813458664,7.41403434174791,0.));
#398=CARTESIAN_POINT('',(8.8315182155715,7.90532290655889,0.));
#399=CARTESIAN_POINT('',(8.80236846239326,8.14814674254325,0.));
#400=CARTESIAN_POINT('',(8.69499335415975,8.6282466690073,0.));
#401=CARTESIAN_POINT('',(8.61606361541006,8.86521257668625,0.));
#402=CARTESIAN_POINT('',(8.41636001695215,9.3121019414769,0.));
#403=CARTESIAN_POINT('',(8.29508519117749,9.52494988574155,0.));
#404=CARTESIAN_POINT('',(8.0088156479682,9.92902006036745,0.));
#405=CARTESIAN_POINT('',(7.84709799396262,10.1152301641059,0.));
#406=CARTESIAN_POINT('',(7.49268767071413,10.4523668333697,0.));
#407=CARTESIAN_POINT('',(7.29768928602784,10.6052307832804,0.));
#408=CARTESIAN_POINT('',(6.88125315118576,10.8710964627195,0.));
#409=CARTESIAN_POINT('',(6.66318656448822,10.9824153289024,0.));
#410=CARTESIAN_POINT('',(6.2079733871151,11.1631792841568,0.));
#411=CARTESIAN_POINT('',(5.96814107835865,11.2329357789709,0.));
#412=CARTESIAN_POINT('',(5.48515089873278,11.3246763755355,0.));
#413=CARTESIAN_POINT('',(5.24157780919884,11.3474471855316,0.));
#414=CARTESIAN_POINT('',(4.75028862537989,11.3469342807087,0.));
#415=CARTESIAN_POINT('',(4.50152423842021,11.3229357983947,0.));
#416=CARTESIAN_POINT('',(4.02032298256929,11.2299123174589,0.));
#417=CARTESIAN_POINT('',(3.78530827560181,11.1611190433591,0.));
#418=CARTESIAN_POINT('',(3.32674695482539,10.9777877190825,0.));
#419=CARTESIAN_POINT('',(3.10632501944964,10.8640475359296,0.));
#420=CARTESIAN_POINT('',(2.69452617850798,10.5993350449516,0.));
#421=CARTESIAN_POINT('',(2.50028303788877,10.446714413316,0.));
#422=CARTESIAN_POINT('',(2.14276729205379,10.1045043405786,0.));
#423=CARTESIAN_POINT('',(1.98296901552025,9.91860897303581,0.));
#424=CARTESIAN_POINT('',(1.70067111424422,9.5177216579829,0.));
#425=CARTESIAN_POINT('',(1.57732326076053,9.30023405156946,0.));
#426=CARTESIAN_POINT('',(1.37851978530992,8.8506868058135,0.));
#427=CARTESIAN_POINT('',(1.30193765364647,8.61796644019353,0.));
#428=CARTESIAN_POINT('',(1.19575775627481,8.13616378455706,0.));
#429=CARTESIAN_POINT('',(1.16716130197027,7.88895119948379,0.));
#430=CARTESIAN_POINT('',(1.1609337478383,7.39896434639376,0.));
#431=CARTESIAN_POINT('',(1.18318646891699,7.15144110262685,0.));
#432=CARTESIAN_POINT('',(1.27922098352435,6.66705600475805,0.));
#433=CARTESIAN_POINT('',(1.35187139845774,6.4331536367536,0.));
#434=CARTESIAN_POINT('',(1.54644025813743,5.98192983963007,0.));
#435=CARTESIAN_POINT('',(1.6697213816586,5.76389308913072,0.));
#436=CARTESIAN_POINT('',(1.95446376457865,5.36607257197298,0.));
#437=CARTESIAN_POINT('',(2.11689530706177,5.18333446324953,0.));
#438=CARTESIAN_POINT('',(2.4821421203728,4.85041459069206,0.));
#439=CARTESIAN_POINT('',(2.68163889365713,4.70387833241242,0.));
#440=CARTESIAN_POINT('',(3.10079908315109,4.45488211768773,0.));
#441=CARTESIAN_POINT('',(3.32207943703552,4.35096188980128,0.));
#442=CARTESIAN_POINT('',(3.78737053829261,4.18309860822132,0.));
#443=CARTESIAN_POINT('',(4.02600381862028,4.12124936992122,0.));
#444=CARTESIAN_POINT('',(4.50792773837757,4.0390936256478,0.));
#445=CARTESIAN_POINT('',(4.75225717172466,4.01841559560626,0.));
#446=CARTESIAN_POINT('',(5.49548565655068,4.01841559560626,0.));
#447=CARTESIAN_POINT('',(0.,0.,0.));
#448=CARTESIAN_POINT('',(3.,4.5171819551236,0.));
#449=CARTESIAN_POINT('',(150.,0.,0.));
#450=CARTESIAN_POINT('',(150.,0.,14.5));
#451=CARTESIAN_POINT('',(150.,0.,0.));
#452=CARTESIAN_POINT('',(149.,0.,0.));
#453=CARTESIAN_POINT('',(149.,0.,15.5));
#454=CARTESIAN_POINT('',(149.,0.,0.));
#455=CARTESIAN_POINT('',(146.,0.,0.));
#456=CARTESIAN_POINT('',(146.,0.,15.5));
#457=CARTESIAN_POINT('',(0.,0.,0.));
#458=CARTESIAN_POINT('',(146.,0.,0.));
#459=(
GEOMETRIC_REPRESENTATION_CONTEXT(3)
GLOBAL_UNCERTAINTY_ASSIGNED_CONTEXT((#460))
GLOBAL_UNIT_ASSIGNED_CONTEXT((#466,#462,#461))
REPRESENTATION_CONTEXT('model1','TOP_LEVEL_ASSEMBLY_PART')
);
#460=UNCERTAINTY_MEASURE_WITH_UNIT(LENGTH_MEASURE(2.E-5),#466,
'DISTANCE_ACCURACY_VALUE','Maximum Tolerance applied to model');
#461=(
NAMED_UNIT(*)
SI_UNIT($,.STERADIAN.)
SOLID_ANGLE_UNIT()
);
#462=(
CONVERSION_BASED_UNIT('DEGREE',#464)
NAMED_UNIT(#463)
PLANE_ANGLE_UNIT()
);
#463=DIMENSIONAL_EXPONENTS(0.,0.,0.,0.,0.,0.,0.);
#464=PLANE_ANGLE_MEASURE_WITH_UNIT(PLANE_ANGLE_MEASURE(0.0174532925),#465);
#465=(
NAMED_UNIT(*)
PLANE_ANGLE_UNIT()
SI_UNIT($,.RADIAN.)
);
#466=(
LENGTH_UNIT()
NAMED_UNIT(*)
SI_UNIT(.MILLI.,.METRE.)
);
ENDSEC;
END-ISO-10303-21;
