ISO-10303-21;
HEADER;
/* Generated by software containing ST-Developer
 * from STEP Tools, Inc. (www.steptools.com) 
 */
/* OPTION: using custom schema-name function */

FILE_DESCRIPTION(
/* description */ (''),
/* implementation_level */ '2;1');

FILE_NAME(
/* name */ 'AEMRC-RD10T3-D32-M16-L43-Z03-H.stp',
/* time_stamp */ '2023-10-19T18:41:10+03:00',
/* author */ (''),
/* organization */ (''),
/* preprocessor_version */ 'ST-DEVELOPER v19.4',
/* originating_system */ 'SIEMENS PLM Software NX2306.5001',
/* authorisation */ '');

FILE_SCHEMA (('AUTOMOTIVE_DESIGN { 1 0 10303 214 3 1 1 1 }'));
ENDSEC;

DATA;
#10=PROPERTY_DEFINITION_REPRESENTATION(#14,#12);
#11=PROPERTY_DEFINITION_REPRESENTATION(#15,#13);
#12=REPRESENTATION('',(#16),#538);
#13=REPRESENTATION('',(#17),#538);
#14=PROPERTY_DEFINITION('pmi validation property','',#21);
#15=PROPERTY_DEFINITION('pmi validation property','',#21);
#16=VALUE_REPRESENTATION_ITEM('number of annotations',COUNT_MEASURE(0.));
#17=VALUE_REPRESENTATION_ITEM('number of views',COUNT_MEASURE(0.));
#18=SHAPE_REPRESENTATION_RELATIONSHIP('None',
'relationship between AEMRC-RD10T3-D32-M16-L43-Z03-H_LIGHT_x_t_objects
-None and AEMRC-RD10T3-D32-M16-L43-Z03-H_LIGHT_x_t_objects-None',#30,#19);
#19=ADVANCED_BREP_SHAPE_REPRESENTATION(
'AEMRC-RD10T3-D32-M16-L43-Z03-H_LIGHT_x_t_objects-None',(#50,#51),#538);
#20=SHAPE_DEFINITION_REPRESENTATION(#21,#30);
#21=PRODUCT_DEFINITION_SHAPE('','',#22);
#22=PRODUCT_DEFINITION(' ','',#24,#23);
#23=PRODUCT_DEFINITION_CONTEXT('part definition',#29,'design');
#24=PRODUCT_DEFINITION_FORMATION_WITH_SPECIFIED_SOURCE(' ',' ',#26,
 .NOT_KNOWN.);
#25=PRODUCT_RELATED_PRODUCT_CATEGORY('part','',(#26));
#26=PRODUCT('AEMRC-RD10T3-D32-M16-L43-Z03-H_LIGHT_x_t_objects',
'AEMRC-RD10T3-D32-M16-L43-Z03-H_LIGHT_x_t_objects',' ',(#27));
#27=PRODUCT_CONTEXT(' ',#29,'mechanical');
#28=APPLICATION_PROTOCOL_DEFINITION('international standard',
'automotive_design',2010,#29);
#29=APPLICATION_CONTEXT(
'core data for automotive mechanical design processes');
#30=SHAPE_REPRESENTATION(
'AEMRC-RD10T3-D32-M16-L43-Z03-H_LIGHT_x_t_objects-None',(#243),#538);
#31=DRAUGHTING_PRE_DEFINED_COLOUR('yellow');
#32=(
BOUNDED_SURFACE()
B_SPLINE_SURFACE(3,3,((#460,#461,#462,#463,#464,#465,#466),(#467,#468,#469,
#470,#471,#472,#473),(#474,#475,#476,#477,#478,#479,#480),(#481,#482,#483,
#484,#485,#486,#487),(#488,#489,#490,#491,#492,#493,#494),(#495,#496,#497,
#498,#499,#500,#501),(#502,#503,#504,#505,#506,#507,#508)),
 .UNSPECIFIED.,.T.,.F.,.F.)
B_SPLINE_SURFACE_WITH_KNOTS((1,3,3,3,1),(4,3,4),(-0.5,0.,0.5,1.,1.5),(0.,
0.5,1.),.UNSPECIFIED.)
GEOMETRIC_REPRESENTATION_ITEM()
RATIONAL_B_SPLINE_SURFACE(((1.,0.566814176809728,0.566814176809728,1.,0.566814176809728,
0.566814176809728,1.),(0.333333333333334,0.188938058936576,0.188938058936576,
0.333333333333334,0.188938058936576,0.188938058936576,0.333333333333334),
(0.333333333333334,0.188938058936576,0.188938058936576,0.333333333333334,
0.188938058936576,0.188938058936576,0.333333333333334),(1.,0.566814176809728,
0.566814176809728,1.,0.566814176809728,0.566814176809728,1.),(0.333333333333334,
0.188938058936576,0.188938058936576,0.333333333333334,0.188938058936576,
0.188938058936576,0.333333333333334),(0.333333333333334,0.188938058936576,
0.188938058936576,0.333333333333334,0.188938058936576,0.188938058936576,
0.333333333333334),(1.,0.566814176809728,0.566814176809728,1.,0.566814176809728,
0.566814176809728,1.)))
REPRESENTATION_ITEM('')
SURFACE()
);
#33=(
BOUNDED_SURFACE()
B_SPLINE_SURFACE(3,3,((#509,#510,#511,#512),(#513,#514,#515,#516),(#517,
#518,#519,#520),(#521,#522,#523,#524),(#525,#526,#527,#528),(#529,#530,
#531,#532),(#533,#534,#535,#536)),.UNSPECIFIED.,.T.,.F.,.F.)
B_SPLINE_SURFACE_WITH_KNOTS((1,3,3,3,1),(4,4),(-0.5,0.,0.5,1.,1.5),(0.,
1.),.UNSPECIFIED.)
GEOMETRIC_REPRESENTATION_ITEM()
RATIONAL_B_SPLINE_SURFACE(((1.,0.836460087188654,0.836460087188654,1.),
(0.333333333333334,0.278820029062885,0.278820029062885,0.333333333333334),
(0.333333333333334,0.278820029062885,0.278820029062885,0.333333333333334),
(1.,0.836460087188654,0.836460087188654,1.),(0.333333333333334,0.278820029062885,
0.278820029062885,0.333333333333334),(0.333333333333334,0.278820029062885,
0.278820029062885,0.333333333333334),(1.,0.836460087188654,0.836460087188654,
1.)))
REPRESENTATION_ITEM('')
SURFACE()
);
#34=PRESENTATION_LAYER_ASSIGNMENT('1','Layer 1',(#50,#51));
#35=STYLED_ITEM('',(#37),#50);
#36=STYLED_ITEM('',(#38),#51);
#37=PRESENTATION_STYLE_ASSIGNMENT((#39));
#38=PRESENTATION_STYLE_ASSIGNMENT((#40));
#39=SURFACE_STYLE_USAGE(.BOTH.,#41);
#40=SURFACE_STYLE_USAGE(.BOTH.,#42);
#41=SURFACE_SIDE_STYLE('',(#43));
#42=SURFACE_SIDE_STYLE('',(#44));
#43=SURFACE_STYLE_FILL_AREA(#45);
#44=SURFACE_STYLE_FILL_AREA(#46);
#45=FILL_AREA_STYLE('',(#47));
#46=FILL_AREA_STYLE('',(#48));
#47=FILL_AREA_STYLE_COLOUR('',#49);
#48=FILL_AREA_STYLE_COLOUR('',#31);
#49=COLOUR_RGB('silver gray',0.6,0.6,0.6);
#50=MANIFOLD_SOLID_BREP('',#52);
#51=MANIFOLD_SOLID_BREP('',#53);
#52=CLOSED_SHELL('',(#101,#102,#103,#104,#105,#106,#107,#108,#109,#110,
#111,#112,#113,#114,#115,#116));
#53=CLOSED_SHELL('',(#117,#118));
#54=SURFACE_OF_REVOLUTION('',#56,#55);
#55=AXIS1_PLACEMENT('',#454,#336);
#56=B_SPLINE_CURVE_WITH_KNOTS('',3,(#388,#389,#390,#391,#392,#393,#394,
#395,#396,#397,#398,#399,#400,#401,#402,#403,#404,#405,#406,#407,#408,#409,
#410,#411,#412,#413,#414,#415,#416,#417,#418,#419,#420,#421,#422,#423,#424,
#425,#426,#427,#428,#429,#430,#431,#432,#433,#434,#435,#436,#437,#438,#439,
#440,#441,#442,#443,#444,#445,#446,#447,#448,#449,#450,#451,#452,#453),
 .UNSPECIFIED.,.T.,.F.,(2,2,2,2,2,2,2,2,2,2,2,2,2,2,2,2,2,2,2,2,2,2,2,2,
2,2,2,2,2,2,2,2,2,2,2),(-0.03125,0.,0.03125,0.0625,0.09375,0.125,0.15625,
0.1875,0.21875,0.25,0.28125,0.3125,0.34375,0.375,0.40625,0.4375,0.46875,
0.5,0.53125,0.5625,0.59375,0.625,0.65625,0.6875,0.71875,0.75,0.78125,0.8125,
0.84375,0.875,0.90625,0.9375,0.96875,1.,1.03125),.UNSPECIFIED.);
#57=TOROIDAL_SURFACE('',#257,8.88,0.6);
#58=TOROIDAL_SURFACE('',#271,16.3,2.);
#59=CYLINDRICAL_SURFACE('',#249,7.875);
#60=CYLINDRICAL_SURFACE('',#253,8.5);
#61=CYLINDRICAL_SURFACE('',#265,14.5);
#62=CYLINDRICAL_SURFACE('',#269,14.3);
#63=CONICAL_SURFACE('',#247,5.875,44.9999999999996);
#64=CONICAL_SURFACE('',#251,7.875,30.);
#65=CONICAL_SURFACE('',#255,8.5,15.0000000000002);
#66=CONICAL_SURFACE('',#259,9.03529142706151,75.0000000000001);
#67=CONICAL_SURFACE('',#263,14.,45.);
#68=CONICAL_SURFACE('',#267,14.5,45.0000000000002);
#69=FACE_BOUND('',#125,.T.);
#70=FACE_BOUND('',#126,.T.);
#71=FACE_BOUND('',#127,.T.);
#72=FACE_BOUND('',#128,.T.);
#73=FACE_BOUND('',#129,.T.);
#74=FACE_BOUND('',#130,.T.);
#75=FACE_BOUND('',#131,.T.);
#76=FACE_BOUND('',#132,.T.);
#77=FACE_BOUND('',#133,.T.);
#78=FACE_BOUND('',#134,.T.);
#79=FACE_BOUND('',#135,.T.);
#80=FACE_BOUND('',#136,.T.);
#81=FACE_BOUND('',#137,.T.);
#82=FACE_BOUND('',#138,.T.);
#83=FACE_BOUND('',#139,.T.);
#84=FACE_BOUND('',#140,.T.);
#85=FACE_BOUND('',#141,.T.);
#86=FACE_BOUND('',#142,.T.);
#87=FACE_BOUND('',#143,.T.);
#88=FACE_BOUND('',#144,.T.);
#89=FACE_BOUND('',#145,.T.);
#90=FACE_BOUND('',#146,.T.);
#91=FACE_BOUND('',#147,.T.);
#92=FACE_BOUND('',#148,.T.);
#93=FACE_BOUND('',#149,.T.);
#94=FACE_BOUND('',#150,.T.);
#95=FACE_BOUND('',#151,.T.);
#96=FACE_BOUND('',#152,.T.);
#97=FACE_BOUND('',#154,.T.);
#98=FACE_BOUND('',#155,.T.);
#99=FACE_BOUND('',#156,.T.);
#100=FACE_BOUND('',#157,.T.);
#101=ADVANCED_FACE('',(#122),#119,.F.);
#102=ADVANCED_FACE('',(#69,#70),#63,.T.);
#103=ADVANCED_FACE('',(#71,#72),#59,.T.);
#104=ADVANCED_FACE('',(#73,#74),#64,.T.);
#105=ADVANCED_FACE('',(#75,#76),#60,.T.);
#106=ADVANCED_FACE('',(#77,#78),#65,.T.);
#107=ADVANCED_FACE('',(#79,#80),#57,.F.);
#108=ADVANCED_FACE('',(#81,#82),#66,.F.);
#109=ADVANCED_FACE('',(#83,#84),#120,.F.);
#110=ADVANCED_FACE('',(#85,#86),#67,.T.);
#111=ADVANCED_FACE('',(#87,#88),#61,.T.);
#112=ADVANCED_FACE('',(#89,#90),#68,.T.);
#113=ADVANCED_FACE('',(#91,#92),#62,.T.);
#114=ADVANCED_FACE('',(#93,#94),#58,.F.);
#115=ADVANCED_FACE('',(#95,#96),#54,.T.);
#116=ADVANCED_FACE('',(#123),#121,.F.);
#117=ADVANCED_FACE('',(#97,#98),#32,.F.);
#118=ADVANCED_FACE('',(#99,#100),#33,.F.);
#119=PLANE('',#245);
#120=PLANE('',#261);
#121=PLANE('',#273);
#122=FACE_OUTER_BOUND('',#124,.T.);
#123=FACE_OUTER_BOUND('',#153,.T.);
#124=EDGE_LOOP('',(#158));
#125=EDGE_LOOP('',(#159));
#126=EDGE_LOOP('',(#160));
#127=EDGE_LOOP('',(#161));
#128=EDGE_LOOP('',(#162));
#129=EDGE_LOOP('',(#163));
#130=EDGE_LOOP('',(#164));
#131=EDGE_LOOP('',(#165));
#132=EDGE_LOOP('',(#166));
#133=EDGE_LOOP('',(#167));
#134=EDGE_LOOP('',(#168));
#135=EDGE_LOOP('',(#169));
#136=EDGE_LOOP('',(#170));
#137=EDGE_LOOP('',(#171));
#138=EDGE_LOOP('',(#172));
#139=EDGE_LOOP('',(#173));
#140=EDGE_LOOP('',(#174));
#141=EDGE_LOOP('',(#175));
#142=EDGE_LOOP('',(#176));
#143=EDGE_LOOP('',(#177));
#144=EDGE_LOOP('',(#178));
#145=EDGE_LOOP('',(#179));
#146=EDGE_LOOP('',(#180));
#147=EDGE_LOOP('',(#181));
#148=EDGE_LOOP('',(#182));
#149=EDGE_LOOP('',(#183));
#150=EDGE_LOOP('',(#184));
#151=EDGE_LOOP('',(#185));
#152=EDGE_LOOP('',(#186));
#153=EDGE_LOOP('',(#187));
#154=EDGE_LOOP('',(#188));
#155=EDGE_LOOP('',(#189));
#156=EDGE_LOOP('',(#190));
#157=EDGE_LOOP('',(#191));
#158=ORIENTED_EDGE('',*,*,#209,.F.);
#159=ORIENTED_EDGE('',*,*,#210,.F.);
#160=ORIENTED_EDGE('',*,*,#209,.T.);
#161=ORIENTED_EDGE('',*,*,#211,.F.);
#162=ORIENTED_EDGE('',*,*,#210,.T.);
#163=ORIENTED_EDGE('',*,*,#212,.F.);
#164=ORIENTED_EDGE('',*,*,#211,.T.);
#165=ORIENTED_EDGE('',*,*,#213,.F.);
#166=ORIENTED_EDGE('',*,*,#212,.T.);
#167=ORIENTED_EDGE('',*,*,#214,.F.);
#168=ORIENTED_EDGE('',*,*,#213,.T.);
#169=ORIENTED_EDGE('',*,*,#215,.F.);
#170=ORIENTED_EDGE('',*,*,#214,.T.);
#171=ORIENTED_EDGE('',*,*,#216,.F.);
#172=ORIENTED_EDGE('',*,*,#215,.T.);
#173=ORIENTED_EDGE('',*,*,#217,.F.);
#174=ORIENTED_EDGE('',*,*,#216,.T.);
#175=ORIENTED_EDGE('',*,*,#218,.F.);
#176=ORIENTED_EDGE('',*,*,#217,.T.);
#177=ORIENTED_EDGE('',*,*,#219,.F.);
#178=ORIENTED_EDGE('',*,*,#218,.T.);
#179=ORIENTED_EDGE('',*,*,#220,.F.);
#180=ORIENTED_EDGE('',*,*,#219,.T.);
#181=ORIENTED_EDGE('',*,*,#221,.F.);
#182=ORIENTED_EDGE('',*,*,#220,.T.);
#183=ORIENTED_EDGE('',*,*,#222,.F.);
#184=ORIENTED_EDGE('',*,*,#221,.T.);
#185=ORIENTED_EDGE('',*,*,#223,.F.);
#186=ORIENTED_EDGE('',*,*,#222,.T.);
#187=ORIENTED_EDGE('',*,*,#223,.T.);
#188=ORIENTED_EDGE('',*,*,#224,.T.);
#189=ORIENTED_EDGE('',*,*,#225,.T.);
#190=ORIENTED_EDGE('',*,*,#225,.F.);
#191=ORIENTED_EDGE('',*,*,#224,.F.);
#192=VERTEX_POINT('',#345);
#193=VERTEX_POINT('',#348);
#194=VERTEX_POINT('',#351);
#195=VERTEX_POINT('',#354);
#196=VERTEX_POINT('',#357);
#197=VERTEX_POINT('',#360);
#198=VERTEX_POINT('',#363);
#199=VERTEX_POINT('',#366);
#200=VERTEX_POINT('',#369);
#201=VERTEX_POINT('',#372);
#202=VERTEX_POINT('',#375);
#203=VERTEX_POINT('',#378);
#204=VERTEX_POINT('',#381);
#205=VERTEX_POINT('',#384);
#206=VERTEX_POINT('',#387);
#207=VERTEX_POINT('',#457);
#208=VERTEX_POINT('',#459);
#209=EDGE_CURVE('',#192,#192,#226,.T.);
#210=EDGE_CURVE('',#193,#193,#227,.T.);
#211=EDGE_CURVE('',#194,#194,#228,.T.);
#212=EDGE_CURVE('',#195,#195,#229,.T.);
#213=EDGE_CURVE('',#196,#196,#230,.T.);
#214=EDGE_CURVE('',#197,#197,#231,.T.);
#215=EDGE_CURVE('',#198,#198,#232,.T.);
#216=EDGE_CURVE('',#199,#199,#233,.T.);
#217=EDGE_CURVE('',#200,#200,#234,.T.);
#218=EDGE_CURVE('',#201,#201,#235,.T.);
#219=EDGE_CURVE('',#202,#202,#236,.T.);
#220=EDGE_CURVE('',#203,#203,#237,.T.);
#221=EDGE_CURVE('',#204,#204,#238,.T.);
#222=EDGE_CURVE('',#205,#205,#239,.T.);
#223=EDGE_CURVE('',#206,#206,#240,.T.);
#224=EDGE_CURVE('',#207,#207,#241,.T.);
#225=EDGE_CURVE('',#208,#208,#242,.T.);
#226=CIRCLE('',#244,5.875);
#227=CIRCLE('',#246,7.875);
#228=CIRCLE('',#248,7.875);
#229=CIRCLE('',#250,8.5);
#230=CIRCLE('',#252,8.5);
#231=CIRCLE('',#254,8.30044450422656);
#232=CIRCLE('',#256,9.03529142706151);
#233=CIRCLE('',#258,9.78004267621759);
#234=CIRCLE('',#260,14.);
#235=CIRCLE('',#262,14.5);
#236=CIRCLE('',#264,14.5);
#237=CIRCLE('',#266,14.3);
#238=CIRCLE('',#268,14.3);
#239=CIRCLE('',#270,14.3766582529278);
#240=CIRCLE('',#272,7.8517973968244);
#241=CIRCLE('',#274,5.);
#242=CIRCLE('',#275,5.);
#243=AXIS2_PLACEMENT_3D('',#343,#276,#277);
#244=AXIS2_PLACEMENT_3D('',#344,#278,#279);
#245=AXIS2_PLACEMENT_3D('',#346,#280,#281);
#246=AXIS2_PLACEMENT_3D('',#347,#282,#283);
#247=AXIS2_PLACEMENT_3D('',#349,#284,#285);
#248=AXIS2_PLACEMENT_3D('',#350,#286,#287);
#249=AXIS2_PLACEMENT_3D('',#352,#288,#289);
#250=AXIS2_PLACEMENT_3D('',#353,#290,#291);
#251=AXIS2_PLACEMENT_3D('',#355,#292,#293);
#252=AXIS2_PLACEMENT_3D('',#356,#294,#295);
#253=AXIS2_PLACEMENT_3D('',#358,#296,#297);
#254=AXIS2_PLACEMENT_3D('',#359,#298,#299);
#255=AXIS2_PLACEMENT_3D('',#361,#300,#301);
#256=AXIS2_PLACEMENT_3D('',#362,#302,#303);
#257=AXIS2_PLACEMENT_3D('',#364,#304,#305);
#258=AXIS2_PLACEMENT_3D('',#365,#306,#307);
#259=AXIS2_PLACEMENT_3D('',#367,#308,#309);
#260=AXIS2_PLACEMENT_3D('',#368,#310,#311);
#261=AXIS2_PLACEMENT_3D('',#370,#312,#313);
#262=AXIS2_PLACEMENT_3D('',#371,#314,#315);
#263=AXIS2_PLACEMENT_3D('',#373,#316,#317);
#264=AXIS2_PLACEMENT_3D('',#374,#318,#319);
#265=AXIS2_PLACEMENT_3D('',#376,#320,#321);
#266=AXIS2_PLACEMENT_3D('',#377,#322,#323);
#267=AXIS2_PLACEMENT_3D('',#379,#324,#325);
#268=AXIS2_PLACEMENT_3D('',#380,#326,#327);
#269=AXIS2_PLACEMENT_3D('',#382,#328,#329);
#270=AXIS2_PLACEMENT_3D('',#383,#330,#331);
#271=AXIS2_PLACEMENT_3D('',#385,#332,#333);
#272=AXIS2_PLACEMENT_3D('',#386,#334,#335);
#273=AXIS2_PLACEMENT_3D('',#455,#337,#338);
#274=AXIS2_PLACEMENT_3D('',#456,#339,#340);
#275=AXIS2_PLACEMENT_3D('',#458,#341,#342);
#276=DIRECTION('',(0.,0.,1.));
#277=DIRECTION('',(1.,0.,0.));
#278=DIRECTION('',(-1.,0.,0.));
#279=DIRECTION('',(0.,0.,1.));
#280=DIRECTION('',(-1.,0.,0.));
#281=DIRECTION('',(0.,0.,1.));
#282=DIRECTION('',(-1.,0.,0.));
#283=DIRECTION('',(0.,0.,1.));
#284=DIRECTION('',(-1.,0.,0.));
#285=DIRECTION('',(5.51869280290878E-17,0.,1.));
#286=DIRECTION('',(-1.,0.,0.));
#287=DIRECTION('',(0.,0.,1.));
#288=DIRECTION('',(-1.,0.,0.));
#289=DIRECTION('',(0.,0.,1.));
#290=DIRECTION('',(-1.,0.,0.));
#291=DIRECTION('',(0.,0.,1.));
#292=DIRECTION('',(-1.,0.,0.));
#293=DIRECTION('',(8.29975393827572E-17,0.,1.));
#294=DIRECTION('',(-1.,0.,0.));
#295=DIRECTION('',(0.,0.,1.));
#296=DIRECTION('',(-1.,0.,0.));
#297=DIRECTION('',(0.,0.,1.));
#298=DIRECTION('',(-1.,0.,0.));
#299=DIRECTION('',(0.,0.,1.));
#300=DIRECTION('',(1.,0.,0.));
#301=DIRECTION('',(-2.00800554861768E-16,0.,-1.));
#302=DIRECTION('',(-1.,0.,0.));
#303=DIRECTION('',(0.,0.,1.));
#304=DIRECTION('',(-1.,0.,0.));
#305=DIRECTION('',(0.,0.,1.));
#306=DIRECTION('',(-1.,0.,0.));
#307=DIRECTION('',(0.,0.,1.));
#308=DIRECTION('',(1.,0.,0.));
#309=DIRECTION('',(-1.66930253628554E-17,0.,-1.));
#310=DIRECTION('',(-1.,0.,0.));
#311=DIRECTION('',(0.,0.,1.));
#312=DIRECTION('',(-1.,0.,0.));
#313=DIRECTION('',(0.,0.,1.));
#314=DIRECTION('',(-1.,0.,0.));
#315=DIRECTION('',(0.,0.,1.));
#316=DIRECTION('',(-1.,0.,0.));
#317=DIRECTION('',(4.10585438101019E-17,0.,1.));
#318=DIRECTION('',(-1.,0.,0.));
#319=DIRECTION('',(0.,0.,1.));
#320=DIRECTION('',(-1.,0.,0.));
#321=DIRECTION('',(0.,0.,1.));
#322=DIRECTION('',(-1.,0.,0.));
#323=DIRECTION('',(0.,0.,1.));
#324=DIRECTION('',(1.,0.,0.));
#325=DIRECTION('',(1.36794359860171E-17,0.,-1.));
#326=DIRECTION('',(-1.,0.,0.));
#327=DIRECTION('',(0.,0.,1.));
#328=DIRECTION('',(-1.,0.,0.));
#329=DIRECTION('',(0.,0.,1.));
#330=DIRECTION('',(-1.,0.,0.));
#331=DIRECTION('',(0.,0.,1.));
#332=DIRECTION('',(-1.,0.,0.));
#333=DIRECTION('',(0.,0.,1.));
#334=DIRECTION('',(-1.,0.,0.));
#335=DIRECTION('',(0.,0.,1.));
#336=DIRECTION('',(-1.,0.,0.));
#337=DIRECTION('',(1.,0.,0.));
#338=DIRECTION('',(0.,0.,-1.));
#339=DIRECTION('',(0.,0.990276318675211,0.139114387002466));
#340=DIRECTION('',(1.,0.,0.));
#341=DIRECTION('',(0.,0.,-1.));
#342=DIRECTION('',(1.,0.,0.));
#343=CARTESIAN_POINT('',(0.,0.,0.));
#344=CARTESIAN_POINT('',(68.,0.,0.));
#345=CARTESIAN_POINT('',(68.,0.,5.875));
#346=CARTESIAN_POINT('',(68.,0.,0.));
#347=CARTESIAN_POINT('',(66.,0.,0.));
#348=CARTESIAN_POINT('',(66.,0.,7.875));
#349=CARTESIAN_POINT('',(68.,0.,0.));
#350=CARTESIAN_POINT('',(50.0825317547306,0.,0.));
#351=CARTESIAN_POINT('',(50.0825317547306,0.,7.875));
#352=CARTESIAN_POINT('',(0.,0.,0.));
#353=CARTESIAN_POINT('',(49.,0.,0.));
#354=CARTESIAN_POINT('',(49.,0.,8.5));
#355=CARTESIAN_POINT('',(50.0825317547306,0.,0.));
#356=CARTESIAN_POINT('',(44.2800426762176,0.,0.));
#357=CARTESIAN_POINT('',(44.2800426762176,0.,8.5));
#358=CARTESIAN_POINT('',(0.,0.,0.));
#359=CARTESIAN_POINT('',(43.5352914270615,0.,0.));
#360=CARTESIAN_POINT('',(43.5352914270615,0.,8.30044450422656));
#361=CARTESIAN_POINT('',(44.2800426762176,0.,0.));
#362=CARTESIAN_POINT('',(42.8004445042265,0.,0.));
#363=CARTESIAN_POINT('',(42.8004445042265,0.,9.03529142706151));
#364=CARTESIAN_POINT('',(43.38,0.,0.));
#365=CARTESIAN_POINT('',(43.,0.,0.));
#366=CARTESIAN_POINT('',(43.,0.,9.78004267621759));
#367=CARTESIAN_POINT('',(42.8004445042265,0.,0.));
#368=CARTESIAN_POINT('',(43.,0.,0.));
#369=CARTESIAN_POINT('',(43.,0.,14.));
#370=CARTESIAN_POINT('',(43.,9.78004267621759,0.));
#371=CARTESIAN_POINT('',(42.5,0.,0.));
#372=CARTESIAN_POINT('',(42.5,0.,14.5));
#373=CARTESIAN_POINT('',(43.,0.,0.));
#374=CARTESIAN_POINT('',(38.2,0.,0.));
#375=CARTESIAN_POINT('',(38.2,0.,14.5));
#376=CARTESIAN_POINT('',(0.,0.,0.));
#377=CARTESIAN_POINT('',(38.,0.,0.));
#378=CARTESIAN_POINT('',(38.,0.,14.3));
#379=CARTESIAN_POINT('',(38.2,0.,0.));
#380=CARTESIAN_POINT('',(7.38745355294585,0.,0.));
#381=CARTESIAN_POINT('',(7.38745355294585,0.,14.3));
#382=CARTESIAN_POINT('',(0.,0.,0.));
#383=CARTESIAN_POINT('',(6.83904082153885,0.,0.));
#384=CARTESIAN_POINT('',(6.83904082153885,0.,14.3766582529278));
#385=CARTESIAN_POINT('',(7.38745355294585,0.,0.));
#386=CARTESIAN_POINT('',(2.99999999998684,0.,0.));
#387=CARTESIAN_POINT('',(2.99999999998684,0.,7.8517973968244));
#388=CARTESIAN_POINT('',(4.74890140429823,7.30857741990277,0.));
#389=CARTESIAN_POINT('',(5.25109859570177,7.30857741990277,0.));
#390=CARTESIAN_POINT('',(5.49980586798748,7.33208915014204,0.));
#391=CARTESIAN_POINT('',(5.99224529653992,7.42617321127116,0.));
#392=CARTESIAN_POINT('',(6.23208743536672,7.49622498081852,0.));
#393=CARTESIAN_POINT('',(6.69260892478546,7.67959849657165,0.));
#394=CARTESIAN_POINT('',(6.91626347276945,7.79438225995997,0.));
#395=CARTESIAN_POINT('',(7.33612029381996,8.06518575899111,0.));
#396=CARTESIAN_POINT('',(7.53029127793966,8.21932623382819,0.));
#397=CARTESIAN_POINT('',(7.8870764066886,8.56513456468806,0.));
#398=CARTESIAN_POINT('',(8.05047676588125,8.75871556858367,0.));
#399=CARTESIAN_POINT('',(8.33082435489403,9.16841472508821,0.));
#400=CARTESIAN_POINT('',(8.44974431764304,9.38592758865851,0.));
#401=CARTESIAN_POINT('',(8.64388556248017,9.84698950859235,0.));
#402=CARTESIAN_POINT('',(8.71710518042857,10.0868931258618,0.));
#403=CARTESIAN_POINT('',(8.81359054916721,10.5727016766146,0.));
#404=CARTESIAN_POINT('',(8.83761409842919,10.822641061509,0.));
#405=CARTESIAN_POINT('',(8.83474715725708,11.3225877193853,0.));
#406=CARTESIAN_POINT('',(8.80835467618764,11.5689485434878,0.));
#407=CARTESIAN_POINT('',(8.7071440465374,12.054661181533,0.));
#408=CARTESIAN_POINT('',(8.63100662093817,12.2962458084644,0.));
#409=CARTESIAN_POINT('',(8.435424663883,12.7529145754737,0.));
#410=CARTESIAN_POINT('',(8.31607580250334,12.9698748724216,0.));
#411=CARTESIAN_POINT('',(8.03413876881531,13.3809821098978,0.));
#412=CARTESIAN_POINT('',(7.8715932885348,13.5739123755622,0.));
#413=CARTESIAN_POINT('',(7.51716919508458,13.9200052552845,0.));
#414=CARTESIAN_POINT('',(7.32380481969009,14.0755268308757,0.));
#415=CARTESIAN_POINT('',(6.90362202924832,14.3502732030489,0.));
#416=CARTESIAN_POINT('',(6.68316262846915,14.4652613706145,0.));
#417=CARTESIAN_POINT('',(6.22419670811712,14.651465558469,0.));
#418=CARTESIAN_POINT('',(5.98291210950674,14.7232754706432,0.));
#419=CARTESIAN_POINT('',(5.49299403437975,14.8184534807085,0.));
#420=CARTESIAN_POINT('',(5.24639761721875,14.8419897385304,0.));
#421=CARTESIAN_POINT('',(4.74998454966723,14.8417577342286,0.));
#422=CARTESIAN_POINT('',(4.49800576706649,14.817211932179,0.));
#423=CARTESIAN_POINT('',(4.01063006885942,14.7214976036973,0.));
#424=CARTESIAN_POINT('',(3.77323459898518,14.6507288543457,0.));
#425=CARTESIAN_POINT('',(3.31121977853807,14.4626714091973,0.));
#426=CARTESIAN_POINT('',(3.08817524661103,14.3453873637824,0.));
#427=CARTESIAN_POINT('',(2.67388437759966,14.0735258821917,0.));
#428=CARTESIAN_POINT('',(2.47985963260629,13.9177367531063,0.));
#429=CARTESIAN_POINT('',(2.12137275810978,13.5663930406222,0.));
#430=CARTESIAN_POINT('',(1.96207998445237,13.3760253991295,0.));
#431=CARTESIAN_POINT('',(1.68219390079182,12.9667838459349,0.));
#432=CARTESIAN_POINT('',(1.56063837561346,12.7452415179931,0.));
#433=CARTESIAN_POINT('',(1.36568129053466,12.28693549801,0.));
#434=CARTESIAN_POINT('',(1.29163454613543,12.0504860390941,0.));
#435=CARTESIAN_POINT('',(1.19074159150484,11.5628893040185,0.));
#436=CARTESIAN_POINT('',(1.1645915285883,11.3114049713247,0.));
#437=CARTESIAN_POINT('',(1.16296503338383,10.8155913959578,0.));
#438=CARTESIAN_POINT('',(1.18671929765763,10.5684842091453,0.));
#439=CARTESIAN_POINT('',(1.28561401682364,10.0759423061791,0.));
#440=CARTESIAN_POINT('',(1.35917164768548,9.83861713492113,0.));
#441=CARTESIAN_POINT('',(1.55226337080021,9.38230105736797,0.));
#442=CARTESIAN_POINT('',(1.67364358119347,9.16075342986287,0.));
#443=CARTESIAN_POINT('',(1.95603412334685,8.75037740556416,0.));
#444=CARTESIAN_POINT('',(2.11610419606333,8.56162501202957,0.));
#445=CARTESIAN_POINT('',(2.47324193356782,8.21633663308779,0.));
#446=CARTESIAN_POINT('',(2.67198087028027,8.05934404064583,0.));
#447=CARTESIAN_POINT('',(3.08927937251734,7.79144423581851,0.));
#448=CARTESIAN_POINT('',(3.30957078669298,7.67844797154851,0.));
#449=CARTESIAN_POINT('',(3.77341494002308,7.49432132170812,0.));
#450=CARTESIAN_POINT('',(4.01515927788011,7.42447015484556,0.));
#451=CARTESIAN_POINT('',(4.50176856233444,7.33208207481909,0.));
#452=CARTESIAN_POINT('',(4.74890140429823,7.30857741990277,0.));
#453=CARTESIAN_POINT('',(5.25109859570177,7.30857741990277,0.));
#454=CARTESIAN_POINT('',(0.,0.,0.));
#455=CARTESIAN_POINT('',(2.99999999999342,7.85179739681661,0.));
#456=CARTESIAN_POINT('',(5.,0.467779681537072,11.0468003499103));
#457=CARTESIAN_POINT('',(10.,0.467779681537072,11.0468003499103));
#458=CARTESIAN_POINT('',(5.,-10.8743099,2.));
#459=CARTESIAN_POINT('',(10.,-10.8743099,2.));
#460=CARTESIAN_POINT('',(10.,-10.8743099,2.));
#461=CARTESIAN_POINT('',(10.,-13.0776586903801,-9.97994878219166));
#462=CARTESIAN_POINT('',(10.,-2.62809562785348,-16.2393856992221));
#463=CARTESIAN_POINT('',(10.,6.89457155592209,-8.64381275025715));
#464=CARTESIAN_POINT('',(10.,16.4172387396977,-1.04823980129217));
#465=CARTESIAN_POINT('',(10.,12.6377567758097,10.5314594521708));
#466=CARTESIAN_POINT('',(10.,0.467779681537071,11.0468003499103));
#467=CARTESIAN_POINT('',(10.,-0.874309899999999,2.));
#468=CARTESIAN_POINT('',(10.,-3.0776586903801,1.03679516970883));
#469=CARTESIAN_POINT('',(10.,-2.94711611448002,-1.36434374194186));
#470=CARTESIAN_POINT('',(10.,-0.652329751907721,-2.08299872683927));
#471=CARTESIAN_POINT('',(10.,1.64245661066457,-2.80165371173668));
#472=CARTESIAN_POINT('',(10.,3.11928000135901,-0.903891316213087));
#473=CARTESIAN_POINT('',(10.,1.85892355156173,1.14403716315822));
#474=CARTESIAN_POINT('',(-5.10076676829453E-16,-0.874309899999999,2.));
#475=CARTESIAN_POINT('',(-5.10076676829453E-16,-3.0776586903801,1.03679516970883));
#476=CARTESIAN_POINT('',(-5.10076676829453E-16,-2.94711611448002,-1.36434374194186));
#477=CARTESIAN_POINT('',(-5.10076676829453E-16,-0.652329751907721,-2.08299872683927));
#478=CARTESIAN_POINT('',(-5.10076676829453E-16,1.64245661066457,-2.80165371173668));
#479=CARTESIAN_POINT('',(-5.10076676829453E-16,3.11928000135901,-0.903891316213087));
#480=CARTESIAN_POINT('',(-5.10076676829453E-16,1.85892355156173,1.14403716315822));
#481=CARTESIAN_POINT('',(-1.7347234759768E-15,-10.8743099,2.));
#482=CARTESIAN_POINT('',(-1.73472347597681E-15,-13.0776586903801,-9.97994878219166));
#483=CARTESIAN_POINT('',(-1.73472347597681E-15,-2.62809562785348,-16.2393856992221));
#484=CARTESIAN_POINT('',(-1.7347234759768E-15,6.89457155592209,-8.64381275025715));
#485=CARTESIAN_POINT('',(-1.73472347597681E-15,16.4172387396977,-1.04823980129217));
#486=CARTESIAN_POINT('',(-1.73472347597681E-15,12.6377567758097,10.5314594521708));
#487=CARTESIAN_POINT('',(-1.7347234759768E-15,0.467779681537071,11.0468003499103));
#488=CARTESIAN_POINT('',(-2.95937027512416E-15,-20.8743099,2.));
#489=CARTESIAN_POINT('',(-2.95937027512416E-15,-23.0776586903801,-20.9966927340921));
#490=CARTESIAN_POINT('',(-2.95937027512416E-15,-2.30907514122695,-31.1144276565024));
#491=CARTESIAN_POINT('',(-2.95937027512416E-15,14.4414728637519,-15.204626773675));
#492=CARTESIAN_POINT('',(-2.95937027512416E-15,31.1920208687308,0.705174109152338));
#493=CARTESIAN_POINT('',(-2.95937027512416E-15,22.1562335502605,21.9668102205547));
#494=CARTESIAN_POINT('',(-2.95937027512416E-15,-0.92336418848759,20.9495635366624));
#495=CARTESIAN_POINT('',(10.,-20.8743099,2.));
#496=CARTESIAN_POINT('',(10.,-23.0776586903801,-20.9966927340921));
#497=CARTESIAN_POINT('',(10.,-2.30907514122695,-31.1144276565024));
#498=CARTESIAN_POINT('',(10.,14.4414728637519,-15.204626773675));
#499=CARTESIAN_POINT('',(10.,31.1920208687308,0.705174109152338));
#500=CARTESIAN_POINT('',(10.,22.1562335502605,21.9668102205547));
#501=CARTESIAN_POINT('',(10.,-0.92336418848759,20.9495635366624));
#502=CARTESIAN_POINT('',(10.,-10.8743099,2.));
#503=CARTESIAN_POINT('',(10.,-13.0776586903801,-9.97994878219166));
#504=CARTESIAN_POINT('',(10.,-2.62809562785348,-16.2393856992221));
#505=CARTESIAN_POINT('',(10.,6.89457155592209,-8.64381275025715));
#506=CARTESIAN_POINT('',(10.,16.4172387396977,-1.04823980129217));
#507=CARTESIAN_POINT('',(10.,12.6377567758097,10.5314594521708));
#508=CARTESIAN_POINT('',(10.,0.467779681537071,11.0468003499103));
#509=CARTESIAN_POINT('',(10.,0.467779681537072,11.0468003499103));
#510=CARTESIAN_POINT('',(10.,-5.30862684876385,11.2914038116896));
#511=CARTESIAN_POINT('',(10.,-9.82850363079413,7.68621073335374));
#512=CARTESIAN_POINT('',(10.,-10.8743099,2.));
#513=CARTESIAN_POINT('',(10.,1.85892355156173,1.14403716315822));
#514=CARTESIAN_POINT('',(10.,1.26070293284405,2.11607411525707));
#515=CARTESIAN_POINT('',(10.,0.171496369205872,2.45717938732438));
#516=CARTESIAN_POINT('',(10.,-0.874309899999999,2.));
#517=CARTESIAN_POINT('',(-5.10076676829453E-16,1.85892355156173,1.14403716315822));
#518=CARTESIAN_POINT('',(-5.10076676829453E-16,1.26070293284405,2.11607411525707));
#519=CARTESIAN_POINT('',(-5.10076676829453E-16,0.171496369205872,2.45717938732438));
#520=CARTESIAN_POINT('',(-5.10076676829453E-16,-0.874309899999999,2.));
#521=CARTESIAN_POINT('',(-1.7347234759768E-15,0.467779681537072,11.0468003499103));
#522=CARTESIAN_POINT('',(-1.73472347597681E-15,-5.30862684876385,11.2914038116896));
#523=CARTESIAN_POINT('',(-1.73472347597681E-15,-9.82850363079413,7.68621073335374));
#524=CARTESIAN_POINT('',(-1.7347234759768E-15,-10.8743099,2.));
#525=CARTESIAN_POINT('',(-2.95937027512416E-15,-0.92336418848759,20.9495635366624));
#526=CARTESIAN_POINT('',(-2.95937027512416E-15,-11.8779566303717,20.4667335081222));
#527=CARTESIAN_POINT('',(-2.95937027512416E-15,-19.8285036307941,12.9152420793831));
#528=CARTESIAN_POINT('',(-2.95937027512416E-15,-20.8743099,2.));
#529=CARTESIAN_POINT('',(10.,-0.92336418848759,20.9495635366624));
#530=CARTESIAN_POINT('',(10.,-11.8779566303717,20.4667335081222));
#531=CARTESIAN_POINT('',(10.,-19.8285036307941,12.9152420793831));
#532=CARTESIAN_POINT('',(10.,-20.8743099,2.));
#533=CARTESIAN_POINT('',(10.,0.467779681537072,11.0468003499103));
#534=CARTESIAN_POINT('',(10.,-5.30862684876385,11.2914038116896));
#535=CARTESIAN_POINT('',(10.,-9.82850363079413,7.68621073335374));
#536=CARTESIAN_POINT('',(10.,-10.8743099,2.));
#537=MECHANICAL_DESIGN_GEOMETRIC_PRESENTATION_REPRESENTATION('',(#35,#36),
#538);
#538=(
GEOMETRIC_REPRESENTATION_CONTEXT(3)
GLOBAL_UNCERTAINTY_ASSIGNED_CONTEXT((#539))
GLOBAL_UNIT_ASSIGNED_CONTEXT((#545,#541,#540))
REPRESENTATION_CONTEXT('AEMRC-RD10T3-D32-M16-L43-Z03-H',
'TOP_LEVEL_ASSEMBLY_PART')
);
#539=UNCERTAINTY_MEASURE_WITH_UNIT(LENGTH_MEASURE(2.E-5),#545,
'DISTANCE_ACCURACY_VALUE','Maximum Tolerance applied to model');
#540=(
NAMED_UNIT(*)
SI_UNIT($,.STERADIAN.)
SOLID_ANGLE_UNIT()
);
#541=(
CONVERSION_BASED_UNIT('DEGREE',#543)
NAMED_UNIT(#542)
PLANE_ANGLE_UNIT()
);
#542=DIMENSIONAL_EXPONENTS(0.,0.,0.,0.,0.,0.,0.);
#543=PLANE_ANGLE_MEASURE_WITH_UNIT(PLANE_ANGLE_MEASURE(0.0174532925),#544);
#544=(
NAMED_UNIT(*)
PLANE_ANGLE_UNIT()
SI_UNIT($,.RADIAN.)
);
#545=(
LENGTH_UNIT()
NAMED_UNIT(*)
SI_UNIT(.MILLI.,.METRE.)
);
ENDSEC;
END-ISO-10303-21;
