ISO-10303-21;
HEADER;
/* Generated by software containing ST-Developer
 * from STEP Tools, Inc. (www.steptools.com) 
 */
/* OPTION: using custom schema-name function */

FILE_DESCRIPTION(
/* description */ (''),
/* implementation_level */ '2;1');

FILE_NAME(
/* name */ 'model1.stp',
/* time_stamp */ '2023-11-07T10:28:05+03:00',
/* author */ (''),
/* organization */ (''),
/* preprocessor_version */ 'ST-DEVELOPER v19.4',
/* originating_system */ 'SIEMENS PLM Software NX2306.3001',
/* authorisation */ '');

FILE_SCHEMA (('AUTOMOTIVE_DESIGN { 1 0 10303 214 3 1 1 1 }'));
ENDSEC;

DATA;
#10=PROPERTY_DEFINITION_REPRESENTATION(#14,#12);
#11=PROPERTY_DEFINITION_REPRESENTATION(#15,#13);
#12=REPRESENTATION('',(#16),#488);
#13=REPRESENTATION('',(#17),#488);
#14=PROPERTY_DEFINITION('pmi validation property','',#21);
#15=PROPERTY_DEFINITION('pmi validation property','',#21);
#16=VALUE_REPRESENTATION_ITEM('number of annotations',COUNT_MEASURE(0.));
#17=VALUE_REPRESENTATION_ITEM('number of views',COUNT_MEASURE(0.));
#18=SHAPE_REPRESENTATION_RELATIONSHIP('None',
'relationship between model1_objects-None and model1_objects-None',#30,
#19);
#19=ADVANCED_BREP_SHAPE_REPRESENTATION('model1_objects-None',(#133,#134),
#488);
#20=SHAPE_DEFINITION_REPRESENTATION(#21,#30);
#21=PRODUCT_DEFINITION_SHAPE('','',#22);
#22=PRODUCT_DEFINITION(' ','',#24,#23);
#23=PRODUCT_DEFINITION_CONTEXT('part definition',#29,'design');
#24=PRODUCT_DEFINITION_FORMATION_WITH_SPECIFIED_SOURCE(' ',' ',#26,
 .NOT_KNOWN.);
#25=PRODUCT_RELATED_PRODUCT_CATEGORY('part','',(#26));
#26=PRODUCT('model1_objects','model1_objects',' ',(#27));
#27=PRODUCT_CONTEXT(' ',#29,'mechanical');
#28=APPLICATION_PROTOCOL_DEFINITION('international standard',
'automotive_design',2010,#29);
#29=APPLICATION_CONTEXT(
'core data for automotive mechanical design processes');
#30=SHAPE_REPRESENTATION('model1_objects-None',(#248),#488);
#31=OVER_RIDING_STYLED_ITEM('',(#62),#139,#59);
#32=OVER_RIDING_STYLED_ITEM('',(#63),#140,#59);
#33=OVER_RIDING_STYLED_ITEM('',(#64),#141,#59);
#34=OVER_RIDING_STYLED_ITEM('',(#65),#142,#59);
#35=OVER_RIDING_STYLED_ITEM('',(#66),#143,#59);
#36=OVER_RIDING_STYLED_ITEM('',(#67),#144,#59);
#37=OVER_RIDING_STYLED_ITEM('',(#68),#145,#59);
#38=OVER_RIDING_STYLED_ITEM('',(#69),#146,#59);
#39=OVER_RIDING_STYLED_ITEM('',(#70),#147,#59);
#40=OVER_RIDING_STYLED_ITEM('',(#71),#148,#59);
#41=COLOUR_RGB('Medium Steel',0.611764705882353,0.658823529411765,0.670588235294118);
#42=COLOUR_RGB('silver gray',0.6,0.6,0.6);
#43=TOROIDAL_SURFACE('',#265,14.75,1.);
#44=PLANE('',#261);
#45=PLANE('',#263);
#46=FACE_OUTER_BOUND('',#185,.T.);
#47=FACE_OUTER_BOUND('',#186,.T.);
#48=SURFACE_OF_REVOLUTION('',#50,#49);
#49=AXIS1_PLACEMENT('',#476,#295);
#50=B_SPLINE_CURVE_WITH_KNOTS('',3,(#410,#411,#412,#413,#414,#415,#416,
#417,#418,#419,#420,#421,#422,#423,#424,#425,#426,#427,#428,#429,#430,#431,
#432,#433,#434,#435,#436,#437,#438,#439,#440,#441,#442,#443,#444,#445,#446,
#447,#448,#449,#450,#451,#452,#453,#454,#455,#456,#457,#458,#459,#460,#461,
#462,#463,#464,#465,#466,#467,#468,#469,#470,#471,#472,#473,#474,#475),
 .UNSPECIFIED.,.T.,.F.,(2,2,2,2,2,2,2,2,2,2,2,2,2,2,2,2,2,2,2,2,2,2,2,2,
2,2,2,2,2,2,2,2,2,2,2),(-0.03125,0.,0.0625,0.09375,0.125,0.15625,0.1875,
0.21875,0.25,0.28125,0.3125,0.34375,0.375,0.40625,0.4375,0.46875,0.5,0.53125,
0.5625,0.59375,0.625,0.65625,0.6875,0.71875,0.75,0.78125,0.8125,0.84375,
0.875,0.890625,0.90625,0.9375,0.96875,1.,1.0625),.UNSPECIFIED.);
#51=CONICAL_SURFACE('',#255,16.,45.0000000000004);
#52=CONICAL_SURFACE('',#257,15.75,1.43722699632189);
#53=CONICAL_SURFACE('',#268,15.75,9.99999999999983);
#54=CYLINDRICAL_SURFACE('',#253,16.);
#55=CYLINDRICAL_SURFACE('',#259,14.);
#56=CYLINDRICAL_SURFACE('',#267,15.75);
#57=PRESENTATION_LAYER_ASSIGNMENT('1','Layer 1',(#133,#134));
#58=STYLED_ITEM('',(#60),#133);
#59=STYLED_ITEM('',(#61),#134);
#60=PRESENTATION_STYLE_ASSIGNMENT((#72));
#61=PRESENTATION_STYLE_ASSIGNMENT((#73));
#62=PRESENTATION_STYLE_ASSIGNMENT((#74));
#63=PRESENTATION_STYLE_ASSIGNMENT((#75));
#64=PRESENTATION_STYLE_ASSIGNMENT((#76));
#65=PRESENTATION_STYLE_ASSIGNMENT((#77));
#66=PRESENTATION_STYLE_ASSIGNMENT((#78));
#67=PRESENTATION_STYLE_ASSIGNMENT((#79));
#68=PRESENTATION_STYLE_ASSIGNMENT((#80));
#69=PRESENTATION_STYLE_ASSIGNMENT((#81));
#70=PRESENTATION_STYLE_ASSIGNMENT((#82));
#71=PRESENTATION_STYLE_ASSIGNMENT((#83));
#72=SURFACE_STYLE_USAGE(.BOTH.,#84);
#73=SURFACE_STYLE_USAGE(.BOTH.,#85);
#74=SURFACE_STYLE_USAGE(.BOTH.,#86);
#75=SURFACE_STYLE_USAGE(.BOTH.,#87);
#76=SURFACE_STYLE_USAGE(.BOTH.,#88);
#77=SURFACE_STYLE_USAGE(.BOTH.,#89);
#78=SURFACE_STYLE_USAGE(.BOTH.,#90);
#79=SURFACE_STYLE_USAGE(.BOTH.,#91);
#80=SURFACE_STYLE_USAGE(.BOTH.,#92);
#81=SURFACE_STYLE_USAGE(.BOTH.,#93);
#82=SURFACE_STYLE_USAGE(.BOTH.,#94);
#83=SURFACE_STYLE_USAGE(.BOTH.,#95);
#84=SURFACE_SIDE_STYLE('',(#96));
#85=SURFACE_SIDE_STYLE('',(#97));
#86=SURFACE_SIDE_STYLE('',(#98));
#87=SURFACE_SIDE_STYLE('',(#99));
#88=SURFACE_SIDE_STYLE('',(#100));
#89=SURFACE_SIDE_STYLE('',(#101));
#90=SURFACE_SIDE_STYLE('',(#102));
#91=SURFACE_SIDE_STYLE('',(#103));
#92=SURFACE_SIDE_STYLE('',(#104));
#93=SURFACE_SIDE_STYLE('',(#105));
#94=SURFACE_SIDE_STYLE('',(#106));
#95=SURFACE_SIDE_STYLE('',(#107));
#96=SURFACE_STYLE_FILL_AREA(#108);
#97=SURFACE_STYLE_FILL_AREA(#109);
#98=SURFACE_STYLE_FILL_AREA(#110);
#99=SURFACE_STYLE_FILL_AREA(#111);
#100=SURFACE_STYLE_FILL_AREA(#112);
#101=SURFACE_STYLE_FILL_AREA(#113);
#102=SURFACE_STYLE_FILL_AREA(#114);
#103=SURFACE_STYLE_FILL_AREA(#115);
#104=SURFACE_STYLE_FILL_AREA(#116);
#105=SURFACE_STYLE_FILL_AREA(#117);
#106=SURFACE_STYLE_FILL_AREA(#118);
#107=SURFACE_STYLE_FILL_AREA(#119);
#108=FILL_AREA_STYLE('',(#120));
#109=FILL_AREA_STYLE('',(#121));
#110=FILL_AREA_STYLE('',(#122));
#111=FILL_AREA_STYLE('',(#123));
#112=FILL_AREA_STYLE('',(#124));
#113=FILL_AREA_STYLE('',(#125));
#114=FILL_AREA_STYLE('',(#126));
#115=FILL_AREA_STYLE('',(#127));
#116=FILL_AREA_STYLE('',(#128));
#117=FILL_AREA_STYLE('',(#129));
#118=FILL_AREA_STYLE('',(#130));
#119=FILL_AREA_STYLE('',(#131));
#120=FILL_AREA_STYLE_COLOUR('',#132);
#121=FILL_AREA_STYLE_COLOUR('',#41);
#122=FILL_AREA_STYLE_COLOUR('',#42);
#123=FILL_AREA_STYLE_COLOUR('',#42);
#124=FILL_AREA_STYLE_COLOUR('',#42);
#125=FILL_AREA_STYLE_COLOUR('',#42);
#126=FILL_AREA_STYLE_COLOUR('',#42);
#127=FILL_AREA_STYLE_COLOUR('',#42);
#128=FILL_AREA_STYLE_COLOUR('',#42);
#129=FILL_AREA_STYLE_COLOUR('',#42);
#130=FILL_AREA_STYLE_COLOUR('',#42);
#131=FILL_AREA_STYLE_COLOUR('',#42);
#132=DRAUGHTING_PRE_DEFINED_COLOUR('yellow');
#133=MANIFOLD_SOLID_BREP('',#135);
#134=MANIFOLD_SOLID_BREP('',#136);
#135=CLOSED_SHELL('',(#137,#138));
#136=CLOSED_SHELL('',(#139,#140,#141,#142,#143,#144,#145,#146,#147,#148));
#137=ADVANCED_FACE('',(#151,#152),#149,.F.);
#138=ADVANCED_FACE('',(#153,#154),#150,.F.);
#139=ADVANCED_FACE('',(#155,#156),#54,.T.);
#140=ADVANCED_FACE('',(#157,#158),#51,.T.);
#141=ADVANCED_FACE('',(#159,#160),#52,.T.);
#142=ADVANCED_FACE('',(#161,#162),#55,.T.);
#143=ADVANCED_FACE('',(#163,#164),#48,.T.);
#144=ADVANCED_FACE('',(#46),#44,.F.);
#145=ADVANCED_FACE('',(#47),#45,.F.);
#146=ADVANCED_FACE('',(#165,#166),#43,.T.);
#147=ADVANCED_FACE('',(#167,#168),#56,.T.);
#148=ADVANCED_FACE('',(#169,#170),#53,.T.);
#149=(
BOUNDED_SURFACE()
B_SPLINE_SURFACE(3,3,((#317,#318,#319,#320,#321,#322,#323),(#324,#325,#326,
#327,#328,#329,#330),(#331,#332,#333,#334,#335,#336,#337),(#338,#339,#340,
#341,#342,#343,#344),(#345,#346,#347,#348,#349,#350,#351),(#352,#353,#354,
#355,#356,#357,#358),(#359,#360,#361,#362,#363,#364,#365)),
 .UNSPECIFIED.,.T.,.F.,.F.)
B_SPLINE_SURFACE_WITH_KNOTS((1,3,3,3,1),(4,3,4),(-0.5,0.,0.5,1.,1.5),(0.,
0.5,1.),.UNSPECIFIED.)
GEOMETRIC_REPRESENTATION_ITEM()
RATIONAL_B_SPLINE_SURFACE(((1.,0.56622389131261,0.56622389131261,1.,0.56622389131261,
0.56622389131261,1.),(0.333333333333334,0.188741297104204,0.188741297104204,
0.333333333333334,0.188741297104204,0.188741297104204,0.333333333333334),
(0.333333333333334,0.188741297104204,0.188741297104204,0.333333333333334,
0.188741297104204,0.188741297104204,0.333333333333334),(1.,0.56622389131261,
0.56622389131261,1.,0.56622389131261,0.56622389131261,1.),(0.333333333333334,
0.188741297104204,0.188741297104204,0.333333333333334,0.188741297104204,
0.188741297104204,0.333333333333334),(0.333333333333334,0.188741297104204,
0.188741297104204,0.333333333333334,0.188741297104204,0.188741297104204,
0.333333333333334),(1.,0.56622389131261,0.56622389131261,1.,0.56622389131261,
0.56622389131261,1.)))
REPRESENTATION_ITEM('')
SURFACE()
);
#150=(
BOUNDED_SURFACE()
B_SPLINE_SURFACE(3,3,((#366,#367,#368,#369),(#370,#371,#372,#373),(#374,
#375,#376,#377),(#378,#379,#380,#381),(#382,#383,#384,#385),(#386,#387,
#388,#389),(#390,#391,#392,#393)),.UNSPECIFIED.,.T.,.F.,.F.)
B_SPLINE_SURFACE_WITH_KNOTS((1,3,3,3,1),(4,4),(-0.5,0.,0.5,1.,1.5),(0.,
1.),.UNSPECIFIED.)
GEOMETRIC_REPRESENTATION_ITEM()
RATIONAL_B_SPLINE_SURFACE(((1.,0.837285964012303,0.837285964012303,1.),
(0.333333333333334,0.279095321337435,0.279095321337435,0.333333333333334),
(0.333333333333334,0.279095321337435,0.279095321337435,0.333333333333334),
(1.,0.837285964012303,0.837285964012303,1.),(0.333333333333334,0.279095321337435,
0.279095321337435,0.333333333333334),(0.333333333333334,0.279095321337435,
0.279095321337435,0.333333333333334),(1.,0.837285964012303,0.837285964012303,
1.)))
REPRESENTATION_ITEM('')
SURFACE()
);
#151=FACE_BOUND('',#171,.T.);
#152=FACE_BOUND('',#172,.T.);
#153=FACE_BOUND('',#173,.T.);
#154=FACE_BOUND('',#174,.T.);
#155=FACE_BOUND('',#175,.T.);
#156=FACE_BOUND('',#176,.T.);
#157=FACE_BOUND('',#177,.T.);
#158=FACE_BOUND('',#178,.T.);
#159=FACE_BOUND('',#179,.T.);
#160=FACE_BOUND('',#180,.T.);
#161=FACE_BOUND('',#181,.T.);
#162=FACE_BOUND('',#182,.T.);
#163=FACE_BOUND('',#183,.T.);
#164=FACE_BOUND('',#184,.T.);
#165=FACE_BOUND('',#187,.T.);
#166=FACE_BOUND('',#188,.T.);
#167=FACE_BOUND('',#189,.T.);
#168=FACE_BOUND('',#190,.T.);
#169=FACE_BOUND('',#191,.T.);
#170=FACE_BOUND('',#192,.T.);
#171=EDGE_LOOP('',(#193));
#172=EDGE_LOOP('',(#194));
#173=EDGE_LOOP('',(#195));
#174=EDGE_LOOP('',(#196));
#175=EDGE_LOOP('',(#197));
#176=EDGE_LOOP('',(#198));
#177=EDGE_LOOP('',(#199));
#178=EDGE_LOOP('',(#200));
#179=EDGE_LOOP('',(#201));
#180=EDGE_LOOP('',(#202));
#181=EDGE_LOOP('',(#203));
#182=EDGE_LOOP('',(#204));
#183=EDGE_LOOP('',(#205));
#184=EDGE_LOOP('',(#206));
#185=EDGE_LOOP('',(#207));
#186=EDGE_LOOP('',(#208));
#187=EDGE_LOOP('',(#209));
#188=EDGE_LOOP('',(#210));
#189=EDGE_LOOP('',(#211));
#190=EDGE_LOOP('',(#212));
#191=EDGE_LOOP('',(#213));
#192=EDGE_LOOP('',(#214));
#193=ORIENTED_EDGE('',*,*,#226,.T.);
#194=ORIENTED_EDGE('',*,*,#227,.F.);
#195=ORIENTED_EDGE('',*,*,#227,.T.);
#196=ORIENTED_EDGE('',*,*,#226,.F.);
#197=ORIENTED_EDGE('',*,*,#228,.F.);
#198=ORIENTED_EDGE('',*,*,#229,.T.);
#199=ORIENTED_EDGE('',*,*,#230,.F.);
#200=ORIENTED_EDGE('',*,*,#228,.T.);
#201=ORIENTED_EDGE('',*,*,#231,.F.);
#202=ORIENTED_EDGE('',*,*,#230,.T.);
#203=ORIENTED_EDGE('',*,*,#232,.F.);
#204=ORIENTED_EDGE('',*,*,#231,.T.);
#205=ORIENTED_EDGE('',*,*,#233,.F.);
#206=ORIENTED_EDGE('',*,*,#232,.T.);
#207=ORIENTED_EDGE('',*,*,#233,.T.);
#208=ORIENTED_EDGE('',*,*,#234,.F.);
#209=ORIENTED_EDGE('',*,*,#235,.F.);
#210=ORIENTED_EDGE('',*,*,#234,.T.);
#211=ORIENTED_EDGE('',*,*,#236,.F.);
#212=ORIENTED_EDGE('',*,*,#235,.T.);
#213=ORIENTED_EDGE('',*,*,#229,.F.);
#214=ORIENTED_EDGE('',*,*,#236,.T.);
#215=VERTEX_POINT('',#314);
#216=VERTEX_POINT('',#316);
#217=VERTEX_POINT('',#395);
#218=VERTEX_POINT('',#397);
#219=VERTEX_POINT('',#400);
#220=VERTEX_POINT('',#403);
#221=VERTEX_POINT('',#406);
#222=VERTEX_POINT('',#409);
#223=VERTEX_POINT('',#479);
#224=VERTEX_POINT('',#482);
#225=VERTEX_POINT('',#485);
#226=EDGE_CURVE('',#215,#215,#237,.T.);
#227=EDGE_CURVE('',#216,#216,#238,.T.);
#228=EDGE_CURVE('',#217,#217,#239,.T.);
#229=EDGE_CURVE('',#218,#218,#240,.T.);
#230=EDGE_CURVE('',#219,#219,#241,.T.);
#231=EDGE_CURVE('',#220,#220,#242,.T.);
#232=EDGE_CURVE('',#221,#221,#243,.T.);
#233=EDGE_CURVE('',#222,#222,#244,.T.);
#234=EDGE_CURVE('',#223,#223,#245,.T.);
#235=EDGE_CURVE('',#224,#224,#246,.T.);
#236=EDGE_CURVE('',#225,#225,#247,.T.);
#237=CIRCLE('',#249,6.);
#238=CIRCLE('',#250,6.);
#239=CIRCLE('',#251,16.);
#240=CIRCLE('',#252,16.);
#241=CIRCLE('',#254,15.75);
#242=CIRCLE('',#256,14.);
#243=CIRCLE('',#258,14.);
#244=CIRCLE('',#260,6.92834681234432);
#245=CIRCLE('',#262,14.75);
#246=CIRCLE('',#264,15.75);
#247=CIRCLE('',#266,15.75);
#248=AXIS2_PLACEMENT_3D('',#312,#269,#270);
#249=AXIS2_PLACEMENT_3D('',#313,#271,#272);
#250=AXIS2_PLACEMENT_3D('',#315,#273,#274);
#251=AXIS2_PLACEMENT_3D('',#394,#275,#276);
#252=AXIS2_PLACEMENT_3D('',#396,#277,#278);
#253=AXIS2_PLACEMENT_3D('',#398,#279,#280);
#254=AXIS2_PLACEMENT_3D('',#399,#281,#282);
#255=AXIS2_PLACEMENT_3D('',#401,#283,#284);
#256=AXIS2_PLACEMENT_3D('',#402,#285,#286);
#257=AXIS2_PLACEMENT_3D('',#404,#287,#288);
#258=AXIS2_PLACEMENT_3D('',#405,#289,#290);
#259=AXIS2_PLACEMENT_3D('',#407,#291,#292);
#260=AXIS2_PLACEMENT_3D('',#408,#293,#294);
#261=AXIS2_PLACEMENT_3D('',#477,#296,#297);
#262=AXIS2_PLACEMENT_3D('',#478,#298,#299);
#263=AXIS2_PLACEMENT_3D('',#480,#300,#301);
#264=AXIS2_PLACEMENT_3D('',#481,#302,#303);
#265=AXIS2_PLACEMENT_3D('',#483,#304,#305);
#266=AXIS2_PLACEMENT_3D('',#484,#306,#307);
#267=AXIS2_PLACEMENT_3D('',#486,#308,#309);
#268=AXIS2_PLACEMENT_3D('',#487,#310,#311);
#269=DIRECTION('',(0.,0.,1.));
#270=DIRECTION('',(1.,0.,0.));
#271=DIRECTION('',(0.,0.989743318610787,0.142857142857143));
#272=DIRECTION('',(1.,0.,0.));
#273=DIRECTION('',(0.,0.,1.));
#274=DIRECTION('',(1.,0.,0.));
#275=DIRECTION('',(-1.,0.,0.));
#276=DIRECTION('',(0.,0.,1.));
#277=DIRECTION('',(-1.,0.,0.));
#278=DIRECTION('',(0.,0.,1.));
#279=DIRECTION('',(-1.,0.,0.));
#280=DIRECTION('',(0.,0.,1.));
#281=DIRECTION('',(-1.,0.,0.));
#282=DIRECTION('',(0.,0.,1.));
#283=DIRECTION('',(1.,0.,0.));
#284=DIRECTION('',(8.19554398099268E-17,0.,-1.));
#285=DIRECTION('',(-1.,0.,0.));
#286=DIRECTION('',(0.,0.,1.));
#287=DIRECTION('',(1.,0.,0.));
#288=DIRECTION('',(0.,0.,-1.));
#289=DIRECTION('',(-1.,0.,0.));
#290=DIRECTION('',(0.,0.,1.));
#291=DIRECTION('',(-1.,0.,0.));
#292=DIRECTION('',(0.,0.,1.));
#293=DIRECTION('',(-1.,0.,0.));
#294=DIRECTION('',(0.,0.,1.));
#295=DIRECTION('',(-1.,0.,0.));
#296=DIRECTION('',(1.,0.,0.));
#297=DIRECTION('',(0.,0.,-1.));
#298=DIRECTION('',(-1.,0.,0.));
#299=DIRECTION('',(0.,0.,1.));
#300=DIRECTION('',(-1.,0.,0.));
#301=DIRECTION('',(0.,0.,1.));
#302=DIRECTION('',(-1.,0.,0.));
#303=DIRECTION('',(0.,0.,1.));
#304=DIRECTION('',(-1.,0.,0.));
#305=DIRECTION('',(0.,0.,1.));
#306=DIRECTION('',(-1.,0.,0.));
#307=DIRECTION('',(0.,0.,1.));
#308=DIRECTION('',(-1.,0.,0.));
#309=DIRECTION('',(0.,0.,1.));
#310=DIRECTION('',(-1.,0.,0.));
#311=DIRECTION('',(-2.89004705438981E-16,0.,1.));
#312=CARTESIAN_POINT('',(0.,0.,0.));
#313=CARTESIAN_POINT('',(6.,0.568870934364433,10.0587465549265));
#314=CARTESIAN_POINT('',(12.,0.568870934364433,10.0587465549265));
#315=CARTESIAN_POINT('',(6.,-9.87430992,2.));
#316=CARTESIAN_POINT('',(12.,-9.87430992,2.));
#317=CARTESIAN_POINT('',(12.,-9.87430992,2.));
#318=CARTESIAN_POINT('',(12.,-12.0807341482708,-8.89345832247143));
#319=CARTESIAN_POINT('',(12.,-2.6443730697874,-14.7663478748984));
#320=CARTESIAN_POINT('',(12.,6.15496934906921,-7.9761111268731));
#321=CARTESIAN_POINT('',(12.,14.9543117679258,-1.18587437884783));
#322=CARTESIAN_POINT('',(12.,11.6658019867771,9.43116124875613));
#323=CARTESIAN_POINT('',(12.,0.568870934364433,10.0587465549265));
#324=CARTESIAN_POINT('',(12.,2.12569008,2.));
#325=CARTESIAN_POINT('',(12.,-0.0807341482708144,4.34508704715346));
#326=CARTESIAN_POINT('',(12.,-3.04885810094983,3.09689582167537));
#327=CARTESIAN_POINT('',(12.,-2.91617800315224,-0.120267078377375));
#328=CARTESIAN_POINT('',(12.,-2.78349790535464,-3.33742997843012));
#329=CARTESIAN_POINT('',(12.,0.277325873350851,-4.33697934166258));
#330=CARTESIAN_POINT('',(12.,2.28315664865014,-1.81817326840294));
#331=CARTESIAN_POINT('',(1.46957615897682E-15,2.12569008,2.));
#332=CARTESIAN_POINT('',(1.46957615897682E-15,-0.0807341482708144,4.34508704715346));
#333=CARTESIAN_POINT('',(1.46957615897682E-15,-3.04885810094983,3.09689582167537));
#334=CARTESIAN_POINT('',(1.46957615897682E-15,-2.91617800315224,-0.120267078377375));
#335=CARTESIAN_POINT('',(1.46957615897682E-15,-2.78349790535464,-3.33742997843012));
#336=CARTESIAN_POINT('',(1.46957615897682E-15,0.277325873350851,-4.33697934166258));
#337=CARTESIAN_POINT('',(1.46957615897682E-15,2.28315664865014,-1.81817326840294));
#338=CARTESIAN_POINT('',(0.,-9.87430992,2.));
#339=CARTESIAN_POINT('',(0.,-12.0807341482708,-8.89345832247143));
#340=CARTESIAN_POINT('',(0.,-2.6443730697874,-14.7663478748984));
#341=CARTESIAN_POINT('',(0.,6.15496934906921,-7.9761111268731));
#342=CARTESIAN_POINT('',(0.,14.9543117679258,-1.18587437884783));
#343=CARTESIAN_POINT('',(0.,11.6658019867771,9.43116124875613));
#344=CARTESIAN_POINT('',(0.,0.568870934364433,10.0587465549265));
#345=CARTESIAN_POINT('',(-1.46957615897682E-15,-21.87430992,2.));
#346=CARTESIAN_POINT('',(-1.46957615897682E-15,-24.0807341482708,-22.1320036920963));
#347=CARTESIAN_POINT('',(-1.46957615897682E-15,-2.23988803862497,-32.6295915714721));
#348=CARTESIAN_POINT('',(-1.46957615897682E-15,15.2261167012906,-15.8319551753688));
#349=CARTESIAN_POINT('',(-1.46957615897682E-15,32.6921214412063,0.965681220734472));
#350=CARTESIAN_POINT('',(-1.46957615897682E-15,23.0542781002034,23.1993018391748));
#351=CARTESIAN_POINT('',(-1.46957615897682E-15,-1.14541477992128,21.9356663782559));
#352=CARTESIAN_POINT('',(12.,-21.87430992,2.));
#353=CARTESIAN_POINT('',(12.,-24.0807341482708,-22.1320036920963));
#354=CARTESIAN_POINT('',(12.,-2.23988803862497,-32.6295915714721));
#355=CARTESIAN_POINT('',(12.,15.2261167012906,-15.8319551753688));
#356=CARTESIAN_POINT('',(12.,32.6921214412063,0.965681220734472));
#357=CARTESIAN_POINT('',(12.,23.0542781002034,23.1993018391748));
#358=CARTESIAN_POINT('',(12.,-1.14541477992128,21.9356663782559));
#359=CARTESIAN_POINT('',(12.,-9.87430992,2.));
#360=CARTESIAN_POINT('',(12.,-12.0807341482708,-8.89345832247143));
#361=CARTESIAN_POINT('',(12.,-2.6443730697874,-14.7663478748984));
#362=CARTESIAN_POINT('',(12.,6.15496934906921,-7.9761111268731));
#363=CARTESIAN_POINT('',(12.,14.9543117679258,-1.18587437884783));
#364=CARTESIAN_POINT('',(12.,11.6658019867771,9.43116124875613));
#365=CARTESIAN_POINT('',(12.,0.568870934364433,10.0587465549265));
#366=CARTESIAN_POINT('',(12.,0.568870934364433,10.0587465549265));
#367=CARTESIAN_POINT('',(12.,-4.67425637453278,10.3552708499683));
#368=CARTESIAN_POINT('',(12.,-8.83180879319125,7.14698960902937));
#369=CARTESIAN_POINT('',(12.,-9.87430992,2.));
#370=CARTESIAN_POINT('',(12.,2.28315664865014,-1.81817326840294));
#371=CARTESIAN_POINT('',(12.,3.23088048917194,-0.628076578953619));
#372=CARTESIAN_POINT('',(12.,3.16819120680874,0.891982848176918));
#373=CARTESIAN_POINT('',(12.,2.12569008,2.));
#374=CARTESIAN_POINT('',(1.46957615897682E-15,2.28315664865014,-1.81817326840294));
#375=CARTESIAN_POINT('',(1.46957615897682E-15,3.23088048917194,-0.628076578953619));
#376=CARTESIAN_POINT('',(1.46957615897682E-15,3.16819120680874,0.891982848176918));
#377=CARTESIAN_POINT('',(1.46957615897682E-15,2.12569008,2.));
#378=CARTESIAN_POINT('',(0.,0.568870934364433,10.0587465549265));
#379=CARTESIAN_POINT('',(0.,-4.67425637453278,10.3552708499683));
#380=CARTESIAN_POINT('',(0.,-8.83180879319125,7.14698960902937));
#381=CARTESIAN_POINT('',(0.,-9.87430992,2.));
#382=CARTESIAN_POINT('',(-1.46957615897682E-15,-1.14541477992128,21.9356663782559));
#383=CARTESIAN_POINT('',(-1.46957615897682E-15,-12.5793932382375,21.3386182788903));
#384=CARTESIAN_POINT('',(-1.46957615897682E-15,-20.8318087931912,13.4019963698818));
#385=CARTESIAN_POINT('',(-1.46957615897682E-15,-21.87430992,2.));
#386=CARTESIAN_POINT('',(12.,-1.14541477992128,21.9356663782559));
#387=CARTESIAN_POINT('',(12.,-12.5793932382375,21.3386182788903));
#388=CARTESIAN_POINT('',(12.,-20.8318087931912,13.4019963698818));
#389=CARTESIAN_POINT('',(12.,-21.87430992,2.));
#390=CARTESIAN_POINT('',(12.,0.568870934364433,10.0587465549265));
#391=CARTESIAN_POINT('',(12.,-4.67425637453278,10.3552708499683));
#392=CARTESIAN_POINT('',(12.,-8.83180879319125,7.14698960902937));
#393=CARTESIAN_POINT('',(12.,-9.87430992,2.));
#394=CARTESIAN_POINT('',(100.,0.,0.));
#395=CARTESIAN_POINT('',(100.,0.,16.));
#396=CARTESIAN_POINT('',(194.582179545096,0.,0.));
#397=CARTESIAN_POINT('',(194.582179545096,0.,16.));
#398=CARTESIAN_POINT('',(0.,0.,0.));
#399=CARTESIAN_POINT('',(99.75,0.,0.));
#400=CARTESIAN_POINT('',(99.75,0.,15.75));
#401=CARTESIAN_POINT('',(100.,0.,0.));
#402=CARTESIAN_POINT('',(30.,0.,0.));
#403=CARTESIAN_POINT('',(30.,0.,14.));
#404=CARTESIAN_POINT('',(99.75,0.,0.));
#405=CARTESIAN_POINT('',(8.56063321676577,0.,0.));
#406=CARTESIAN_POINT('',(8.56063321676577,0.,14.));
#407=CARTESIAN_POINT('',(0.,0.,0.));
#408=CARTESIAN_POINT('',(3.,0.,0.));
#409=CARTESIAN_POINT('',(3.,0.,6.92834681234432));
#410=CARTESIAN_POINT('',(5.7015036581518,5.93105849416218,0.));
#411=CARTESIAN_POINT('',(6.59699268369642,5.93105849416218,0.));
#412=CARTESIAN_POINT('',(7.19301429306027,6.03360478077504,0.));
#413=CARTESIAN_POINT('',(8.02527483437343,6.33827881337027,0.));
#414=CARTESIAN_POINT('',(8.2958780950446,6.46646116844386,0.));
#415=CARTESIAN_POINT('',(8.80558079231097,6.77280330494716,0.));
#416=CARTESIAN_POINT('',(9.04255915332005,6.94905512261437,0.));
#417=CARTESIAN_POINT('',(9.47926546929947,7.34966304277743,0.));
#418=CARTESIAN_POINT('',(9.67898887597803,7.57536782207173,0.));
#419=CARTESIAN_POINT('',(10.0211537903299,8.05644494816427,0.));
#420=CARTESIAN_POINT('',(10.1665901510825,8.31440620605287,0.));
#421=CARTESIAN_POINT('',(10.4023698367226,8.86398712385358,0.));
#422=CARTESIAN_POINT('',(10.4888643595724,9.14631269123679,0.));
#423=CARTESIAN_POINT('',(10.6022382813179,9.72527189569763,0.));
#424=CARTESIAN_POINT('',(10.6287526972149,10.0255781548194,0.));
#425=CARTESIAN_POINT('',(10.6192690502899,10.6175252349006,0.));
#426=CARTESIAN_POINT('',(10.5843037164344,10.9100506272497,0.));
#427=CARTESIAN_POINT('',(10.4549967711781,11.4883272757974,0.));
#428=CARTESIAN_POINT('',(10.3597662528074,11.7738075418162,0.));
#429=CARTESIAN_POINT('',(10.1187634131869,12.3119389810574,0.));
#430=CARTESIAN_POINT('',(9.97238897441156,12.5681440882985,0.));
#431=CARTESIAN_POINT('',(9.62695070445983,13.0543641680659,0.));
#432=CARTESIAN_POINT('',(9.43173720377153,13.2784636223625,0.));
#433=CARTESIAN_POINT('',(9.0042192519824,13.6839053924901,0.));
#434=CARTESIAN_POINT('',(8.76917121082823,13.8675988005077,0.));
#435=CARTESIAN_POINT('',(8.26695564644964,14.1872480988796,0.));
#436=CARTESIAN_POINT('',(8.00407953698207,14.3210090080606,0.));
#437=CARTESIAN_POINT('',(7.45558003114038,14.5381515874934,0.));
#438=CARTESIAN_POINT('',(7.16671225940496,14.6219280628338,0.));
#439=CARTESIAN_POINT('',(6.58466903387414,14.7321699119819,0.));
#440=CARTESIAN_POINT('',(6.29124650142377,14.7595150213325,0.));
#441=CARTESIAN_POINT('',(5.69962447197418,14.7589413819926,0.));
#442=CARTESIAN_POINT('',(5.39988858998388,14.7301564526571,0.));
#443=CARTESIAN_POINT('',(4.82000913227139,14.6184553535428,0.));
#444=CARTESIAN_POINT('',(4.53686553286139,14.5358457258984,0.));
#445=CARTESIAN_POINT('',(3.98450743697929,14.3157820247894,0.));
#446=CARTESIAN_POINT('',(3.71850687376928,14.1790164393938,0.));
#447=CARTESIAN_POINT('',(3.22191289088327,13.8608535508764,0.));
#448=CARTESIAN_POINT('',(2.98788070293552,13.6776088120969,0.));
#449=CARTESIAN_POINT('',(2.55629810233752,13.2658649996507,0.));
#450=CARTESIAN_POINT('',(2.36340871818386,13.0421784707256,0.));
#451=CARTESIAN_POINT('',(2.02268149320631,12.5597613475027,0.));
#452=CARTESIAN_POINT('',(1.87378487248956,12.297988437649,0.));
#453=CARTESIAN_POINT('',(1.63378263839294,11.7565550374209,0.));
#454=CARTESIAN_POINT('',(1.54139062337289,11.476250252928,0.));
#455=CARTESIAN_POINT('',(1.41348379702285,10.8958883780669,0.));
#456=CARTESIAN_POINT('',(1.37917803914219,10.5980235185123,0.));
#457=CARTESIAN_POINT('',(1.37228389920614,10.0078034440402,0.));
#458=CARTESIAN_POINT('',(1.39955478283843,9.70967264543326,0.));
#459=CARTESIAN_POINT('',(1.51637500793464,9.1264042099888,0.));
#460=CARTESIAN_POINT('',(1.60453359646401,8.84490812942182,0.));
#461=CARTESIAN_POINT('',(1.8400512501001,8.302091205217,0.));
#462=CARTESIAN_POINT('',(1.98916004605588,8.03969507365705,0.));
#463=CARTESIAN_POINT('',(2.33297222622779,7.56095065310193,0.));
#464=CARTESIAN_POINT('',(2.52880316443656,7.34108794350678,0.));
#465=CARTESIAN_POINT('',(2.8584037838178,7.04053117128911,0.));
#466=CARTESIAN_POINT('',(2.97438367681177,6.94533732159342,0.));
#467=CARTESIAN_POINT('',(3.21231145980034,6.76933096161758,0.));
#468=CARTESIAN_POINT('',(3.33495980912899,6.68783851435235,0.));
#469=CARTESIAN_POINT('',(3.71341909347477,6.46194067211934,0.));
#470=CARTESIAN_POINT('',(3.97965982554978,6.33596556569024,0.));
#471=CARTESIAN_POINT('',(4.53935273875211,6.13210016740767,0.));
#472=CARTESIAN_POINT('',(4.8268402746292,6.05662480228961,0.));
#473=CARTESIAN_POINT('',(5.40720388938926,5.9563613486239,0.));
#474=CARTESIAN_POINT('',(5.7015036581518,5.93105849416218,0.));
#475=CARTESIAN_POINT('',(6.59699268369642,5.93105849416218,0.));
#476=CARTESIAN_POINT('',(0.,0.,0.));
#477=CARTESIAN_POINT('',(3.,6.92834681234432,0.));
#478=CARTESIAN_POINT('',(200.,0.,0.));
#479=CARTESIAN_POINT('',(200.,0.,14.75));
#480=CARTESIAN_POINT('',(200.,0.,0.));
#481=CARTESIAN_POINT('',(199.,0.,0.));
#482=CARTESIAN_POINT('',(199.,0.,15.75));
#483=CARTESIAN_POINT('',(199.,0.,0.));
#484=CARTESIAN_POINT('',(196.,0.,0.));
#485=CARTESIAN_POINT('',(196.,0.,15.75));
#486=CARTESIAN_POINT('',(0.,0.,0.));
#487=CARTESIAN_POINT('',(196.,0.,0.));
#488=(
GEOMETRIC_REPRESENTATION_CONTEXT(3)
GLOBAL_UNCERTAINTY_ASSIGNED_CONTEXT((#489))
GLOBAL_UNIT_ASSIGNED_CONTEXT((#495,#491,#490))
REPRESENTATION_CONTEXT('model1','TOP_LEVEL_ASSEMBLY_PART')
);
#489=UNCERTAINTY_MEASURE_WITH_UNIT(LENGTH_MEASURE(2.E-5),#495,
'DISTANCE_ACCURACY_VALUE','Maximum Tolerance applied to model');
#490=(
NAMED_UNIT(*)
SI_UNIT($,.STERADIAN.)
SOLID_ANGLE_UNIT()
);
#491=(
CONVERSION_BASED_UNIT('DEGREE',#493)
NAMED_UNIT(#492)
PLANE_ANGLE_UNIT()
);
#492=DIMENSIONAL_EXPONENTS(0.,0.,0.,0.,0.,0.,0.);
#493=PLANE_ANGLE_MEASURE_WITH_UNIT(PLANE_ANGLE_MEASURE(0.0174532925),#494);
#494=(
NAMED_UNIT(*)
PLANE_ANGLE_UNIT()
SI_UNIT($,.RADIAN.)
);
#495=(
LENGTH_UNIT()
NAMED_UNIT(*)
SI_UNIT(.MILLI.,.METRE.)
);
ENDSEC;
END-ISO-10303-21;
