ISO-10303-21;
HEADER;
/* Generated by software containing ST-Developer
 * from STEP Tools, Inc. (www.steptools.com) 
 */
/* OPTION: using custom schema-name function */

FILE_DESCRIPTION(
/* description */ (''),
/* implementation_level */ '2;1');

FILE_NAME(
/* name */ 'model1.stp',
/* time_stamp */ '2023-11-06T17:56:13+03:00',
/* author */ (''),
/* organization */ (''),
/* preprocessor_version */ 'ST-DEVELOPER v19.4',
/* originating_system */ 'SIEMENS PLM Software NX2306.3001',
/* authorisation */ '');

FILE_SCHEMA (('AUTOMOTIVE_DESIGN { 1 0 10303 214 3 1 1 1 }'));
ENDSEC;

DATA;
#10=PROPERTY_DEFINITION_REPRESENTATION(#14,#12);
#11=PROPERTY_DEFINITION_REPRESENTATION(#15,#13);
#12=REPRESENTATION('',(#16),#490);
#13=REPRESENTATION('',(#17),#490);
#14=PROPERTY_DEFINITION('pmi validation property','',#21);
#15=PROPERTY_DEFINITION('pmi validation property','',#21);
#16=VALUE_REPRESENTATION_ITEM('number of annotations',COUNT_MEASURE(0.));
#17=VALUE_REPRESENTATION_ITEM('number of views',COUNT_MEASURE(0.));
#18=SHAPE_REPRESENTATION_RELATIONSHIP('None',
'relationship between model1_objects-None and model1_objects-None',#30,
#19);
#19=ADVANCED_BREP_SHAPE_REPRESENTATION('model1_objects-None',(#133,#134),
#490);
#20=SHAPE_DEFINITION_REPRESENTATION(#21,#30);
#21=PRODUCT_DEFINITION_SHAPE('','',#22);
#22=PRODUCT_DEFINITION(' ','',#24,#23);
#23=PRODUCT_DEFINITION_CONTEXT('part definition',#29,'design');
#24=PRODUCT_DEFINITION_FORMATION_WITH_SPECIFIED_SOURCE(' ',' ',#26,
 .NOT_KNOWN.);
#25=PRODUCT_RELATED_PRODUCT_CATEGORY('part','',(#26));
#26=PRODUCT('model1_objects','model1_objects',' ',(#27));
#27=PRODUCT_CONTEXT(' ',#29,'mechanical');
#28=APPLICATION_PROTOCOL_DEFINITION('international standard',
'automotive_design',2010,#29);
#29=APPLICATION_CONTEXT(
'core data for automotive mechanical design processes');
#30=SHAPE_REPRESENTATION('model1_objects-None',(#248),#490);
#31=OVER_RIDING_STYLED_ITEM('',(#62),#139,#59);
#32=OVER_RIDING_STYLED_ITEM('',(#63),#140,#59);
#33=OVER_RIDING_STYLED_ITEM('',(#64),#141,#59);
#34=OVER_RIDING_STYLED_ITEM('',(#65),#142,#59);
#35=OVER_RIDING_STYLED_ITEM('',(#66),#143,#59);
#36=OVER_RIDING_STYLED_ITEM('',(#67),#144,#59);
#37=OVER_RIDING_STYLED_ITEM('',(#68),#145,#59);
#38=OVER_RIDING_STYLED_ITEM('',(#69),#146,#59);
#39=OVER_RIDING_STYLED_ITEM('',(#70),#147,#59);
#40=OVER_RIDING_STYLED_ITEM('',(#71),#148,#59);
#41=COLOUR_RGB('Medium Steel',0.611764705882353,0.658823529411765,0.670588235294118);
#42=COLOUR_RGB('silver gray',0.6,0.6,0.6);
#43=TOROIDAL_SURFACE('',#265,14.75,1.);
#44=PLANE('',#261);
#45=PLANE('',#263);
#46=FACE_OUTER_BOUND('',#185,.T.);
#47=FACE_OUTER_BOUND('',#186,.T.);
#48=SURFACE_OF_REVOLUTION('',#50,#49);
#49=AXIS1_PLACEMENT('',#478,#295);
#50=B_SPLINE_CURVE_WITH_KNOTS('',3,(#410,#411,#412,#413,#414,#415,#416,
#417,#418,#419,#420,#421,#422,#423,#424,#425,#426,#427,#428,#429,#430,#431,
#432,#433,#434,#435,#436,#437,#438,#439,#440,#441,#442,#443,#444,#445,#446,
#447,#448,#449,#450,#451,#452,#453,#454,#455,#456,#457,#458,#459,#460,#461,
#462,#463,#464,#465,#466,#467,#468,#469,#470,#471,#472,#473,#474,#475,#476,
#477),.UNSPECIFIED.,.T.,.F.,(2,2,2,2,2,2,2,2,2,2,2,2,2,2,2,2,2,2,2,2,2,
2,2,2,2,2,2,2,2,2,2,2,2,2,2,2),(-0.03125,0.,0.03125,0.0625,0.09375,0.125,
0.15625,0.1875,0.21875,0.25,0.28125,0.3125,0.34375,0.375,0.40625,0.4375,
0.46875,0.5,0.53125,0.5625,0.59375,0.625,0.65625,0.6875,0.71875,0.75,0.78125,
0.8125,0.84375,0.875,0.890625,0.90625,0.9375,0.96875,1.,1.03125),
 .UNSPECIFIED.);
#51=CONICAL_SURFACE('',#255,16.,45.0000000000004);
#52=CONICAL_SURFACE('',#257,15.75,2.52082790771017);
#53=CONICAL_SURFACE('',#268,15.75,9.99999999999998);
#54=CYLINDRICAL_SURFACE('',#253,16.);
#55=CYLINDRICAL_SURFACE('',#259,14.0000000000115);
#56=CYLINDRICAL_SURFACE('',#267,15.75);
#57=PRESENTATION_LAYER_ASSIGNMENT('1','Layer 1',(#133,#134));
#58=STYLED_ITEM('',(#60),#133);
#59=STYLED_ITEM('',(#61),#134);
#60=PRESENTATION_STYLE_ASSIGNMENT((#72));
#61=PRESENTATION_STYLE_ASSIGNMENT((#73));
#62=PRESENTATION_STYLE_ASSIGNMENT((#74));
#63=PRESENTATION_STYLE_ASSIGNMENT((#75));
#64=PRESENTATION_STYLE_ASSIGNMENT((#76));
#65=PRESENTATION_STYLE_ASSIGNMENT((#77));
#66=PRESENTATION_STYLE_ASSIGNMENT((#78));
#67=PRESENTATION_STYLE_ASSIGNMENT((#79));
#68=PRESENTATION_STYLE_ASSIGNMENT((#80));
#69=PRESENTATION_STYLE_ASSIGNMENT((#81));
#70=PRESENTATION_STYLE_ASSIGNMENT((#82));
#71=PRESENTATION_STYLE_ASSIGNMENT((#83));
#72=SURFACE_STYLE_USAGE(.BOTH.,#84);
#73=SURFACE_STYLE_USAGE(.BOTH.,#85);
#74=SURFACE_STYLE_USAGE(.BOTH.,#86);
#75=SURFACE_STYLE_USAGE(.BOTH.,#87);
#76=SURFACE_STYLE_USAGE(.BOTH.,#88);
#77=SURFACE_STYLE_USAGE(.BOTH.,#89);
#78=SURFACE_STYLE_USAGE(.BOTH.,#90);
#79=SURFACE_STYLE_USAGE(.BOTH.,#91);
#80=SURFACE_STYLE_USAGE(.BOTH.,#92);
#81=SURFACE_STYLE_USAGE(.BOTH.,#93);
#82=SURFACE_STYLE_USAGE(.BOTH.,#94);
#83=SURFACE_STYLE_USAGE(.BOTH.,#95);
#84=SURFACE_SIDE_STYLE('',(#96));
#85=SURFACE_SIDE_STYLE('',(#97));
#86=SURFACE_SIDE_STYLE('',(#98));
#87=SURFACE_SIDE_STYLE('',(#99));
#88=SURFACE_SIDE_STYLE('',(#100));
#89=SURFACE_SIDE_STYLE('',(#101));
#90=SURFACE_SIDE_STYLE('',(#102));
#91=SURFACE_SIDE_STYLE('',(#103));
#92=SURFACE_SIDE_STYLE('',(#104));
#93=SURFACE_SIDE_STYLE('',(#105));
#94=SURFACE_SIDE_STYLE('',(#106));
#95=SURFACE_SIDE_STYLE('',(#107));
#96=SURFACE_STYLE_FILL_AREA(#108);
#97=SURFACE_STYLE_FILL_AREA(#109);
#98=SURFACE_STYLE_FILL_AREA(#110);
#99=SURFACE_STYLE_FILL_AREA(#111);
#100=SURFACE_STYLE_FILL_AREA(#112);
#101=SURFACE_STYLE_FILL_AREA(#113);
#102=SURFACE_STYLE_FILL_AREA(#114);
#103=SURFACE_STYLE_FILL_AREA(#115);
#104=SURFACE_STYLE_FILL_AREA(#116);
#105=SURFACE_STYLE_FILL_AREA(#117);
#106=SURFACE_STYLE_FILL_AREA(#118);
#107=SURFACE_STYLE_FILL_AREA(#119);
#108=FILL_AREA_STYLE('',(#120));
#109=FILL_AREA_STYLE('',(#121));
#110=FILL_AREA_STYLE('',(#122));
#111=FILL_AREA_STYLE('',(#123));
#112=FILL_AREA_STYLE('',(#124));
#113=FILL_AREA_STYLE('',(#125));
#114=FILL_AREA_STYLE('',(#126));
#115=FILL_AREA_STYLE('',(#127));
#116=FILL_AREA_STYLE('',(#128));
#117=FILL_AREA_STYLE('',(#129));
#118=FILL_AREA_STYLE('',(#130));
#119=FILL_AREA_STYLE('',(#131));
#120=FILL_AREA_STYLE_COLOUR('',#132);
#121=FILL_AREA_STYLE_COLOUR('',#41);
#122=FILL_AREA_STYLE_COLOUR('',#42);
#123=FILL_AREA_STYLE_COLOUR('',#42);
#124=FILL_AREA_STYLE_COLOUR('',#42);
#125=FILL_AREA_STYLE_COLOUR('',#42);
#126=FILL_AREA_STYLE_COLOUR('',#42);
#127=FILL_AREA_STYLE_COLOUR('',#42);
#128=FILL_AREA_STYLE_COLOUR('',#42);
#129=FILL_AREA_STYLE_COLOUR('',#42);
#130=FILL_AREA_STYLE_COLOUR('',#42);
#131=FILL_AREA_STYLE_COLOUR('',#42);
#132=DRAUGHTING_PRE_DEFINED_COLOUR('yellow');
#133=MANIFOLD_SOLID_BREP('',#135);
#134=MANIFOLD_SOLID_BREP('',#136);
#135=CLOSED_SHELL('',(#137,#138));
#136=CLOSED_SHELL('',(#139,#140,#141,#142,#143,#144,#145,#146,#147,#148));
#137=ADVANCED_FACE('',(#151,#152),#149,.F.);
#138=ADVANCED_FACE('',(#153,#154),#150,.F.);
#139=ADVANCED_FACE('',(#155,#156),#54,.T.);
#140=ADVANCED_FACE('',(#157,#158),#51,.T.);
#141=ADVANCED_FACE('',(#159,#160),#52,.T.);
#142=ADVANCED_FACE('',(#161,#162),#55,.T.);
#143=ADVANCED_FACE('',(#163,#164),#48,.T.);
#144=ADVANCED_FACE('',(#46),#44,.F.);
#145=ADVANCED_FACE('',(#47),#45,.F.);
#146=ADVANCED_FACE('',(#165,#166),#43,.T.);
#147=ADVANCED_FACE('',(#167,#168),#56,.T.);
#148=ADVANCED_FACE('',(#169,#170),#53,.T.);
#149=(
BOUNDED_SURFACE()
B_SPLINE_SURFACE(3,3,((#317,#318,#319,#320,#321,#322,#323),(#324,#325,#326,
#327,#328,#329,#330),(#331,#332,#333,#334,#335,#336,#337),(#338,#339,#340,
#341,#342,#343,#344),(#345,#346,#347,#348,#349,#350,#351),(#352,#353,#354,
#355,#356,#357,#358),(#359,#360,#361,#362,#363,#364,#365)),
 .UNSPECIFIED.,.T.,.F.,.F.)
B_SPLINE_SURFACE_WITH_KNOTS((1,3,3,3,1),(4,3,4),(-0.5,0.,0.5,1.,1.5),(0.,
0.5,1.),.UNSPECIFIED.)
GEOMETRIC_REPRESENTATION_ITEM()
RATIONAL_B_SPLINE_SURFACE(((1.,0.566223891312648,0.566223891312648,1.,0.566223891312648,
0.566223891312648,1.),(0.333333333333334,0.188741297104216,0.188741297104216,
0.333333333333334,0.188741297104216,0.188741297104216,0.333333333333334),
(0.333333333333334,0.188741297104216,0.188741297104216,0.333333333333334,
0.188741297104216,0.188741297104216,0.333333333333334),(1.,0.566223891312648,
0.566223891312648,1.,0.566223891312648,0.566223891312648,1.),(0.333333333333334,
0.188741297104216,0.188741297104216,0.333333333333334,0.188741297104216,
0.188741297104216,0.333333333333334),(0.333333333333334,0.188741297104216,
0.188741297104216,0.333333333333334,0.188741297104216,0.188741297104216,
0.333333333333334),(1.,0.566223891312648,0.566223891312648,1.,0.566223891312648,
0.566223891312648,1.)))
REPRESENTATION_ITEM('')
SURFACE()
);
#150=(
BOUNDED_SURFACE()
B_SPLINE_SURFACE(3,3,((#366,#367,#368,#369),(#370,#371,#372,#373),(#374,
#375,#376,#377),(#378,#379,#380,#381),(#382,#383,#384,#385),(#386,#387,
#388,#389),(#390,#391,#392,#393)),.UNSPECIFIED.,.T.,.F.,.F.)
B_SPLINE_SURFACE_WITH_KNOTS((1,3,3,3,1),(4,4),(-0.5,0.,0.5,1.,1.5),(0.,
1.),.UNSPECIFIED.)
GEOMETRIC_REPRESENTATION_ITEM()
RATIONAL_B_SPLINE_SURFACE(((1.,0.837285964012251,0.837285964012251,1.),
(0.333333333333334,0.279095321337417,0.279095321337417,0.333333333333334),
(0.333333333333334,0.279095321337417,0.279095321337417,0.333333333333334),
(1.,0.837285964012251,0.837285964012251,1.),(0.333333333333334,0.279095321337417,
0.279095321337417,0.333333333333334),(0.333333333333334,0.279095321337417,
0.279095321337417,0.333333333333334),(1.,0.837285964012251,0.837285964012251,
1.)))
REPRESENTATION_ITEM('')
SURFACE()
);
#151=FACE_BOUND('',#171,.T.);
#152=FACE_BOUND('',#172,.T.);
#153=FACE_BOUND('',#173,.T.);
#154=FACE_BOUND('',#174,.T.);
#155=FACE_BOUND('',#175,.T.);
#156=FACE_BOUND('',#176,.T.);
#157=FACE_BOUND('',#177,.T.);
#158=FACE_BOUND('',#178,.T.);
#159=FACE_BOUND('',#179,.T.);
#160=FACE_BOUND('',#180,.T.);
#161=FACE_BOUND('',#181,.T.);
#162=FACE_BOUND('',#182,.T.);
#163=FACE_BOUND('',#183,.T.);
#164=FACE_BOUND('',#184,.T.);
#165=FACE_BOUND('',#187,.T.);
#166=FACE_BOUND('',#188,.T.);
#167=FACE_BOUND('',#189,.T.);
#168=FACE_BOUND('',#190,.T.);
#169=FACE_BOUND('',#191,.T.);
#170=FACE_BOUND('',#192,.T.);
#171=EDGE_LOOP('',(#193));
#172=EDGE_LOOP('',(#194));
#173=EDGE_LOOP('',(#195));
#174=EDGE_LOOP('',(#196));
#175=EDGE_LOOP('',(#197));
#176=EDGE_LOOP('',(#198));
#177=EDGE_LOOP('',(#199));
#178=EDGE_LOOP('',(#200));
#179=EDGE_LOOP('',(#201));
#180=EDGE_LOOP('',(#202));
#181=EDGE_LOOP('',(#203));
#182=EDGE_LOOP('',(#204));
#183=EDGE_LOOP('',(#205));
#184=EDGE_LOOP('',(#206));
#185=EDGE_LOOP('',(#207));
#186=EDGE_LOOP('',(#208));
#187=EDGE_LOOP('',(#209));
#188=EDGE_LOOP('',(#210));
#189=EDGE_LOOP('',(#211));
#190=EDGE_LOOP('',(#212));
#191=EDGE_LOOP('',(#213));
#192=EDGE_LOOP('',(#214));
#193=ORIENTED_EDGE('',*,*,#226,.T.);
#194=ORIENTED_EDGE('',*,*,#227,.F.);
#195=ORIENTED_EDGE('',*,*,#227,.T.);
#196=ORIENTED_EDGE('',*,*,#226,.F.);
#197=ORIENTED_EDGE('',*,*,#228,.F.);
#198=ORIENTED_EDGE('',*,*,#229,.T.);
#199=ORIENTED_EDGE('',*,*,#230,.F.);
#200=ORIENTED_EDGE('',*,*,#228,.T.);
#201=ORIENTED_EDGE('',*,*,#231,.F.);
#202=ORIENTED_EDGE('',*,*,#230,.T.);
#203=ORIENTED_EDGE('',*,*,#232,.F.);
#204=ORIENTED_EDGE('',*,*,#231,.T.);
#205=ORIENTED_EDGE('',*,*,#233,.F.);
#206=ORIENTED_EDGE('',*,*,#232,.T.);
#207=ORIENTED_EDGE('',*,*,#233,.T.);
#208=ORIENTED_EDGE('',*,*,#234,.F.);
#209=ORIENTED_EDGE('',*,*,#235,.F.);
#210=ORIENTED_EDGE('',*,*,#234,.T.);
#211=ORIENTED_EDGE('',*,*,#236,.F.);
#212=ORIENTED_EDGE('',*,*,#235,.T.);
#213=ORIENTED_EDGE('',*,*,#229,.F.);
#214=ORIENTED_EDGE('',*,*,#236,.T.);
#215=VERTEX_POINT('',#314);
#216=VERTEX_POINT('',#316);
#217=VERTEX_POINT('',#395);
#218=VERTEX_POINT('',#397);
#219=VERTEX_POINT('',#400);
#220=VERTEX_POINT('',#403);
#221=VERTEX_POINT('',#406);
#222=VERTEX_POINT('',#409);
#223=VERTEX_POINT('',#481);
#224=VERTEX_POINT('',#484);
#225=VERTEX_POINT('',#487);
#226=EDGE_CURVE('',#215,#215,#237,.T.);
#227=EDGE_CURVE('',#216,#216,#238,.T.);
#228=EDGE_CURVE('',#217,#217,#239,.T.);
#229=EDGE_CURVE('',#218,#218,#240,.T.);
#230=EDGE_CURVE('',#219,#219,#241,.T.);
#231=EDGE_CURVE('',#220,#220,#242,.T.);
#232=EDGE_CURVE('',#221,#221,#243,.T.);
#233=EDGE_CURVE('',#222,#222,#244,.T.);
#234=EDGE_CURVE('',#223,#223,#245,.T.);
#235=EDGE_CURVE('',#224,#224,#246,.T.);
#236=EDGE_CURVE('',#225,#225,#247,.T.);
#237=CIRCLE('',#249,6.);
#238=CIRCLE('',#250,6.);
#239=CIRCLE('',#251,16.);
#240=CIRCLE('',#252,16.);
#241=CIRCLE('',#254,15.75);
#242=CIRCLE('',#256,14.);
#243=CIRCLE('',#258,14.0000000000231);
#244=CIRCLE('',#260,7.39335710920745);
#245=CIRCLE('',#262,14.75);
#246=CIRCLE('',#264,15.75);
#247=CIRCLE('',#266,15.75);
#248=AXIS2_PLACEMENT_3D('',#312,#269,#270);
#249=AXIS2_PLACEMENT_3D('',#313,#271,#272);
#250=AXIS2_PLACEMENT_3D('',#315,#273,#274);
#251=AXIS2_PLACEMENT_3D('',#394,#275,#276);
#252=AXIS2_PLACEMENT_3D('',#396,#277,#278);
#253=AXIS2_PLACEMENT_3D('',#398,#279,#280);
#254=AXIS2_PLACEMENT_3D('',#399,#281,#282);
#255=AXIS2_PLACEMENT_3D('',#401,#283,#284);
#256=AXIS2_PLACEMENT_3D('',#402,#285,#286);
#257=AXIS2_PLACEMENT_3D('',#404,#287,#288);
#258=AXIS2_PLACEMENT_3D('',#405,#289,#290);
#259=AXIS2_PLACEMENT_3D('',#407,#291,#292);
#260=AXIS2_PLACEMENT_3D('',#408,#293,#294);
#261=AXIS2_PLACEMENT_3D('',#479,#296,#297);
#262=AXIS2_PLACEMENT_3D('',#480,#298,#299);
#263=AXIS2_PLACEMENT_3D('',#482,#300,#301);
#264=AXIS2_PLACEMENT_3D('',#483,#302,#303);
#265=AXIS2_PLACEMENT_3D('',#485,#304,#305);
#266=AXIS2_PLACEMENT_3D('',#486,#306,#307);
#267=AXIS2_PLACEMENT_3D('',#488,#308,#309);
#268=AXIS2_PLACEMENT_3D('',#489,#310,#311);
#269=DIRECTION('',(0.,0.,1.));
#270=DIRECTION('',(1.,0.,0.));
#271=DIRECTION('',(0.,0.989743318610821,0.142857142856908));
#272=DIRECTION('',(1.,0.,0.));
#273=DIRECTION('',(0.,0.,1.));
#274=DIRECTION('',(1.,0.,0.));
#275=DIRECTION('',(-1.,0.,0.));
#276=DIRECTION('',(0.,0.,1.));
#277=DIRECTION('',(-1.,0.,0.));
#278=DIRECTION('',(0.,0.,1.));
#279=DIRECTION('',(-1.,0.,0.));
#280=DIRECTION('',(0.,0.,1.));
#281=DIRECTION('',(-1.,0.,0.));
#282=DIRECTION('',(0.,0.,1.));
#283=DIRECTION('',(1.,0.,0.));
#284=DIRECTION('',(5.46369598732845E-17,0.,-1.));
#285=DIRECTION('',(-1.,0.,0.));
#286=DIRECTION('',(0.,0.,1.));
#287=DIRECTION('',(1.,0.,0.));
#288=DIRECTION('',(-4.64332958716889E-16,0.,-1.));
#289=DIRECTION('',(-1.,0.,0.));
#290=DIRECTION('',(0.,0.,1.));
#291=DIRECTION('',(-1.,0.,0.));
#292=DIRECTION('',(0.,0.,1.));
#293=DIRECTION('',(-1.,0.,0.));
#294=DIRECTION('',(0.,0.,1.));
#295=DIRECTION('',(-1.,0.,0.));
#296=DIRECTION('',(1.,0.,0.));
#297=DIRECTION('',(0.,0.,-1.));
#298=DIRECTION('',(-1.,0.,0.));
#299=DIRECTION('',(0.,0.,1.));
#300=DIRECTION('',(-1.,0.,0.));
#301=DIRECTION('',(0.,0.,1.));
#302=DIRECTION('',(-1.,0.,0.));
#303=DIRECTION('',(0.,0.,1.));
#304=DIRECTION('',(-1.,0.,0.));
#305=DIRECTION('',(0.,0.,1.));
#306=DIRECTION('',(-1.,0.,0.));
#307=DIRECTION('',(0.,0.,1.));
#308=DIRECTION('',(-1.,0.,0.));
#309=DIRECTION('',(0.,0.,1.));
#310=DIRECTION('',(-1.,0.,0.));
#311=DIRECTION('',(1.44502352719488E-16,0.,1.));
#312=CARTESIAN_POINT('',(0.,0.,0.));
#313=CARTESIAN_POINT('',(6.,0.496870934366941,10.5575771875062));
#314=CARTESIAN_POINT('',(12.,0.496870934366941,10.5575771875062));
#315=CARTESIAN_POINT('',(6.,-10.37830992,2.));
#316=CARTESIAN_POINT('',(12.,-10.37830992,2.));
#317=CARTESIAN_POINT('',(12.,-10.37830992,2.));
#318=CARTESIAN_POINT('',(12.,-12.5847341482706,-9.44947722799466));
#319=CARTESIAN_POINT('',(12.,-2.62738469847962,-15.5166041101535));
#320=CARTESIAN_POINT('',(12.,6.53595753786153,-8.3060565769107));
#321=CARTESIAN_POINT('',(12.,15.6992997742027,-1.09550904366786));
#322=CARTESIAN_POINT('',(12.,12.1441179835424,10.0094231535509));
#323=CARTESIAN_POINT('',(12.,0.496870934366942,10.5575771875062));
#324=CARTESIAN_POINT('',(12.,1.62169008,2.));
#325=CARTESIAN_POINT('',(12.,-0.584734148270622,3.78906814162906));
#326=CARTESIAN_POINT('',(12.,-3.03186972964069,2.34663958641939));
#327=CARTESIAN_POINT('',(12.,-2.53518981435899,-0.450212528413896));
#328=CARTESIAN_POINT('',(12.,-2.03850989907729,-3.24706464324718));
#329=CARTESIAN_POINT('',(12.,0.75564187011399,-3.75871743686496));
#330=CARTESIAN_POINT('',(12.,2.21115664864983,-1.31934263582363));
#331=CARTESIAN_POINT('',(1.46957615897682E-15,1.62169008,2.));
#332=CARTESIAN_POINT('',(1.46957615897682E-15,-0.584734148270622,3.78906814162906));
#333=CARTESIAN_POINT('',(1.46957615897682E-15,-3.03186972964069,2.34663958641939));
#334=CARTESIAN_POINT('',(1.46957615897682E-15,-2.53518981435899,-0.450212528413896));
#335=CARTESIAN_POINT('',(1.46957615897682E-15,-2.03850989907729,-3.24706464324718));
#336=CARTESIAN_POINT('',(1.46957615897682E-15,0.75564187011399,-3.75871743686496));
#337=CARTESIAN_POINT('',(1.46957615897682E-15,2.21115664864983,-1.31934263582363));
#338=CARTESIAN_POINT('',(0.,-10.37830992,2.));
#339=CARTESIAN_POINT('',(0.,-12.5847341482706,-9.44947722799466));
#340=CARTESIAN_POINT('',(0.,-2.62738469847962,-15.5166041101535));
#341=CARTESIAN_POINT('',(0.,6.53595753786153,-8.3060565769107));
#342=CARTESIAN_POINT('',(0.,15.6992997742027,-1.09550904366786));
#343=CARTESIAN_POINT('',(0.,12.1441179835424,10.0094231535509));
#344=CARTESIAN_POINT('',(0.,0.496870934366942,10.5575771875062));
#345=CARTESIAN_POINT('',(-1.46957615897682E-15,-22.37830992,2.));
#346=CARTESIAN_POINT('',(-1.46957615897682E-15,-24.5847341482706,-22.6880225976184));
#347=CARTESIAN_POINT('',(-1.46957615897682E-15,-2.22289966731856,-33.3798478067265));
#348=CARTESIAN_POINT('',(-1.46957615897682E-15,15.6071048900821,-16.1619006254075));
#349=CARTESIAN_POINT('',(-1.46957615897682E-15,33.4371094474826,1.05604655591146));
#350=CARTESIAN_POINT('',(-1.46957615897682E-15,23.5325940969708,23.7775637439667));
#351=CARTESIAN_POINT('',(-1.46957615897682E-15,-1.21741477991595,22.4344970108361));
#352=CARTESIAN_POINT('',(12.,-22.37830992,2.));
#353=CARTESIAN_POINT('',(12.,-24.5847341482706,-22.6880225976184));
#354=CARTESIAN_POINT('',(12.,-2.22289966731856,-33.3798478067265));
#355=CARTESIAN_POINT('',(12.,15.6071048900821,-16.1619006254075));
#356=CARTESIAN_POINT('',(12.,33.4371094474826,1.05604655591146));
#357=CARTESIAN_POINT('',(12.,23.5325940969708,23.7775637439667));
#358=CARTESIAN_POINT('',(12.,-1.21741477991595,22.4344970108361));
#359=CARTESIAN_POINT('',(12.,-10.37830992,2.));
#360=CARTESIAN_POINT('',(12.,-12.5847341482706,-9.44947722799466));
#361=CARTESIAN_POINT('',(12.,-2.62738469847962,-15.5166041101535));
#362=CARTESIAN_POINT('',(12.,6.53595753786153,-8.3060565769107));
#363=CARTESIAN_POINT('',(12.,15.6992997742027,-1.09550904366786));
#364=CARTESIAN_POINT('',(12.,12.1441179835424,10.0094231535509));
#365=CARTESIAN_POINT('',(12.,0.496870934366942,10.5575771875062));
#366=CARTESIAN_POINT('',(12.,0.496870934366941,10.5575771875062));
#367=CARTESIAN_POINT('',(12.,-5.00627212280691,10.8165714419843));
#368=CARTESIAN_POINT('',(12.,-9.33580879319105,7.40969989298626));
#369=CARTESIAN_POINT('',(12.,-10.37830992,2.));
#370=CARTESIAN_POINT('',(12.,2.21115664864983,-1.31934263582363));
#371=CARTESIAN_POINT('',(12.,2.89886474089644,-0.166775986939356));
#372=CARTESIAN_POINT('',(12.,2.66419120680895,1.15469313213255));
#373=CARTESIAN_POINT('',(12.,1.62169008,2.));
#374=CARTESIAN_POINT('',(1.46957615897682E-15,2.21115664864983,-1.31934263582363));
#375=CARTESIAN_POINT('',(1.46957615897682E-15,2.89886474089644,-0.166775986939356));
#376=CARTESIAN_POINT('',(1.46957615897682E-15,2.66419120680895,1.15469313213255));
#377=CARTESIAN_POINT('',(1.46957615897682E-15,1.62169008,2.));
#378=CARTESIAN_POINT('',(0.,0.496870934366941,10.5575771875062));
#379=CARTESIAN_POINT('',(0.,-5.00627212280691,10.8165714419843));
#380=CARTESIAN_POINT('',(0.,-9.33580879319105,7.40969989298626));
#381=CARTESIAN_POINT('',(0.,-10.37830992,2.));
#382=CARTESIAN_POINT('',(-1.46957615897682E-15,-1.21741477991595,22.4344970108361));
#383=CARTESIAN_POINT('',(-1.46957615897682E-15,-12.9114089865103,21.799918870908));
#384=CARTESIAN_POINT('',(-1.46957615897682E-15,-21.335808793191,13.6647066538399));
#385=CARTESIAN_POINT('',(-1.46957615897682E-15,-22.37830992,2.));
#386=CARTESIAN_POINT('',(12.,-1.21741477991595,22.4344970108361));
#387=CARTESIAN_POINT('',(12.,-12.9114089865103,21.799918870908));
#388=CARTESIAN_POINT('',(12.,-21.335808793191,13.6647066538399));
#389=CARTESIAN_POINT('',(12.,-22.37830992,2.));
#390=CARTESIAN_POINT('',(12.,0.496870934366941,10.5575771875062));
#391=CARTESIAN_POINT('',(12.,-5.00627212280691,10.8165714419843));
#392=CARTESIAN_POINT('',(12.,-9.33580879319105,7.40969989298626));
#393=CARTESIAN_POINT('',(12.,-10.37830992,2.));
#394=CARTESIAN_POINT('',(70.,0.,0.));
#395=CARTESIAN_POINT('',(70.,0.,16.));
#396=CARTESIAN_POINT('',(154.582179545095,0.,0.));
#397=CARTESIAN_POINT('',(154.582179545095,0.,16.));
#398=CARTESIAN_POINT('',(0.,0.,0.));
#399=CARTESIAN_POINT('',(69.75,0.,0.));
#400=CARTESIAN_POINT('',(69.75,0.,15.75));
#401=CARTESIAN_POINT('',(70.,0.,0.));
#402=CARTESIAN_POINT('',(30.,0.,0.));
#403=CARTESIAN_POINT('',(30.,0.,14.));
#404=CARTESIAN_POINT('',(69.75,0.,0.));
#405=CARTESIAN_POINT('',(9.1913289379311,0.,0.));
#406=CARTESIAN_POINT('',(9.1913289379311,0.,14.0000000000231));
#407=CARTESIAN_POINT('',(0.,0.,0.));
#408=CARTESIAN_POINT('',(3.,0.,0.));
#409=CARTESIAN_POINT('',(3.,0.,7.39335710920745));
#410=CARTESIAN_POINT('',(5.70076228878865,6.38147450999792,0.));
#411=CARTESIAN_POINT('',(6.29923771121135,6.38147450999792,0.));
#412=CARTESIAN_POINT('',(6.59628821389819,6.40741589795119,0.));
#413=CARTESIAN_POINT('',(7.18478058198655,6.51182884856276,0.));
#414=CARTESIAN_POINT('',(7.47286659493901,6.58996672961978,0.));
#415=CARTESIAN_POINT('',(8.02759359609128,6.79660119057267,0.));
#416=CARTESIAN_POINT('',(8.29786100978889,6.92672771126658,0.));
#417=CARTESIAN_POINT('',(8.8068269798631,7.23694641083344,0.));
#418=CARTESIAN_POINT('',(9.04321130890703,7.41500024283338,0.));
#419=CARTESIAN_POINT('',(9.47858236871103,7.81851852832298,0.));
#420=CARTESIAN_POINT('',(9.67785495776039,8.0456182724931,0.));
#421=CARTESIAN_POINT('',(10.019342201978,8.52890524427869,0.));
#422=CARTESIAN_POINT('',(10.1642823216897,8.7871295562339,0.));
#423=CARTESIAN_POINT('',(10.4002115249395,9.33824606099684,0.));
#424=CARTESIAN_POINT('',(10.4870777162051,9.62162821094948,0.));
#425=CARTESIAN_POINT('',(10.6011886036833,10.2015807748103,0.));
#426=CARTESIAN_POINT('',(10.6282678734149,10.5021221474612,0.));
#427=CARTESIAN_POINT('',(10.6200225918625,11.0959523502922,0.));
#428=CARTESIAN_POINT('',(10.5856766843319,11.3892166207869,0.));
#429=CARTESIAN_POINT('',(10.4577940228568,11.9685951811314,0.));
#430=CARTESIAN_POINT('',(10.363128773519,12.2552849512954,0.));
#431=CARTESIAN_POINT('',(10.1230534154719,12.7955250342029,0.));
#432=CARTESIAN_POINT('',(9.97712603822624,13.0525936414214,0.));
#433=CARTESIAN_POINT('',(9.63274416480229,13.5402510478503,0.));
#434=CARTESIAN_POINT('',(9.43719862441996,13.7659974887619,0.));
#435=CARTESIAN_POINT('',(9.00970903923085,14.173363903895,0.));
#436=CARTESIAN_POINT('',(8.77508059671737,14.3576088376084,0.));
#437=CARTESIAN_POINT('',(8.27188173202569,14.6792946849057,0.));
#438=CARTESIAN_POINT('',(8.00854718064366,14.8138090590042,0.));
#439=CARTESIAN_POINT('',(7.45927391099836,15.0321237985974,0.));
#440=CARTESIAN_POINT('',(7.17007580068946,15.1163592197847,0.));
#441=CARTESIAN_POINT('',(6.58649233667464,15.2273627004627,0.));
#442=CARTESIAN_POINT('',(6.29241556734598,15.2548767092314,0.));
#443=CARTESIAN_POINT('',(5.69972888724571,15.2543816310647,0.));
#444=CARTESIAN_POINT('',(5.39925874715979,15.225487905502,0.));
#445=CARTESIAN_POINT('',(4.8180053913337,15.1132181801174,0.));
#446=CARTESIAN_POINT('',(4.53434814278846,15.0301898012662,0.));
#447=CARTESIAN_POINT('',(3.98128303756982,14.809147731233,0.));
#448=CARTESIAN_POINT('',(3.7146418982045,14.6715973727068,0.));
#449=CARTESIAN_POINT('',(3.21747854911707,14.3518947375417,0.));
#450=CARTESIAN_POINT('',(2.98353624083561,14.1680141250816,0.));
#451=CARTESIAN_POINT('',(2.55166441787699,13.7542518803259,0.));
#452=CARTESIAN_POINT('',(2.35886723021943,13.5295840293932,0.));
#453=CARTESIAN_POINT('',(2.01865539857653,13.0453627827743,0.));
#454=CARTESIAN_POINT('',(1.87014079226375,12.7827080215085,0.));
#455=CARTESIAN_POINT('',(1.63095366735412,12.2393347381136,0.));
#456=CARTESIAN_POINT('',(1.53911798719337,11.9582171855657,0.));
#457=CARTESIAN_POINT('',(1.41237672689512,11.3766397296257,0.));
#458=CARTESIAN_POINT('',(1.37859496043257,11.0777615910094,0.));
#459=CARTESIAN_POINT('',(1.37270926635173,10.4863051886249,0.));
#460=CARTESIAN_POINT('',(1.40031123519067,10.1882112900604,0.));
#461=CARTESIAN_POINT('',(1.51776347564011,9.60309230105311,0.));
#462=CARTESIAN_POINT('',(1.60609355832488,9.32093278585423,0.));
#463=CARTESIAN_POINT('',(1.84116095441425,8.7771324272915,0.));
#464=CARTESIAN_POINT('',(1.9899675196731,8.51367104804891,0.));
#465=CARTESIAN_POINT('',(2.33318082371298,8.03218481559628,0.));
#466=CARTESIAN_POINT('',(2.52842021420784,7.81102712708473,0.));
#467=CARTESIAN_POINT('',(2.85650048235218,7.50847984475896,0.));
#468=CARTESIAN_POINT('',(2.97227636080142,7.41225306996555,0.));
#469=CARTESIAN_POINT('',(3.21003658718227,7.23406707822967,0.));
#470=CARTESIAN_POINT('',(3.33259154112052,7.15150367103386,0.));
#471=CARTESIAN_POINT('',(3.71075684213429,6.92247100593706,0.));
#472=CARTESIAN_POINT('',(3.97678092539166,6.79450524750008,0.));
#473=CARTESIAN_POINT('',(4.53613479002409,6.58709147312145,0.));
#474=CARTESIAN_POINT('',(4.82441366348085,6.50985883570417,0.));
#475=CARTESIAN_POINT('',(5.40583624949907,6.40738435467535,0.));
#476=CARTESIAN_POINT('',(5.70076228878865,6.38147450999792,0.));
#477=CARTESIAN_POINT('',(6.29923771121135,6.38147450999792,0.));
#478=CARTESIAN_POINT('',(0.,0.,0.));
#479=CARTESIAN_POINT('',(3.,7.39335710920745,0.));
#480=CARTESIAN_POINT('',(160.,0.,0.));
#481=CARTESIAN_POINT('',(160.,0.,14.75));
#482=CARTESIAN_POINT('',(160.,0.,0.));
#483=CARTESIAN_POINT('',(159.,0.,0.));
#484=CARTESIAN_POINT('',(159.,0.,15.75));
#485=CARTESIAN_POINT('',(159.,0.,0.));
#486=CARTESIAN_POINT('',(156.,0.,0.));
#487=CARTESIAN_POINT('',(156.,0.,15.75));
#488=CARTESIAN_POINT('',(0.,0.,0.));
#489=CARTESIAN_POINT('',(156.,0.,0.));
#490=(
GEOMETRIC_REPRESENTATION_CONTEXT(3)
GLOBAL_UNCERTAINTY_ASSIGNED_CONTEXT((#491))
GLOBAL_UNIT_ASSIGNED_CONTEXT((#497,#493,#492))
REPRESENTATION_CONTEXT('model1','TOP_LEVEL_ASSEMBLY_PART')
);
#491=UNCERTAINTY_MEASURE_WITH_UNIT(LENGTH_MEASURE(2.E-5),#497,
'DISTANCE_ACCURACY_VALUE','Maximum Tolerance applied to model');
#492=(
NAMED_UNIT(*)
SI_UNIT($,.STERADIAN.)
SOLID_ANGLE_UNIT()
);
#493=(
CONVERSION_BASED_UNIT('DEGREE',#495)
NAMED_UNIT(#494)
PLANE_ANGLE_UNIT()
);
#494=DIMENSIONAL_EXPONENTS(0.,0.,0.,0.,0.,0.,0.);
#495=PLANE_ANGLE_MEASURE_WITH_UNIT(PLANE_ANGLE_MEASURE(0.0174532925),#496);
#496=(
NAMED_UNIT(*)
PLANE_ANGLE_UNIT()
SI_UNIT($,.RADIAN.)
);
#497=(
LENGTH_UNIT()
NAMED_UNIT(*)
SI_UNIT(.MILLI.,.METRE.)
);
ENDSEC;
END-ISO-10303-21;
