ISO-10303-21;
HEADER;
/* Generated by software containing ST-Developer
 * from STEP Tools, Inc. (www.steptools.com) 
 */
/* OPTION: using custom schema-name function */

FILE_DESCRIPTION(
/* description */ (''),
/* implementation_level */ '2;1');

FILE_NAME(
/* name */ 'AFM88C-SN1204-D050-A22-Z05.stp',
/* time_stamp */ '2023-10-30T14:47:35+03:00',
/* author */ (''),
/* organization */ (''),
/* preprocessor_version */ 'ST-DEVELOPER v19.4',
/* originating_system */ 'SIEMENS PLM Software NX2306.3001',
/* authorisation */ '');

FILE_SCHEMA (('AP203_CONFIGURATION_CONTROLLED_3D_DESIGN_OF_MECHANICAL_PARTS_AND_ASSEMBLIES_MIM_LF { 1 0 10303 403 2 1 2}'));
ENDSEC;

DATA;
#10=SHAPE_REPRESENTATION_RELATIONSHIP('None',
'relationship between model1-None and model1-None',#76,#11);
#11=ADVANCED_BREP_SHAPE_REPRESENTATION('model1-None',(#194,#195),#640);
#12=APPLIED_APPROVAL_ASSIGNMENT(#24,(#66));
#13=APPLIED_APPROVAL_ASSIGNMENT(#25,(#68));
#14=APPLIED_APPROVAL_ASSIGNMENT(#26,(#38));
#15=APPROVAL_PERSON_ORGANIZATION(#30,#24,#18);
#16=APPROVAL_PERSON_ORGANIZATION(#31,#25,#19);
#17=APPROVAL_PERSON_ORGANIZATION(#32,#26,#20);
#18=APPROVAL_ROLE('approver');
#19=APPROVAL_ROLE('approver');
#20=APPROVAL_ROLE('approver');
#21=APPROVAL_DATE_TIME(#46,#24);
#22=APPROVAL_DATE_TIME(#47,#25);
#23=APPROVAL_DATE_TIME(#48,#26);
#24=APPROVAL(#27,' ');
#25=APPROVAL(#28,' ');
#26=APPROVAL(#29,' ');
#27=APPROVAL_STATUS('not_yet_approved');
#28=APPROVAL_STATUS('not_yet_approved');
#29=APPROVAL_STATUS('not_yet_approved');
#30=PERSON_AND_ORGANIZATION(#36,#33);
#31=PERSON_AND_ORGANIZATION(#36,#34);
#32=PERSON_AND_ORGANIZATION(#36,#35);
#33=ORGANIZATION(' ',' ',' ');
#34=ORGANIZATION(' ',' ',' ');
#35=ORGANIZATION(' ',' ',' ');
#36=PERSON(' ',' ',' ',(' '),$,$);
#37=APPLIED_SECURITY_CLASSIFICATION_ASSIGNMENT(#38,(#68));
#38=SECURITY_CLASSIFICATION(' ',' ',#39);
#39=SECURITY_CLASSIFICATION_LEVEL('confidential');
#40=APPLIED_DATE_AND_TIME_ASSIGNMENT(#44,#42,(#66));
#41=APPLIED_DATE_AND_TIME_ASSIGNMENT(#45,#43,(#38));
#42=DATE_TIME_ROLE('creation_date');
#43=DATE_TIME_ROLE('classification_date');
#44=DATE_AND_TIME(#59,#49);
#45=DATE_AND_TIME(#60,#50);
#46=DATE_AND_TIME(#61,#51);
#47=DATE_AND_TIME(#62,#52);
#48=DATE_AND_TIME(#63,#53);
#49=LOCAL_TIME(0,0,0.,#54);
#50=LOCAL_TIME(0,0,0.,#55);
#51=LOCAL_TIME(0,0,0.,#56);
#52=LOCAL_TIME(0,0,0.,#57);
#53=LOCAL_TIME(0,0,0.,#58);
#54=COORDINATED_UNIVERSAL_TIME_OFFSET(0,0,.BEHIND.);
#55=COORDINATED_UNIVERSAL_TIME_OFFSET(0,0,.BEHIND.);
#56=COORDINATED_UNIVERSAL_TIME_OFFSET(0,0,.BEHIND.);
#57=COORDINATED_UNIVERSAL_TIME_OFFSET(0,0,.BEHIND.);
#58=COORDINATED_UNIVERSAL_TIME_OFFSET(0,0,.BEHIND.);
#59=CALENDAR_DATE(0,1,1);
#60=CALENDAR_DATE(0,1,1);
#61=CALENDAR_DATE(0,1,1);
#62=CALENDAR_DATE(0,1,1);
#63=CALENDAR_DATE(0,1,1);
#64=SHAPE_DEFINITION_REPRESENTATION(#65,#76);
#65=PRODUCT_DEFINITION_SHAPE('','',#66);
#66=PRODUCT_DEFINITION(' ','',#68,#67);
#67=PRODUCT_DEFINITION_CONTEXT('part definition',#75,'design');
#68=PRODUCT_DEFINITION_FORMATION_WITH_SPECIFIED_SOURCE(' ',' ',#70,
 .NOT_KNOWN.);
#69=PRODUCT_RELATED_PRODUCT_CATEGORY('detail','',(#70));
#70=PRODUCT('model1','model1',' ',(#73));
#71=PRODUCT_CATEGORY('part',' ');
#72=PRODUCT_CATEGORY(' ','');
#73=PRODUCT_CONTEXT(' ',#75,'mechanical');
#74=APPLICATION_PROTOCOL_DEFINITION('international standard',
'config_control_design',2010,#75);
#75=APPLICATION_CONTEXT(
'configuration controlled 3D designs of mechanical parts and assemblie
s');
#76=SHAPE_REPRESENTATION('model1-None',(#437),#640);
#77=DRAUGHTING_PRE_DEFINED_COLOUR('yellow');
#78=LINE('',#612,#82);
#79=LINE('',#620,#83);
#80=LINE('',#628,#84);
#81=LINE('',#636,#85);
#82=VECTOR('',#529,10.3);
#83=VECTOR('',#538,10.3);
#84=VECTOR('',#547,10.3);
#85=VECTOR('',#556,10.3);
#86=OVER_RIDING_STYLED_ITEM('',(#103),#212,#100);
#87=OVER_RIDING_STYLED_ITEM('',(#104),#213,#100);
#88=OVER_RIDING_STYLED_ITEM('',(#105),#214,#100);
#89=OVER_RIDING_STYLED_ITEM('',(#106),#215,#100);
#90=OVER_RIDING_STYLED_ITEM('',(#107),#216,#100);
#91=OVER_RIDING_STYLED_ITEM('',(#108),#217,#100);
#92=OVER_RIDING_STYLED_ITEM('',(#109),#218,#100);
#93=OVER_RIDING_STYLED_ITEM('',(#110),#219,#100);
#94=OVER_RIDING_STYLED_ITEM('',(#111),#220,#100);
#95=OVER_RIDING_STYLED_ITEM('',(#112),#221,#100);
#96=OVER_RIDING_STYLED_ITEM('',(#113),#222,#100);
#97=OVER_RIDING_STYLED_ITEM('',(#114),#223,#100);
#98=OVER_RIDING_STYLED_ITEM('',(#115),#224,#100);
#99=PRESENTATION_LAYER_ASSIGNMENT('1','Layer 1',(#194,#195));
#100=STYLED_ITEM('',(#102),#194);
#101=STYLED_ITEM('',(#116),#195);
#102=PRESENTATION_STYLE_ASSIGNMENT((#117));
#103=PRESENTATION_STYLE_ASSIGNMENT((#118));
#104=PRESENTATION_STYLE_ASSIGNMENT((#119));
#105=PRESENTATION_STYLE_ASSIGNMENT((#120));
#106=PRESENTATION_STYLE_ASSIGNMENT((#121));
#107=PRESENTATION_STYLE_ASSIGNMENT((#122));
#108=PRESENTATION_STYLE_ASSIGNMENT((#123));
#109=PRESENTATION_STYLE_ASSIGNMENT((#124));
#110=PRESENTATION_STYLE_ASSIGNMENT((#125));
#111=PRESENTATION_STYLE_ASSIGNMENT((#126));
#112=PRESENTATION_STYLE_ASSIGNMENT((#127));
#113=PRESENTATION_STYLE_ASSIGNMENT((#128));
#114=PRESENTATION_STYLE_ASSIGNMENT((#129));
#115=PRESENTATION_STYLE_ASSIGNMENT((#130));
#116=PRESENTATION_STYLE_ASSIGNMENT((#131));
#117=SURFACE_STYLE_USAGE(.BOTH.,#132);
#118=SURFACE_STYLE_USAGE(.BOTH.,#133);
#119=SURFACE_STYLE_USAGE(.BOTH.,#134);
#120=SURFACE_STYLE_USAGE(.BOTH.,#135);
#121=SURFACE_STYLE_USAGE(.BOTH.,#136);
#122=SURFACE_STYLE_USAGE(.BOTH.,#137);
#123=SURFACE_STYLE_USAGE(.BOTH.,#138);
#124=SURFACE_STYLE_USAGE(.BOTH.,#139);
#125=SURFACE_STYLE_USAGE(.BOTH.,#140);
#126=SURFACE_STYLE_USAGE(.BOTH.,#141);
#127=SURFACE_STYLE_USAGE(.BOTH.,#142);
#128=SURFACE_STYLE_USAGE(.BOTH.,#143);
#129=SURFACE_STYLE_USAGE(.BOTH.,#144);
#130=SURFACE_STYLE_USAGE(.BOTH.,#145);
#131=SURFACE_STYLE_USAGE(.BOTH.,#146);
#132=SURFACE_SIDE_STYLE('',(#147));
#133=SURFACE_SIDE_STYLE('',(#148));
#134=SURFACE_SIDE_STYLE('',(#149));
#135=SURFACE_SIDE_STYLE('',(#150));
#136=SURFACE_SIDE_STYLE('',(#151));
#137=SURFACE_SIDE_STYLE('',(#152));
#138=SURFACE_SIDE_STYLE('',(#153));
#139=SURFACE_SIDE_STYLE('',(#154));
#140=SURFACE_SIDE_STYLE('',(#155));
#141=SURFACE_SIDE_STYLE('',(#156));
#142=SURFACE_SIDE_STYLE('',(#157));
#143=SURFACE_SIDE_STYLE('',(#158));
#144=SURFACE_SIDE_STYLE('',(#159));
#145=SURFACE_SIDE_STYLE('',(#160));
#146=SURFACE_SIDE_STYLE('',(#161));
#147=SURFACE_STYLE_FILL_AREA(#162);
#148=SURFACE_STYLE_FILL_AREA(#163);
#149=SURFACE_STYLE_FILL_AREA(#164);
#150=SURFACE_STYLE_FILL_AREA(#165);
#151=SURFACE_STYLE_FILL_AREA(#166);
#152=SURFACE_STYLE_FILL_AREA(#167);
#153=SURFACE_STYLE_FILL_AREA(#168);
#154=SURFACE_STYLE_FILL_AREA(#169);
#155=SURFACE_STYLE_FILL_AREA(#170);
#156=SURFACE_STYLE_FILL_AREA(#171);
#157=SURFACE_STYLE_FILL_AREA(#172);
#158=SURFACE_STYLE_FILL_AREA(#173);
#159=SURFACE_STYLE_FILL_AREA(#174);
#160=SURFACE_STYLE_FILL_AREA(#175);
#161=SURFACE_STYLE_FILL_AREA(#176);
#162=FILL_AREA_STYLE('',(#177));
#163=FILL_AREA_STYLE('',(#178));
#164=FILL_AREA_STYLE('',(#179));
#165=FILL_AREA_STYLE('',(#180));
#166=FILL_AREA_STYLE('',(#181));
#167=FILL_AREA_STYLE('',(#182));
#168=FILL_AREA_STYLE('',(#183));
#169=FILL_AREA_STYLE('',(#184));
#170=FILL_AREA_STYLE('',(#185));
#171=FILL_AREA_STYLE('',(#186));
#172=FILL_AREA_STYLE('',(#187));
#173=FILL_AREA_STYLE('',(#188));
#174=FILL_AREA_STYLE('',(#189));
#175=FILL_AREA_STYLE('',(#190));
#176=FILL_AREA_STYLE('',(#191));
#177=FILL_AREA_STYLE_COLOUR('',#192);
#178=FILL_AREA_STYLE_COLOUR('',#193);
#179=FILL_AREA_STYLE_COLOUR('',#193);
#180=FILL_AREA_STYLE_COLOUR('',#193);
#181=FILL_AREA_STYLE_COLOUR('',#193);
#182=FILL_AREA_STYLE_COLOUR('',#193);
#183=FILL_AREA_STYLE_COLOUR('',#193);
#184=FILL_AREA_STYLE_COLOUR('',#193);
#185=FILL_AREA_STYLE_COLOUR('',#193);
#186=FILL_AREA_STYLE_COLOUR('',#193);
#187=FILL_AREA_STYLE_COLOUR('',#193);
#188=FILL_AREA_STYLE_COLOUR('',#193);
#189=FILL_AREA_STYLE_COLOUR('',#193);
#190=FILL_AREA_STYLE_COLOUR('',#193);
#191=FILL_AREA_STYLE_COLOUR('',#77);
#192=COLOUR_RGB('Medium Steel',0.611764705882353,0.658823529411765,0.670588235294118);
#193=COLOUR_RGB('silver gray',0.6,0.6,0.6);
#194=MANIFOLD_SOLID_BREP('',#196);
#195=MANIFOLD_SOLID_BREP('',#197);
#196=CLOSED_SHELL('',(#212,#213,#214,#215,#216,#217,#218,#219,#220,#221,
#222,#223,#224));
#197=CLOSED_SHELL('',(#225,#226,#227,#228,#229,#230,#231,#232));
#198=CYLINDRICAL_SURFACE('',#450,21.);
#199=CYLINDRICAL_SURFACE('',#454,20.8);
#200=CYLINDRICAL_SURFACE('',#460,24.412044571614);
#201=PLANE('',#446);
#202=FACE_OUTER_BOUND('',#299,.T.);
#203=VERTEX_LOOP('',#376);
#204=TOROIDAL_SURFACE('',#443,15.420517929438,3.);
#205=TOROIDAL_SURFACE('',#448,19.5,1.5);
#206=TOROIDAL_SURFACE('',#456,50.8,30.);
#207=TOROIDAL_SURFACE('',#458,20.4120428680439,4.);
#208=TOROIDAL_SURFACE('',#461,2238.40897880109,2214.44525453037);
#209=CONICAL_SURFACE('',#441,23.2495021745601,89.0053320779583);
#210=CONICAL_SURFACE('',#444,14.6440607941304,75.0000000000001);
#211=CONICAL_SURFACE('',#452,21.,29.9999999999995);
#212=ADVANCED_FACE('',(#252,#253),#233,.T.);
#213=ADVANCED_FACE('',(#254,#255),#209,.F.);
#214=ADVANCED_FACE('',(#256,#257),#204,.T.);
#215=ADVANCED_FACE('',(#258,#259),#210,.F.);
#216=ADVANCED_FACE('',(#202),#201,.F.);
#217=ADVANCED_FACE('',(#260,#261),#205,.T.);
#218=ADVANCED_FACE('',(#262,#263),#198,.T.);
#219=ADVANCED_FACE('',(#264,#265),#211,.T.);
#220=ADVANCED_FACE('',(#266,#267),#199,.T.);
#221=ADVANCED_FACE('',(#268,#269),#206,.F.);
#222=ADVANCED_FACE('',(#270,#271),#207,.T.);
#223=ADVANCED_FACE('',(#272,#273),#200,.T.);
#224=ADVANCED_FACE('',(#274,#275),#208,.F.);
#225=ADVANCED_FACE('',(#276,#277),#234,.T.);
#226=ADVANCED_FACE('',(#278,#279),#235,.T.);
#227=ADVANCED_FACE('',(#280,#281),#236,.T.);
#228=ADVANCED_FACE('',(#282,#283),#237,.T.);
#229=ADVANCED_FACE('',(#284,#285),#238,.T.);
#230=ADVANCED_FACE('',(#286,#287),#239,.T.);
#231=ADVANCED_FACE('',(#288,#289),#240,.T.);
#232=ADVANCED_FACE('',(#290,#291),#241,.T.);
#233=SURFACE_OF_REVOLUTION('',#251,#242);
#234=SURFACE_OF_REVOLUTION('',#78,#243);
#235=SURFACE_OF_REVOLUTION('',#428,#244);
#236=SURFACE_OF_REVOLUTION('',#79,#245);
#237=SURFACE_OF_REVOLUTION('',#431,#246);
#238=SURFACE_OF_REVOLUTION('',#80,#247);
#239=SURFACE_OF_REVOLUTION('',#434,#248);
#240=SURFACE_OF_REVOLUTION('',#81,#249);
#241=SURFACE_OF_REVOLUTION('',#436,#250);
#242=AXIS1_PLACEMENT('',#574,#480);
#243=AXIS1_PLACEMENT('',#613,#530);
#244=AXIS1_PLACEMENT('',#617,#535);
#245=AXIS1_PLACEMENT('',#621,#539);
#246=AXIS1_PLACEMENT('',#625,#544);
#247=AXIS1_PLACEMENT('',#629,#548);
#248=AXIS1_PLACEMENT('',#633,#553);
#249=AXIS1_PLACEMENT('',#637,#557);
#250=AXIS1_PLACEMENT('',#639,#560);
#251=B_SPLINE_CURVE_WITH_KNOTS('',3,(#566,#567,#568,#569,#570,#571,#572,
#573),.UNSPECIFIED.,.F.,.F.,(4,2,2,4),(0.,0.5,0.75,1.),.UNSPECIFIED.);
#252=FACE_BOUND('',#292,.T.);
#253=FACE_BOUND('',#293,.T.);
#254=FACE_BOUND('',#294,.T.);
#255=FACE_BOUND('',#295,.T.);
#256=FACE_BOUND('',#296,.T.);
#257=FACE_BOUND('',#297,.T.);
#258=FACE_BOUND('',#298,.T.);
#259=FACE_BOUND('',#203,.T.);
#260=FACE_BOUND('',#300,.T.);
#261=FACE_BOUND('',#301,.T.);
#262=FACE_BOUND('',#302,.T.);
#263=FACE_BOUND('',#303,.T.);
#264=FACE_BOUND('',#304,.T.);
#265=FACE_BOUND('',#305,.T.);
#266=FACE_BOUND('',#306,.T.);
#267=FACE_BOUND('',#307,.T.);
#268=FACE_BOUND('',#308,.T.);
#269=FACE_BOUND('',#309,.T.);
#270=FACE_BOUND('',#310,.T.);
#271=FACE_BOUND('',#311,.T.);
#272=FACE_BOUND('',#312,.T.);
#273=FACE_BOUND('',#313,.T.);
#274=FACE_BOUND('',#314,.T.);
#275=FACE_BOUND('',#315,.T.);
#276=FACE_BOUND('',#316,.T.);
#277=FACE_BOUND('',#317,.T.);
#278=FACE_BOUND('',#318,.T.);
#279=FACE_BOUND('',#319,.T.);
#280=FACE_BOUND('',#320,.T.);
#281=FACE_BOUND('',#321,.T.);
#282=FACE_BOUND('',#322,.T.);
#283=FACE_BOUND('',#323,.T.);
#284=FACE_BOUND('',#324,.T.);
#285=FACE_BOUND('',#325,.T.);
#286=FACE_BOUND('',#326,.T.);
#287=FACE_BOUND('',#327,.T.);
#288=FACE_BOUND('',#328,.T.);
#289=FACE_BOUND('',#329,.T.);
#290=FACE_BOUND('',#330,.T.);
#291=FACE_BOUND('',#331,.T.);
#292=EDGE_LOOP('',(#332));
#293=EDGE_LOOP('',(#333));
#294=EDGE_LOOP('',(#334));
#295=EDGE_LOOP('',(#335));
#296=EDGE_LOOP('',(#336));
#297=EDGE_LOOP('',(#337));
#298=EDGE_LOOP('',(#338));
#299=EDGE_LOOP('',(#339));
#300=EDGE_LOOP('',(#340));
#301=EDGE_LOOP('',(#341));
#302=EDGE_LOOP('',(#342));
#303=EDGE_LOOP('',(#343));
#304=EDGE_LOOP('',(#344));
#305=EDGE_LOOP('',(#345));
#306=EDGE_LOOP('',(#346));
#307=EDGE_LOOP('',(#347));
#308=EDGE_LOOP('',(#348));
#309=EDGE_LOOP('',(#349));
#310=EDGE_LOOP('',(#350));
#311=EDGE_LOOP('',(#351));
#312=EDGE_LOOP('',(#352));
#313=EDGE_LOOP('',(#353));
#314=EDGE_LOOP('',(#354));
#315=EDGE_LOOP('',(#355));
#316=EDGE_LOOP('',(#356));
#317=EDGE_LOOP('',(#357));
#318=EDGE_LOOP('',(#358));
#319=EDGE_LOOP('',(#359));
#320=EDGE_LOOP('',(#360));
#321=EDGE_LOOP('',(#361));
#322=EDGE_LOOP('',(#362));
#323=EDGE_LOOP('',(#363));
#324=EDGE_LOOP('',(#364));
#325=EDGE_LOOP('',(#365));
#326=EDGE_LOOP('',(#366));
#327=EDGE_LOOP('',(#367));
#328=EDGE_LOOP('',(#368));
#329=EDGE_LOOP('',(#369));
#330=EDGE_LOOP('',(#370));
#331=EDGE_LOOP('',(#371));
#332=ORIENTED_EDGE('',*,*,#393,.F.);
#333=ORIENTED_EDGE('',*,*,#394,.T.);
#334=ORIENTED_EDGE('',*,*,#395,.F.);
#335=ORIENTED_EDGE('',*,*,#393,.T.);
#336=ORIENTED_EDGE('',*,*,#396,.F.);
#337=ORIENTED_EDGE('',*,*,#395,.T.);
#338=ORIENTED_EDGE('',*,*,#396,.T.);
#339=ORIENTED_EDGE('',*,*,#397,.F.);
#340=ORIENTED_EDGE('',*,*,#398,.F.);
#341=ORIENTED_EDGE('',*,*,#397,.T.);
#342=ORIENTED_EDGE('',*,*,#399,.F.);
#343=ORIENTED_EDGE('',*,*,#398,.T.);
#344=ORIENTED_EDGE('',*,*,#400,.F.);
#345=ORIENTED_EDGE('',*,*,#399,.T.);
#346=ORIENTED_EDGE('',*,*,#401,.F.);
#347=ORIENTED_EDGE('',*,*,#400,.T.);
#348=ORIENTED_EDGE('',*,*,#402,.F.);
#349=ORIENTED_EDGE('',*,*,#401,.T.);
#350=ORIENTED_EDGE('',*,*,#403,.F.);
#351=ORIENTED_EDGE('',*,*,#402,.T.);
#352=ORIENTED_EDGE('',*,*,#404,.F.);
#353=ORIENTED_EDGE('',*,*,#403,.T.);
#354=ORIENTED_EDGE('',*,*,#394,.F.);
#355=ORIENTED_EDGE('',*,*,#404,.T.);
#356=ORIENTED_EDGE('',*,*,#405,.F.);
#357=ORIENTED_EDGE('',*,*,#406,.T.);
#358=ORIENTED_EDGE('',*,*,#407,.F.);
#359=ORIENTED_EDGE('',*,*,#405,.T.);
#360=ORIENTED_EDGE('',*,*,#408,.F.);
#361=ORIENTED_EDGE('',*,*,#407,.T.);
#362=ORIENTED_EDGE('',*,*,#409,.F.);
#363=ORIENTED_EDGE('',*,*,#408,.T.);
#364=ORIENTED_EDGE('',*,*,#410,.F.);
#365=ORIENTED_EDGE('',*,*,#409,.T.);
#366=ORIENTED_EDGE('',*,*,#411,.F.);
#367=ORIENTED_EDGE('',*,*,#410,.T.);
#368=ORIENTED_EDGE('',*,*,#412,.F.);
#369=ORIENTED_EDGE('',*,*,#411,.T.);
#370=ORIENTED_EDGE('',*,*,#406,.F.);
#371=ORIENTED_EDGE('',*,*,#412,.T.);
#372=VERTEX_POINT('',#563);
#373=VERTEX_POINT('',#565);
#374=VERTEX_POINT('',#576);
#375=VERTEX_POINT('',#579);
#376=VERTEX_POINT('',#581);
#377=VERTEX_POINT('',#584);
#378=VERTEX_POINT('',#587);
#379=VERTEX_POINT('',#590);
#380=VERTEX_POINT('',#593);
#381=VERTEX_POINT('',#596);
#382=VERTEX_POINT('',#599);
#383=VERTEX_POINT('',#602);
#384=VERTEX_POINT('',#605);
#385=VERTEX_POINT('',#609);
#386=VERTEX_POINT('',#611);
#387=VERTEX_POINT('',#615);
#388=VERTEX_POINT('',#619);
#389=VERTEX_POINT('',#623);
#390=VERTEX_POINT('',#627);
#391=VERTEX_POINT('',#631);
#392=VERTEX_POINT('',#635);
#393=EDGE_CURVE('',#372,#372,#413,.T.);
#394=EDGE_CURVE('',#373,#373,#414,.T.);
#395=EDGE_CURVE('',#374,#374,#415,.T.);
#396=EDGE_CURVE('',#375,#375,#416,.T.);
#397=EDGE_CURVE('',#377,#377,#417,.T.);
#398=EDGE_CURVE('',#378,#378,#418,.T.);
#399=EDGE_CURVE('',#379,#379,#419,.T.);
#400=EDGE_CURVE('',#380,#380,#420,.T.);
#401=EDGE_CURVE('',#381,#381,#421,.T.);
#402=EDGE_CURVE('',#382,#382,#422,.T.);
#403=EDGE_CURVE('',#383,#383,#423,.T.);
#404=EDGE_CURVE('',#384,#384,#424,.T.);
#405=EDGE_CURVE('',#385,#385,#425,.T.);
#406=EDGE_CURVE('',#386,#386,#426,.T.);
#407=EDGE_CURVE('',#387,#387,#427,.T.);
#408=EDGE_CURVE('',#388,#388,#429,.T.);
#409=EDGE_CURVE('',#389,#389,#430,.T.);
#410=EDGE_CURVE('',#390,#390,#432,.T.);
#411=EDGE_CURVE('',#391,#391,#433,.T.);
#412=EDGE_CURVE('',#392,#392,#435,.T.);
#413=CIRCLE('',#438,23.2495021745601);
#414=CIRCLE('',#439,24.2654492971237);
#415=CIRCLE('',#440,15.36843985478);
#416=CIRCLE('',#442,14.6440607941304);
#417=CIRCLE('',#445,19.5);
#418=CIRCLE('',#447,21.);
#419=CIRCLE('',#449,21.);
#420=CIRCLE('',#451,20.8);
#421=CIRCLE('',#453,20.8);
#422=CIRCLE('',#455,23.9870966482741);
#423=CIRCLE('',#457,24.4120428680439);
#424=CIRCLE('',#459,24.412046275184);
#425=CIRCLE('',#462,25.0449999846377);
#426=CIRCLE('',#463,25.4306684945143);
#427=CIRCLE('',#464,23.8216443262111);
#428=CIRCLE('',#465,1.2);
#429=CIRCLE('',#466,13.8166325283227);
#430=CIRCLE('',#467,12.7440091830514);
#431=CIRCLE('',#468,1.2);
#432=CIRCLE('',#469,13.3177071248227);
#433=CIRCLE('',#470,14.4865731444189);
#434=CIRCLE('',#471,1.2);
#435=CIRCLE('',#472,24.3094123395224);
#436=CIRCLE('',#473,1.2);
#437=AXIS2_PLACEMENT_3D('',#561,#474,#475);
#438=AXIS2_PLACEMENT_3D('',#562,#476,#477);
#439=AXIS2_PLACEMENT_3D('',#564,#478,#479);
#440=AXIS2_PLACEMENT_3D('',#575,#481,#482);
#441=AXIS2_PLACEMENT_3D('',#577,#483,#484);
#442=AXIS2_PLACEMENT_3D('',#578,#485,#486);
#443=AXIS2_PLACEMENT_3D('',#580,#487,#488);
#444=AXIS2_PLACEMENT_3D('',#582,#489,#490);
#445=AXIS2_PLACEMENT_3D('',#583,#491,#492);
#446=AXIS2_PLACEMENT_3D('',#585,#493,#494);
#447=AXIS2_PLACEMENT_3D('',#586,#495,#496);
#448=AXIS2_PLACEMENT_3D('',#588,#497,#498);
#449=AXIS2_PLACEMENT_3D('',#589,#499,#500);
#450=AXIS2_PLACEMENT_3D('',#591,#501,#502);
#451=AXIS2_PLACEMENT_3D('',#592,#503,#504);
#452=AXIS2_PLACEMENT_3D('',#594,#505,#506);
#453=AXIS2_PLACEMENT_3D('',#595,#507,#508);
#454=AXIS2_PLACEMENT_3D('',#597,#509,#510);
#455=AXIS2_PLACEMENT_3D('',#598,#511,#512);
#456=AXIS2_PLACEMENT_3D('',#600,#513,#514);
#457=AXIS2_PLACEMENT_3D('',#601,#515,#516);
#458=AXIS2_PLACEMENT_3D('',#603,#517,#518);
#459=AXIS2_PLACEMENT_3D('',#604,#519,#520);
#460=AXIS2_PLACEMENT_3D('',#606,#521,#522);
#461=AXIS2_PLACEMENT_3D('',#607,#523,#524);
#462=AXIS2_PLACEMENT_3D('',#608,#525,#526);
#463=AXIS2_PLACEMENT_3D('',#610,#527,#528);
#464=AXIS2_PLACEMENT_3D('',#614,#531,#532);
#465=AXIS2_PLACEMENT_3D('',#616,#533,#534);
#466=AXIS2_PLACEMENT_3D('',#618,#536,#537);
#467=AXIS2_PLACEMENT_3D('',#622,#540,#541);
#468=AXIS2_PLACEMENT_3D('',#624,#542,#543);
#469=AXIS2_PLACEMENT_3D('',#626,#545,#546);
#470=AXIS2_PLACEMENT_3D('',#630,#549,#550);
#471=AXIS2_PLACEMENT_3D('',#632,#551,#552);
#472=AXIS2_PLACEMENT_3D('',#634,#554,#555);
#473=AXIS2_PLACEMENT_3D('',#638,#558,#559);
#474=DIRECTION('',(0.,0.,1.));
#475=DIRECTION('',(1.,0.,0.));
#476=DIRECTION('',(-1.,0.,0.));
#477=DIRECTION('',(0.,0.,1.));
#478=DIRECTION('',(-1.,0.,0.));
#479=DIRECTION('',(0.,0.,1.));
#480=DIRECTION('',(-1.,0.,0.));
#481=DIRECTION('',(-1.,0.,0.));
#482=DIRECTION('',(0.,0.,1.));
#483=DIRECTION('',(-1.,0.,0.));
#484=DIRECTION('',(-9.4269638142257E-19,0.,1.));
#485=DIRECTION('',(-1.,0.,0.));
#486=DIRECTION('',(0.,0.,1.));
#487=DIRECTION('',(-1.,0.,0.));
#488=DIRECTION('',(0.,0.,1.));
#489=DIRECTION('',(-1.,0.,0.));
#490=DIRECTION('',(-9.26002002791714E-18,0.,1.));
#491=DIRECTION('',(-1.,0.,0.));
#492=DIRECTION('',(0.,0.,1.));
#493=DIRECTION('',(-1.,0.,0.));
#494=DIRECTION('',(0.,0.,1.));
#495=DIRECTION('',(-1.,0.,0.));
#496=DIRECTION('',(0.,0.,1.));
#497=DIRECTION('',(-1.,0.,0.));
#498=DIRECTION('',(0.,0.,1.));
#499=DIRECTION('',(-1.,0.,0.));
#500=DIRECTION('',(0.,0.,1.));
#501=DIRECTION('',(-1.,0.,0.));
#502=DIRECTION('',(0.,0.,1.));
#503=DIRECTION('',(-1.,0.,0.));
#504=DIRECTION('',(0.,0.,1.));
#505=DIRECTION('',(1.,0.,0.));
#506=DIRECTION('',(4.63868356794092E-17,0.,-1.));
#507=DIRECTION('',(-1.,0.,0.));
#508=DIRECTION('',(0.,0.,1.));
#509=DIRECTION('',(-1.,0.,0.));
#510=DIRECTION('',(0.,0.,1.));
#511=DIRECTION('',(-1.,0.,0.));
#512=DIRECTION('',(0.,0.,1.));
#513=DIRECTION('',(-1.,0.,0.));
#514=DIRECTION('',(0.,0.,1.));
#515=DIRECTION('',(-1.,0.,0.));
#516=DIRECTION('',(0.,0.,1.));
#517=DIRECTION('',(-1.,0.,0.));
#518=DIRECTION('',(0.,0.,1.));
#519=DIRECTION('',(-1.,0.,0.));
#520=DIRECTION('',(0.,0.,1.));
#521=DIRECTION('',(-1.,0.,0.));
#522=DIRECTION('',(0.,0.,1.));
#523=DIRECTION('',(-1.,0.,0.));
#524=DIRECTION('',(0.,0.,1.));
#525=DIRECTION('',(-1.,0.,0.));
#526=DIRECTION('',(0.,0.,1.));
#527=DIRECTION('',(-1.,0.,0.));
#528=DIRECTION('',(0.,0.,1.));
#529=DIRECTION('',(-0.994370424866534,0.035335677816711,-0.099894184134927));
#530=DIRECTION('',(-1.,0.,0.));
#531=DIRECTION('',(-1.,0.,0.));
#532=DIRECTION('',(0.,0.,1.));
#533=DIRECTION('',(0.104528463267654,0.172696914780562,-0.979412873099071));
#534=DIRECTION('',(0.994370424866534,-0.0353356778167122,0.099894184134927));
#535=DIRECTION('',(-1.,0.,0.));
#536=DIRECTION('',(-1.,0.,0.));
#537=DIRECTION('',(0.,0.,1.));
#538=DIRECTION('',(0.0173568003287445,0.984340980300276,0.175418288624189));
#539=DIRECTION('',(-1.,0.,0.));
#540=DIRECTION('',(-1.,0.,0.));
#541=DIRECTION('',(0.,0.,1.));
#542=DIRECTION('',(0.104528463267654,0.172696914780562,-0.979412873099071));
#543=DIRECTION('',(0.994370424866534,-0.0353356778167122,0.099894184134927));
#544=DIRECTION('',(-1.,0.,0.));
#545=DIRECTION('',(-1.,0.,0.));
#546=DIRECTION('',(0.,0.,1.));
#547=DIRECTION('',(0.994370424866534,-0.0353356778167108,0.099894184134927));
#548=DIRECTION('',(-1.,0.,0.));
#549=DIRECTION('',(-1.,0.,0.));
#550=DIRECTION('',(0.,0.,1.));
#551=DIRECTION('',(0.104528463267654,0.172696914780562,-0.979412873099071));
#552=DIRECTION('',(0.994370424866534,-0.0353356778167122,0.099894184134927));
#553=DIRECTION('',(-1.,0.,0.));
#554=DIRECTION('',(-1.,0.,0.));
#555=DIRECTION('',(0.,0.,1.));
#556=DIRECTION('',(-0.0173568003287448,-0.984340980300276,-0.175418288624189));
#557=DIRECTION('',(-1.,0.,0.));
#558=DIRECTION('',(0.104528463267654,0.172696914780562,-0.979412873099071));
#559=DIRECTION('',(0.994370424866534,-0.0353356778167122,0.099894184134927));
#560=DIRECTION('',(-1.,0.,0.));
#561=CARTESIAN_POINT('',(0.,0.,0.));
#562=CARTESIAN_POINT('',(0.919603175560889,0.,0.));
#563=CARTESIAN_POINT('',(0.919603175560889,0.,23.2495021745601));
#564=CARTESIAN_POINT('',(1.89661685635229,0.,0.));
#565=CARTESIAN_POINT('',(1.89661685635229,0.,24.2654492971237));
#566=CARTESIAN_POINT('',(1.89661680009866,24.26545270449,0.));
#567=CARTESIAN_POINT('',(1.63334773901308,24.261108459897,0.));
#568=CARTESIAN_POINT('',(1.37734033240219,24.1476411707479,0.));
#569=CARTESIAN_POINT('',(1.10743540580058,23.866049618146,0.));
#570=CARTESIAN_POINT('',(1.03584005260645,23.7540389955926,0.));
#571=CARTESIAN_POINT('',(0.940725607075815,23.5106887664038,0.));
#572=CARTESIAN_POINT('',(0.917318268073913,23.3811145608487,0.));
#573=CARTESIAN_POINT('',(0.91960317556089,23.2495021745601,0.));
#574=CARTESIAN_POINT('',(0.,0.,0.));
#575=CARTESIAN_POINT('',(1.05643397786996,0.,0.));
#576=CARTESIAN_POINT('',(1.05643397786996,0.,15.36843985478));
#577=CARTESIAN_POINT('',(0.919603175560889,0.,0.));
#578=CARTESIAN_POINT('',(1.15820444396712,0.,0.));
#579=CARTESIAN_POINT('',(1.15820444396712,0.,14.6440607941304));
#580=CARTESIAN_POINT('',(4.05598192283432,0.,0.));
#581=CARTESIAN_POINT('',(5.08206870766659,0.,0.));
#582=CARTESIAN_POINT('',(1.15820444396712,0.,0.));
#583=CARTESIAN_POINT('',(40.,0.,0.));
#584=CARTESIAN_POINT('',(40.,0.,19.5));
#585=CARTESIAN_POINT('',(40.,12.,0.));
#586=CARTESIAN_POINT('',(38.5,0.,0.));
#587=CARTESIAN_POINT('',(38.5,0.,21.));
#588=CARTESIAN_POINT('',(38.5,0.,0.));
#589=CARTESIAN_POINT('',(32.,0.,0.));
#590=CARTESIAN_POINT('',(32.,0.,21.));
#591=CARTESIAN_POINT('',(0.,0.,0.));
#592=CARTESIAN_POINT('',(31.6535898384862,0.,0.));
#593=CARTESIAN_POINT('',(31.6535898384862,0.,20.8));
#594=CARTESIAN_POINT('',(32.,0.,0.));
#595=CARTESIAN_POINT('',(31.,0.,0.));
#596=CARTESIAN_POINT('',(31.,0.,20.8));
#597=CARTESIAN_POINT('',(0.,0.,0.));
#598=CARTESIAN_POINT('',(17.5438410439307,0.,0.));
#599=CARTESIAN_POINT('',(17.5438410439307,0.,23.9870966482741));
#600=CARTESIAN_POINT('',(31.,0.,0.));
#601=CARTESIAN_POINT('',(15.7496865164548,0.,0.));
#602=CARTESIAN_POINT('',(15.7496865164548,0.,24.4120428680439));
#603=CARTESIAN_POINT('',(15.7496865164548,0.,0.));
#604=CARTESIAN_POINT('',(9.89979691942122,0.,0.));
#605=CARTESIAN_POINT('',(9.89979691942122,0.,24.412046275184));
#606=CARTESIAN_POINT('',(0.,0.,0.));
#607=CARTESIAN_POINT('',(-34.6576724652898,0.,0.));
#608=CARTESIAN_POINT('',(1.20369735616661,0.,0.));
#609=CARTESIAN_POINT('',(1.20369735616661,0.,25.0449999846377));
#610=CARTESIAN_POINT('',(11.4457127322919,0.,0.));
#611=CARTESIAN_POINT('',(11.4457127322919,0.,25.4306684945143));
#612=CARTESIAN_POINT('',(11.4457127322919,-25.4089478634141,1.05084183024175));
#613=CARTESIAN_POINT('',(1.15820444396712,0.,0.));
#614=CARTESIAN_POINT('',(0.0312810067212585,0.,0.));
#615=CARTESIAN_POINT('',(0.0312810067212585,0.,23.8216443262111));
#616=CARTESIAN_POINT('',(1.2245255165611,-23.8637812055417,0.232433680001034));
#617=CARTESIAN_POINT('',(1.15820444396712,0.,0.));
#618=CARTESIAN_POINT('',(0.210056050107329,0.,0.));
#619=CARTESIAN_POINT('',(0.210056050107329,0.,13.8166325283227));
#620=CARTESIAN_POINT('',(0.0312810067212601,-23.8213783921616,0.112560659039118));
#621=CARTESIAN_POINT('',(1.15820444396712,0.,0.));
#622=CARTESIAN_POINT('',(1.42412872034165,0.,0.));
#623=CARTESIAN_POINT('',(1.42412872034165,0.,12.7440091830514));
#624=CARTESIAN_POINT('',(1.40330055994715,-13.7250691084488,2.03924205283018));
#625=CARTESIAN_POINT('',(1.15820444396712,0.,0.));
#626=CARTESIAN_POINT('',(11.6661440964669,0.,0.));
#627=CARTESIAN_POINT('',(11.6661440964669,0.,13.3177071248227));
#628=CARTESIAN_POINT('',(1.42412872034166,-12.5438599320885,2.24974399917921));
#629=CARTESIAN_POINT('',(1.15820444396712,0.,0.));
#630=CARTESIAN_POINT('',(12.8385604459123,0.,0.));
#631=CARTESIAN_POINT('',(12.8385604459123,0.,14.4865731444189));
#632=CARTESIAN_POINT('',(11.6453159360724,-14.089026589961,3.06815214941992));
#633=CARTESIAN_POINT('',(1.15820444396712,0.,0.));
#634=CARTESIAN_POINT('',(12.6597854025262,0.,0.));
#635=CARTESIAN_POINT('',(12.6597854025262,0.,24.3094123395224));
#636=CARTESIAN_POINT('',(12.8385604459123,-14.131429403341,3.18802517038184));
#637=CARTESIAN_POINT('',(1.15820444396712,0.,0.));
#638=CARTESIAN_POINT('',(11.4665408926864,-24.2277386870538,1.26134377659078));
#639=CARTESIAN_POINT('',(1.15820444396712,0.,0.));
#640=(
GEOMETRIC_REPRESENTATION_CONTEXT(3)
GLOBAL_UNCERTAINTY_ASSIGNED_CONTEXT((#641))
GLOBAL_UNIT_ASSIGNED_CONTEXT((#647,#643,#642))
REPRESENTATION_CONTEXT('AFM88C-SN1204-D050-A22-Z05',
'TOP_LEVEL_ASSEMBLY_PART')
);
#641=UNCERTAINTY_MEASURE_WITH_UNIT(LENGTH_MEASURE(2.E-5),#647,
'DISTANCE_ACCURACY_VALUE','Maximum Tolerance applied to model');
#642=(
NAMED_UNIT(*)
SI_UNIT($,.STERADIAN.)
SOLID_ANGLE_UNIT()
);
#643=(
CONVERSION_BASED_UNIT('DEGREE',#645)
NAMED_UNIT(#644)
PLANE_ANGLE_UNIT()
);
#644=DIMENSIONAL_EXPONENTS(0.,0.,0.,0.,0.,0.,0.);
#645=PLANE_ANGLE_MEASURE_WITH_UNIT(PLANE_ANGLE_MEASURE(0.0174532925),#646);
#646=(
NAMED_UNIT(*)
PLANE_ANGLE_UNIT()
SI_UNIT($,.RADIAN.)
);
#647=(
LENGTH_UNIT()
NAMED_UNIT(*)
SI_UNIT(.MILLI.,.METRE.)
);
ENDSEC;
END-ISO-10303-21;
