ISO-10303-21;
HEADER;
/* Generated by software containing ST-Developer
 * from STEP Tools, Inc. (www.steptools.com) 
 */
/* OPTION: using custom schema-name function */

FILE_DESCRIPTION(
/* description */ (''),
/* implementation_level */ '2;1');

FILE_NAME(
/* name */ 'AFM88C-SN1204-D100-A32-Z08.stp',
/* time_stamp */ '2023-10-30T16:30:49+03:00',
/* author */ (''),
/* organization */ (''),
/* preprocessor_version */ 'ST-DEVELOPER v19.4',
/* originating_system */ 'SIEMENS PLM Software NX2306.3001',
/* authorisation */ '');

FILE_SCHEMA (('AP203_CONFIGURATION_CONTROLLED_3D_DESIGN_OF_MECHANICAL_PARTS_AND_ASSEMBLIES_MIM_LF { 1 0 10303 403 2 1 2}'));
ENDSEC;

DATA;
#10=SHAPE_REPRESENTATION_RELATIONSHIP('None',
'relationship between model1-None and model1-None',#76,#11);
#11=ADVANCED_BREP_SHAPE_REPRESENTATION('model1-None',(#194,#195),#656);
#12=APPLIED_APPROVAL_ASSIGNMENT(#24,(#66));
#13=APPLIED_APPROVAL_ASSIGNMENT(#25,(#68));
#14=APPLIED_APPROVAL_ASSIGNMENT(#26,(#38));
#15=APPROVAL_PERSON_ORGANIZATION(#30,#24,#18);
#16=APPROVAL_PERSON_ORGANIZATION(#31,#25,#19);
#17=APPROVAL_PERSON_ORGANIZATION(#32,#26,#20);
#18=APPROVAL_ROLE('approver');
#19=APPROVAL_ROLE('approver');
#20=APPROVAL_ROLE('approver');
#21=APPROVAL_DATE_TIME(#46,#24);
#22=APPROVAL_DATE_TIME(#47,#25);
#23=APPROVAL_DATE_TIME(#48,#26);
#24=APPROVAL(#27,' ');
#25=APPROVAL(#28,' ');
#26=APPROVAL(#29,' ');
#27=APPROVAL_STATUS('not_yet_approved');
#28=APPROVAL_STATUS('not_yet_approved');
#29=APPROVAL_STATUS('not_yet_approved');
#30=PERSON_AND_ORGANIZATION(#36,#33);
#31=PERSON_AND_ORGANIZATION(#36,#34);
#32=PERSON_AND_ORGANIZATION(#36,#35);
#33=ORGANIZATION(' ',' ',' ');
#34=ORGANIZATION(' ',' ',' ');
#35=ORGANIZATION(' ',' ',' ');
#36=PERSON(' ',' ',' ',(' '),$,$);
#37=APPLIED_SECURITY_CLASSIFICATION_ASSIGNMENT(#38,(#68));
#38=SECURITY_CLASSIFICATION(' ',' ',#39);
#39=SECURITY_CLASSIFICATION_LEVEL('confidential');
#40=APPLIED_DATE_AND_TIME_ASSIGNMENT(#44,#42,(#66));
#41=APPLIED_DATE_AND_TIME_ASSIGNMENT(#45,#43,(#38));
#42=DATE_TIME_ROLE('creation_date');
#43=DATE_TIME_ROLE('classification_date');
#44=DATE_AND_TIME(#59,#49);
#45=DATE_AND_TIME(#60,#50);
#46=DATE_AND_TIME(#61,#51);
#47=DATE_AND_TIME(#62,#52);
#48=DATE_AND_TIME(#63,#53);
#49=LOCAL_TIME(0,0,0.,#54);
#50=LOCAL_TIME(0,0,0.,#55);
#51=LOCAL_TIME(0,0,0.,#56);
#52=LOCAL_TIME(0,0,0.,#57);
#53=LOCAL_TIME(0,0,0.,#58);
#54=COORDINATED_UNIVERSAL_TIME_OFFSET(0,0,.BEHIND.);
#55=COORDINATED_UNIVERSAL_TIME_OFFSET(0,0,.BEHIND.);
#56=COORDINATED_UNIVERSAL_TIME_OFFSET(0,0,.BEHIND.);
#57=COORDINATED_UNIVERSAL_TIME_OFFSET(0,0,.BEHIND.);
#58=COORDINATED_UNIVERSAL_TIME_OFFSET(0,0,.BEHIND.);
#59=CALENDAR_DATE(0,1,1);
#60=CALENDAR_DATE(0,1,1);
#61=CALENDAR_DATE(0,1,1);
#62=CALENDAR_DATE(0,1,1);
#63=CALENDAR_DATE(0,1,1);
#64=SHAPE_DEFINITION_REPRESENTATION(#65,#76);
#65=PRODUCT_DEFINITION_SHAPE('','',#66);
#66=PRODUCT_DEFINITION(' ','',#68,#67);
#67=PRODUCT_DEFINITION_CONTEXT('part definition',#75,'design');
#68=PRODUCT_DEFINITION_FORMATION_WITH_SPECIFIED_SOURCE(' ',' ',#70,
 .NOT_KNOWN.);
#69=PRODUCT_RELATED_PRODUCT_CATEGORY('detail','',(#70));
#70=PRODUCT('model1','model1',' ',(#73));
#71=PRODUCT_CATEGORY('part',' ');
#72=PRODUCT_CATEGORY(' ','');
#73=PRODUCT_CONTEXT(' ',#75,'mechanical');
#74=APPLICATION_PROTOCOL_DEFINITION('international standard',
'config_control_design',2010,#75);
#75=APPLICATION_CONTEXT(
'configuration controlled 3D designs of mechanical parts and assemblie
s');
#76=SHAPE_REPRESENTATION('model1-None',(#439),#656);
#77=DRAUGHTING_PRE_DEFINED_COLOUR('yellow');
#78=LINE('',#632,#82);
#79=LINE('',#640,#83);
#80=LINE('',#648,#84);
#81=LINE('',#654,#85);
#82=VECTOR('',#534,10.3);
#83=VECTOR('',#543,10.3);
#84=VECTOR('',#552,10.2999999999999);
#85=VECTOR('',#559,10.3);
#86=OVER_RIDING_STYLED_ITEM('',(#103),#228,#100);
#87=OVER_RIDING_STYLED_ITEM('',(#104),#229,#100);
#88=OVER_RIDING_STYLED_ITEM('',(#105),#230,#100);
#89=OVER_RIDING_STYLED_ITEM('',(#106),#231,#100);
#90=OVER_RIDING_STYLED_ITEM('',(#107),#232,#100);
#91=OVER_RIDING_STYLED_ITEM('',(#108),#233,#100);
#92=OVER_RIDING_STYLED_ITEM('',(#109),#234,#100);
#93=OVER_RIDING_STYLED_ITEM('',(#110),#235,#100);
#94=OVER_RIDING_STYLED_ITEM('',(#111),#236,#100);
#95=OVER_RIDING_STYLED_ITEM('',(#112),#237,#100);
#96=OVER_RIDING_STYLED_ITEM('',(#113),#238,#100);
#97=OVER_RIDING_STYLED_ITEM('',(#114),#239,#100);
#98=OVER_RIDING_STYLED_ITEM('',(#115),#240,#100);
#99=PRESENTATION_LAYER_ASSIGNMENT('1','Layer 1',(#194,#195));
#100=STYLED_ITEM('',(#102),#194);
#101=STYLED_ITEM('',(#116),#195);
#102=PRESENTATION_STYLE_ASSIGNMENT((#117));
#103=PRESENTATION_STYLE_ASSIGNMENT((#118));
#104=PRESENTATION_STYLE_ASSIGNMENT((#119));
#105=PRESENTATION_STYLE_ASSIGNMENT((#120));
#106=PRESENTATION_STYLE_ASSIGNMENT((#121));
#107=PRESENTATION_STYLE_ASSIGNMENT((#122));
#108=PRESENTATION_STYLE_ASSIGNMENT((#123));
#109=PRESENTATION_STYLE_ASSIGNMENT((#124));
#110=PRESENTATION_STYLE_ASSIGNMENT((#125));
#111=PRESENTATION_STYLE_ASSIGNMENT((#126));
#112=PRESENTATION_STYLE_ASSIGNMENT((#127));
#113=PRESENTATION_STYLE_ASSIGNMENT((#128));
#114=PRESENTATION_STYLE_ASSIGNMENT((#129));
#115=PRESENTATION_STYLE_ASSIGNMENT((#130));
#116=PRESENTATION_STYLE_ASSIGNMENT((#131));
#117=SURFACE_STYLE_USAGE(.BOTH.,#132);
#118=SURFACE_STYLE_USAGE(.BOTH.,#133);
#119=SURFACE_STYLE_USAGE(.BOTH.,#134);
#120=SURFACE_STYLE_USAGE(.BOTH.,#135);
#121=SURFACE_STYLE_USAGE(.BOTH.,#136);
#122=SURFACE_STYLE_USAGE(.BOTH.,#137);
#123=SURFACE_STYLE_USAGE(.BOTH.,#138);
#124=SURFACE_STYLE_USAGE(.BOTH.,#139);
#125=SURFACE_STYLE_USAGE(.BOTH.,#140);
#126=SURFACE_STYLE_USAGE(.BOTH.,#141);
#127=SURFACE_STYLE_USAGE(.BOTH.,#142);
#128=SURFACE_STYLE_USAGE(.BOTH.,#143);
#129=SURFACE_STYLE_USAGE(.BOTH.,#144);
#130=SURFACE_STYLE_USAGE(.BOTH.,#145);
#131=SURFACE_STYLE_USAGE(.BOTH.,#146);
#132=SURFACE_SIDE_STYLE('',(#147));
#133=SURFACE_SIDE_STYLE('',(#148));
#134=SURFACE_SIDE_STYLE('',(#149));
#135=SURFACE_SIDE_STYLE('',(#150));
#136=SURFACE_SIDE_STYLE('',(#151));
#137=SURFACE_SIDE_STYLE('',(#152));
#138=SURFACE_SIDE_STYLE('',(#153));
#139=SURFACE_SIDE_STYLE('',(#154));
#140=SURFACE_SIDE_STYLE('',(#155));
#141=SURFACE_SIDE_STYLE('',(#156));
#142=SURFACE_SIDE_STYLE('',(#157));
#143=SURFACE_SIDE_STYLE('',(#158));
#144=SURFACE_SIDE_STYLE('',(#159));
#145=SURFACE_SIDE_STYLE('',(#160));
#146=SURFACE_SIDE_STYLE('',(#161));
#147=SURFACE_STYLE_FILL_AREA(#162);
#148=SURFACE_STYLE_FILL_AREA(#163);
#149=SURFACE_STYLE_FILL_AREA(#164);
#150=SURFACE_STYLE_FILL_AREA(#165);
#151=SURFACE_STYLE_FILL_AREA(#166);
#152=SURFACE_STYLE_FILL_AREA(#167);
#153=SURFACE_STYLE_FILL_AREA(#168);
#154=SURFACE_STYLE_FILL_AREA(#169);
#155=SURFACE_STYLE_FILL_AREA(#170);
#156=SURFACE_STYLE_FILL_AREA(#171);
#157=SURFACE_STYLE_FILL_AREA(#172);
#158=SURFACE_STYLE_FILL_AREA(#173);
#159=SURFACE_STYLE_FILL_AREA(#174);
#160=SURFACE_STYLE_FILL_AREA(#175);
#161=SURFACE_STYLE_FILL_AREA(#176);
#162=FILL_AREA_STYLE('',(#177));
#163=FILL_AREA_STYLE('',(#178));
#164=FILL_AREA_STYLE('',(#179));
#165=FILL_AREA_STYLE('',(#180));
#166=FILL_AREA_STYLE('',(#181));
#167=FILL_AREA_STYLE('',(#182));
#168=FILL_AREA_STYLE('',(#183));
#169=FILL_AREA_STYLE('',(#184));
#170=FILL_AREA_STYLE('',(#185));
#171=FILL_AREA_STYLE('',(#186));
#172=FILL_AREA_STYLE('',(#187));
#173=FILL_AREA_STYLE('',(#188));
#174=FILL_AREA_STYLE('',(#189));
#175=FILL_AREA_STYLE('',(#190));
#176=FILL_AREA_STYLE('',(#191));
#177=FILL_AREA_STYLE_COLOUR('',#192);
#178=FILL_AREA_STYLE_COLOUR('',#193);
#179=FILL_AREA_STYLE_COLOUR('',#193);
#180=FILL_AREA_STYLE_COLOUR('',#193);
#181=FILL_AREA_STYLE_COLOUR('',#193);
#182=FILL_AREA_STYLE_COLOUR('',#193);
#183=FILL_AREA_STYLE_COLOUR('',#193);
#184=FILL_AREA_STYLE_COLOUR('',#193);
#185=FILL_AREA_STYLE_COLOUR('',#193);
#186=FILL_AREA_STYLE_COLOUR('',#193);
#187=FILL_AREA_STYLE_COLOUR('',#193);
#188=FILL_AREA_STYLE_COLOUR('',#193);
#189=FILL_AREA_STYLE_COLOUR('',#193);
#190=FILL_AREA_STYLE_COLOUR('',#193);
#191=FILL_AREA_STYLE_COLOUR('',#77);
#192=COLOUR_RGB('Medium Steel',0.611764705882353,0.658823529411765,0.670588235294118);
#193=COLOUR_RGB('silver gray',0.6,0.6,0.6);
#194=MANIFOLD_SOLID_BREP('',#196);
#195=MANIFOLD_SOLID_BREP('',#197);
#196=CLOSED_SHELL('',(#228,#229,#230,#231,#232,#233,#234,#235,#236,#237,
#238,#239,#240));
#197=CLOSED_SHELL('',(#241,#242,#243,#244,#245,#246,#247,#248));
#198=CYLINDRICAL_SURFACE('',#455,32.5);
#199=CYLINDRICAL_SURFACE('',#459,32.3);
#200=PLANE('',#451);
#201=FACE_OUTER_BOUND('',#305,.T.);
#202=CONICAL_SURFACE('',#449,39.6410533591089,75.0000000000002);
#203=CONICAL_SURFACE('',#457,32.5,29.9999999999995);
#204=CONICAL_SURFACE('',#462,35.2289321881345,44.9999999999997);
#205=VERTEX_LOOP('',#380);
#206=SURFACE_OF_REVOLUTION('',#226,#216);
#207=SURFACE_OF_REVOLUTION('',#227,#217);
#208=SURFACE_OF_REVOLUTION('',#429,#218);
#209=SURFACE_OF_REVOLUTION('',#78,#219);
#210=SURFACE_OF_REVOLUTION('',#432,#220);
#211=SURFACE_OF_REVOLUTION('',#79,#221);
#212=SURFACE_OF_REVOLUTION('',#435,#222);
#213=SURFACE_OF_REVOLUTION('',#80,#223);
#214=SURFACE_OF_REVOLUTION('',#438,#224);
#215=SURFACE_OF_REVOLUTION('',#81,#225);
#216=AXIS1_PLACEMENT('',#580,#489);
#217=AXIS1_PLACEMENT('',#599,#492);
#218=AXIS1_PLACEMENT('',#629,#531);
#219=AXIS1_PLACEMENT('',#633,#535);
#220=AXIS1_PLACEMENT('',#637,#540);
#221=AXIS1_PLACEMENT('',#641,#544);
#222=AXIS1_PLACEMENT('',#645,#549);
#223=AXIS1_PLACEMENT('',#649,#553);
#224=AXIS1_PLACEMENT('',#653,#558);
#225=AXIS1_PLACEMENT('',#655,#560);
#226=B_SPLINE_CURVE_WITH_KNOTS('',3,(#572,#573,#574,#575,#576,#577,#578,
#579),.UNSPECIFIED.,.F.,.F.,(4,2,2,4),(0.,0.5,0.75,1.),.UNSPECIFIED.);
#227=B_SPLINE_CURVE_WITH_KNOTS('',3,(#583,#584,#585,#586,#587,#588,#589,
#590,#591,#592,#593,#594,#595,#596,#597,#598),.UNSPECIFIED.,.F.,.F.,(4,
2,2,2,2,2,2,4),(0.,0.250000000199832,0.375000000166265,0.500000000132775,
0.625000000099379,0.750000000066099,0.875000000032961,1.),.UNSPECIFIED.);
#228=ADVANCED_FACE('',(#254,#255),#249,.T.);
#229=ADVANCED_FACE('',(#256,#257),#250,.F.);
#230=ADVANCED_FACE('',(#258,#259),#206,.T.);
#231=ADVANCED_FACE('',(#260,#261),#207,.T.);
#232=ADVANCED_FACE('',(#262,#263),#251,.T.);
#233=ADVANCED_FACE('',(#264,#265),#202,.F.);
#234=ADVANCED_FACE('',(#201),#200,.F.);
#235=ADVANCED_FACE('',(#266,#267),#252,.T.);
#236=ADVANCED_FACE('',(#268,#269),#198,.T.);
#237=ADVANCED_FACE('',(#270,#271),#203,.T.);
#238=ADVANCED_FACE('',(#272,#273),#199,.T.);
#239=ADVANCED_FACE('',(#274,#275),#253,.F.);
#240=ADVANCED_FACE('',(#276,#277),#204,.T.);
#241=ADVANCED_FACE('',(#278,#279),#208,.T.);
#242=ADVANCED_FACE('',(#280,#281),#209,.T.);
#243=ADVANCED_FACE('',(#282,#283),#210,.T.);
#244=ADVANCED_FACE('',(#284,#285),#211,.T.);
#245=ADVANCED_FACE('',(#286,#287),#212,.T.);
#246=ADVANCED_FACE('',(#288,#289),#213,.T.);
#247=ADVANCED_FACE('',(#290,#291),#214,.T.);
#248=ADVANCED_FACE('',(#292,#293),#215,.T.);
#249=TOROIDAL_SURFACE('',#442,45.4194755412991,3.99999999999892);
#250=TOROIDAL_SURFACE('',#444,4689.79487110381,4642.34052493988);
#251=TOROIDAL_SURFACE('',#448,40.4175104944165,3.);
#252=TOROIDAL_SURFACE('',#453,30.5,2.);
#253=TOROIDAL_SURFACE('',#461,42.3,10.);
#254=FACE_BOUND('',#294,.T.);
#255=FACE_BOUND('',#295,.T.);
#256=FACE_BOUND('',#296,.T.);
#257=FACE_BOUND('',#297,.T.);
#258=FACE_BOUND('',#298,.T.);
#259=FACE_BOUND('',#299,.T.);
#260=FACE_BOUND('',#300,.T.);
#261=FACE_BOUND('',#301,.T.);
#262=FACE_BOUND('',#302,.T.);
#263=FACE_BOUND('',#303,.T.);
#264=FACE_BOUND('',#304,.T.);
#265=FACE_BOUND('',#205,.T.);
#266=FACE_BOUND('',#306,.T.);
#267=FACE_BOUND('',#307,.T.);
#268=FACE_BOUND('',#308,.T.);
#269=FACE_BOUND('',#309,.T.);
#270=FACE_BOUND('',#310,.T.);
#271=FACE_BOUND('',#311,.T.);
#272=FACE_BOUND('',#312,.T.);
#273=FACE_BOUND('',#313,.T.);
#274=FACE_BOUND('',#314,.T.);
#275=FACE_BOUND('',#315,.T.);
#276=FACE_BOUND('',#316,.T.);
#277=FACE_BOUND('',#317,.T.);
#278=FACE_BOUND('',#318,.T.);
#279=FACE_BOUND('',#319,.T.);
#280=FACE_BOUND('',#320,.T.);
#281=FACE_BOUND('',#321,.T.);
#282=FACE_BOUND('',#322,.T.);
#283=FACE_BOUND('',#323,.T.);
#284=FACE_BOUND('',#324,.T.);
#285=FACE_BOUND('',#325,.T.);
#286=FACE_BOUND('',#326,.T.);
#287=FACE_BOUND('',#327,.T.);
#288=FACE_BOUND('',#328,.T.);
#289=FACE_BOUND('',#329,.T.);
#290=FACE_BOUND('',#330,.T.);
#291=FACE_BOUND('',#331,.T.);
#292=FACE_BOUND('',#332,.T.);
#293=FACE_BOUND('',#333,.T.);
#294=EDGE_LOOP('',(#334));
#295=EDGE_LOOP('',(#335));
#296=EDGE_LOOP('',(#336));
#297=EDGE_LOOP('',(#337));
#298=EDGE_LOOP('',(#338));
#299=EDGE_LOOP('',(#339));
#300=EDGE_LOOP('',(#340));
#301=EDGE_LOOP('',(#341));
#302=EDGE_LOOP('',(#342));
#303=EDGE_LOOP('',(#343));
#304=EDGE_LOOP('',(#344));
#305=EDGE_LOOP('',(#345));
#306=EDGE_LOOP('',(#346));
#307=EDGE_LOOP('',(#347));
#308=EDGE_LOOP('',(#348));
#309=EDGE_LOOP('',(#349));
#310=EDGE_LOOP('',(#350));
#311=EDGE_LOOP('',(#351));
#312=EDGE_LOOP('',(#352));
#313=EDGE_LOOP('',(#353));
#314=EDGE_LOOP('',(#354));
#315=EDGE_LOOP('',(#355));
#316=EDGE_LOOP('',(#356));
#317=EDGE_LOOP('',(#357));
#318=EDGE_LOOP('',(#358));
#319=EDGE_LOOP('',(#359));
#320=EDGE_LOOP('',(#360));
#321=EDGE_LOOP('',(#361));
#322=EDGE_LOOP('',(#362));
#323=EDGE_LOOP('',(#363));
#324=EDGE_LOOP('',(#364));
#325=EDGE_LOOP('',(#365));
#326=EDGE_LOOP('',(#366));
#327=EDGE_LOOP('',(#367));
#328=EDGE_LOOP('',(#368));
#329=EDGE_LOOP('',(#369));
#330=EDGE_LOOP('',(#370));
#331=EDGE_LOOP('',(#371));
#332=EDGE_LOOP('',(#372));
#333=EDGE_LOOP('',(#373));
#334=ORIENTED_EDGE('',*,*,#395,.F.);
#335=ORIENTED_EDGE('',*,*,#396,.T.);
#336=ORIENTED_EDGE('',*,*,#397,.F.);
#337=ORIENTED_EDGE('',*,*,#395,.T.);
#338=ORIENTED_EDGE('',*,*,#398,.F.);
#339=ORIENTED_EDGE('',*,*,#397,.T.);
#340=ORIENTED_EDGE('',*,*,#399,.F.);
#341=ORIENTED_EDGE('',*,*,#398,.T.);
#342=ORIENTED_EDGE('',*,*,#400,.F.);
#343=ORIENTED_EDGE('',*,*,#399,.T.);
#344=ORIENTED_EDGE('',*,*,#400,.T.);
#345=ORIENTED_EDGE('',*,*,#401,.F.);
#346=ORIENTED_EDGE('',*,*,#402,.F.);
#347=ORIENTED_EDGE('',*,*,#401,.T.);
#348=ORIENTED_EDGE('',*,*,#403,.F.);
#349=ORIENTED_EDGE('',*,*,#402,.T.);
#350=ORIENTED_EDGE('',*,*,#404,.F.);
#351=ORIENTED_EDGE('',*,*,#403,.T.);
#352=ORIENTED_EDGE('',*,*,#405,.F.);
#353=ORIENTED_EDGE('',*,*,#404,.T.);
#354=ORIENTED_EDGE('',*,*,#406,.F.);
#355=ORIENTED_EDGE('',*,*,#405,.T.);
#356=ORIENTED_EDGE('',*,*,#396,.F.);
#357=ORIENTED_EDGE('',*,*,#406,.T.);
#358=ORIENTED_EDGE('',*,*,#407,.F.);
#359=ORIENTED_EDGE('',*,*,#408,.T.);
#360=ORIENTED_EDGE('',*,*,#409,.F.);
#361=ORIENTED_EDGE('',*,*,#407,.T.);
#362=ORIENTED_EDGE('',*,*,#410,.F.);
#363=ORIENTED_EDGE('',*,*,#409,.T.);
#364=ORIENTED_EDGE('',*,*,#411,.F.);
#365=ORIENTED_EDGE('',*,*,#410,.T.);
#366=ORIENTED_EDGE('',*,*,#412,.F.);
#367=ORIENTED_EDGE('',*,*,#411,.T.);
#368=ORIENTED_EDGE('',*,*,#413,.F.);
#369=ORIENTED_EDGE('',*,*,#412,.T.);
#370=ORIENTED_EDGE('',*,*,#414,.F.);
#371=ORIENTED_EDGE('',*,*,#413,.T.);
#372=ORIENTED_EDGE('',*,*,#408,.F.);
#373=ORIENTED_EDGE('',*,*,#414,.T.);
#374=VERTEX_POINT('',#563);
#375=VERTEX_POINT('',#565);
#376=VERTEX_POINT('',#568);
#377=VERTEX_POINT('',#571);
#378=VERTEX_POINT('',#582);
#379=VERTEX_POINT('',#601);
#380=VERTEX_POINT('',#603);
#381=VERTEX_POINT('',#606);
#382=VERTEX_POINT('',#609);
#383=VERTEX_POINT('',#612);
#384=VERTEX_POINT('',#615);
#385=VERTEX_POINT('',#618);
#386=VERTEX_POINT('',#621);
#387=VERTEX_POINT('',#625);
#388=VERTEX_POINT('',#627);
#389=VERTEX_POINT('',#631);
#390=VERTEX_POINT('',#635);
#391=VERTEX_POINT('',#639);
#392=VERTEX_POINT('',#643);
#393=VERTEX_POINT('',#647);
#394=VERTEX_POINT('',#651);
#395=EDGE_CURVE('',#374,#374,#415,.T.);
#396=EDGE_CURVE('',#375,#375,#416,.T.);
#397=EDGE_CURVE('',#376,#376,#417,.T.);
#398=EDGE_CURVE('',#377,#377,#418,.T.);
#399=EDGE_CURVE('',#378,#378,#419,.T.);
#400=EDGE_CURVE('',#379,#379,#420,.T.);
#401=EDGE_CURVE('',#381,#381,#421,.T.);
#402=EDGE_CURVE('',#382,#382,#422,.T.);
#403=EDGE_CURVE('',#383,#383,#423,.T.);
#404=EDGE_CURVE('',#384,#384,#424,.T.);
#405=EDGE_CURVE('',#385,#385,#425,.T.);
#406=EDGE_CURVE('',#386,#386,#426,.T.);
#407=EDGE_CURVE('',#387,#387,#427,.T.);
#408=EDGE_CURVE('',#388,#388,#428,.T.);
#409=EDGE_CURVE('',#389,#389,#430,.T.);
#410=EDGE_CURVE('',#390,#390,#431,.T.);
#411=EDGE_CURVE('',#391,#391,#433,.T.);
#412=EDGE_CURVE('',#392,#392,#434,.T.);
#413=EDGE_CURVE('',#393,#393,#436,.T.);
#414=EDGE_CURVE('',#394,#394,#437,.T.);
#415=CIRCLE('',#440,49.4177837760317);
#416=CIRCLE('',#441,48.2479026660448);
#417=CIRCLE('',#443,49.0559918773576);
#418=CIRCLE('',#445,48.0336720726998);
#419=CIRCLE('',#446,40.3651710624513);
#420=CIRCLE('',#447,39.6410533591089);
#421=CIRCLE('',#450,30.5);
#422=CIRCLE('',#452,32.5);
#423=CIRCLE('',#454,32.5);
#424=CIRCLE('',#456,32.3);
#425=CIRCLE('',#458,32.3);
#426=CIRCLE('',#460,35.2289321881345);
#427=CIRCLE('',#463,48.8215129497012);
#428=CIRCLE('',#464,50.0449999875865);
#429=CIRCLE('',#465,1.2);
#430=CIRCLE('',#466,38.7302597529344);
#431=CIRCLE('',#467,37.6112101252167);
#432=CIRCLE('',#468,1.2);
#433=CIRCLE('',#469,38.0493437217734);
#434=CIRCLE('',#470,39.2610831141653);
#435=CIRCLE('',#471,1.2);
#436=CIRCLE('',#472,49.2895026989317);
#437=CIRCLE('',#473,50.4199045732389);
#438=CIRCLE('',#474,1.2);
#439=AXIS2_PLACEMENT_3D('',#561,#475,#476);
#440=AXIS2_PLACEMENT_3D('',#562,#477,#478);
#441=AXIS2_PLACEMENT_3D('',#564,#479,#480);
#442=AXIS2_PLACEMENT_3D('',#566,#481,#482);
#443=AXIS2_PLACEMENT_3D('',#567,#483,#484);
#444=AXIS2_PLACEMENT_3D('',#569,#485,#486);
#445=AXIS2_PLACEMENT_3D('',#570,#487,#488);
#446=AXIS2_PLACEMENT_3D('',#581,#490,#491);
#447=AXIS2_PLACEMENT_3D('',#600,#493,#494);
#448=AXIS2_PLACEMENT_3D('',#602,#495,#496);
#449=AXIS2_PLACEMENT_3D('',#604,#497,#498);
#450=AXIS2_PLACEMENT_3D('',#605,#499,#500);
#451=AXIS2_PLACEMENT_3D('',#607,#501,#502);
#452=AXIS2_PLACEMENT_3D('',#608,#503,#504);
#453=AXIS2_PLACEMENT_3D('',#610,#505,#506);
#454=AXIS2_PLACEMENT_3D('',#611,#507,#508);
#455=AXIS2_PLACEMENT_3D('',#613,#509,#510);
#456=AXIS2_PLACEMENT_3D('',#614,#511,#512);
#457=AXIS2_PLACEMENT_3D('',#616,#513,#514);
#458=AXIS2_PLACEMENT_3D('',#617,#515,#516);
#459=AXIS2_PLACEMENT_3D('',#619,#517,#518);
#460=AXIS2_PLACEMENT_3D('',#620,#519,#520);
#461=AXIS2_PLACEMENT_3D('',#622,#521,#522);
#462=AXIS2_PLACEMENT_3D('',#623,#523,#524);
#463=AXIS2_PLACEMENT_3D('',#624,#525,#526);
#464=AXIS2_PLACEMENT_3D('',#626,#527,#528);
#465=AXIS2_PLACEMENT_3D('',#628,#529,#530);
#466=AXIS2_PLACEMENT_3D('',#630,#532,#533);
#467=AXIS2_PLACEMENT_3D('',#634,#536,#537);
#468=AXIS2_PLACEMENT_3D('',#636,#538,#539);
#469=AXIS2_PLACEMENT_3D('',#638,#541,#542);
#470=AXIS2_PLACEMENT_3D('',#642,#545,#546);
#471=AXIS2_PLACEMENT_3D('',#644,#547,#548);
#472=AXIS2_PLACEMENT_3D('',#646,#550,#551);
#473=AXIS2_PLACEMENT_3D('',#650,#554,#555);
#474=AXIS2_PLACEMENT_3D('',#652,#556,#557);
#475=DIRECTION('',(0.,0.,1.));
#476=DIRECTION('',(1.,0.,0.));
#477=DIRECTION('',(-1.,0.,0.));
#478=DIRECTION('',(0.,0.,1.));
#479=DIRECTION('',(-1.,0.,0.));
#480=DIRECTION('',(0.,0.,1.));
#481=DIRECTION('',(-1.,0.,0.));
#482=DIRECTION('',(0.,0.,1.));
#483=DIRECTION('',(-1.,0.,0.));
#484=DIRECTION('',(0.,0.,1.));
#485=DIRECTION('',(-1.,0.,0.));
#486=DIRECTION('',(0.,0.,1.));
#487=DIRECTION('',(-1.,0.,0.));
#488=DIRECTION('',(0.,0.,1.));
#489=DIRECTION('',(-1.,0.,0.));
#490=DIRECTION('',(-1.,0.,0.));
#491=DIRECTION('',(0.,0.,1.));
#492=DIRECTION('',(-1.,0.,0.));
#493=DIRECTION('',(-1.,0.,0.));
#494=DIRECTION('',(0.,0.,1.));
#495=DIRECTION('',(-1.,0.,0.));
#496=DIRECTION('',(0.,0.,1.));
#497=DIRECTION('',(-1.,0.,0.));
#498=DIRECTION('',(1.37404819258102E-17,0.,1.));
#499=DIRECTION('',(-1.,0.,0.));
#500=DIRECTION('',(0.,0.,1.));
#501=DIRECTION('',(-1.,0.,0.));
#502=DIRECTION('',(0.,0.,1.));
#503=DIRECTION('',(-1.,0.,0.));
#504=DIRECTION('',(0.,0.,1.));
#505=DIRECTION('',(-1.,0.,0.));
#506=DIRECTION('',(0.,0.,1.));
#507=DIRECTION('',(-1.,0.,0.));
#508=DIRECTION('',(0.,0.,1.));
#509=DIRECTION('',(-1.,0.,0.));
#510=DIRECTION('',(0.,0.,1.));
#511=DIRECTION('',(-1.,0.,0.));
#512=DIRECTION('',(0.,0.,1.));
#513=DIRECTION('',(1.,0.,0.));
#514=DIRECTION('',(-1.25158316391999E-16,0.,-1.));
#515=DIRECTION('',(-1.,0.,0.));
#516=DIRECTION('',(0.,0.,1.));
#517=DIRECTION('',(-1.,0.,0.));
#518=DIRECTION('',(0.,0.,1.));
#519=DIRECTION('',(-1.,0.,0.));
#520=DIRECTION('',(0.,0.,1.));
#521=DIRECTION('',(-1.,0.,0.));
#522=DIRECTION('',(0.,0.,1.));
#523=DIRECTION('',(-1.,0.,0.));
#524=DIRECTION('',(-2.01082881906346E-17,0.,1.));
#525=DIRECTION('',(-1.,0.,0.));
#526=DIRECTION('',(0.,0.,1.));
#527=DIRECTION('',(-1.,0.,0.));
#528=DIRECTION('',(0.,0.,1.));
#529=DIRECTION('',(0.104528463267654,0.172696914780562,-0.979412873099071));
#530=DIRECTION('',(0.994370424866534,-0.0353356778167122,0.099894184134927));
#531=DIRECTION('',(-1.,0.,0.));
#532=DIRECTION('',(-1.,0.,0.));
#533=DIRECTION('',(0.,0.,1.));
#534=DIRECTION('',(0.0173568003287445,0.984340980300276,0.175418288624189));
#535=DIRECTION('',(-1.,0.,0.));
#536=DIRECTION('',(-1.,0.,0.));
#537=DIRECTION('',(0.,0.,1.));
#538=DIRECTION('',(0.104528463267654,0.172696914780562,-0.979412873099071));
#539=DIRECTION('',(0.994370424866534,-0.0353356778167119,0.099894184134927));
#540=DIRECTION('',(-1.,0.,0.));
#541=DIRECTION('',(-1.,0.,0.));
#542=DIRECTION('',(0.,0.,1.));
#543=DIRECTION('',(0.994370424866534,-0.0353356778167101,0.099894184134927));
#544=DIRECTION('',(-1.,0.,0.));
#545=DIRECTION('',(-1.,0.,0.));
#546=DIRECTION('',(0.,0.,1.));
#547=DIRECTION('',(0.104528463267654,0.172696914780562,-0.979412873099071));
#548=DIRECTION('',(0.994370424866534,-0.0353356778167119,0.099894184134927));
#549=DIRECTION('',(-1.,0.,0.));
#550=DIRECTION('',(-1.,0.,0.));
#551=DIRECTION('',(0.,0.,1.));
#552=DIRECTION('',(-0.0173568003287447,-0.984340980300276,-0.175418288624189));
#553=DIRECTION('',(-1.,0.,0.));
#554=DIRECTION('',(-1.,0.,0.));
#555=DIRECTION('',(0.,0.,1.));
#556=DIRECTION('',(0.104528463267654,0.172696914780562,-0.979412873099071));
#557=DIRECTION('',(0.994370424866534,-0.0353356778167119,0.099894184134927));
#558=DIRECTION('',(-1.,0.,0.));
#559=DIRECTION('',(-0.994370424866534,0.0353356778167114,-0.099894184134927));
#560=DIRECTION('',(-1.,0.,0.));
#561=CARTESIAN_POINT('',(0.,0.,0.));
#562=CARTESIAN_POINT('',(14.9652106410356,0.,0.));
#563=CARTESIAN_POINT('',(14.9652106410356,0.,49.4177837760317));
#564=CARTESIAN_POINT('',(17.9099617102241,0.,0.));
#565=CARTESIAN_POINT('',(17.9099617102241,0.,48.2479026660448));
#566=CARTESIAN_POINT('',(15.0815345854784,0.,0.));
#567=CARTESIAN_POINT('',(1.89661680009866,0.,0.));
#568=CARTESIAN_POINT('',(1.89661680009866,0.,49.0559918773576));
#569=CARTESIAN_POINT('',(-120.038629683782,0.,0.));
#570=CARTESIAN_POINT('',(0.919603175560887,0.,0.));
#571=CARTESIAN_POINT('',(0.919603175560887,0.,48.0336720726998));
#572=CARTESIAN_POINT('',(1.89661680009866,49.0559918773576,0.));
#573=CARTESIAN_POINT('',(1.63302015787374,49.0490666531382,0.));
#574=CARTESIAN_POINT('',(1.37784874867474,48.9336300590291,0.));
#575=CARTESIAN_POINT('',(1.10815344757272,48.6510082583345,0.));
#576=CARTESIAN_POINT('',(1.03644763868257,48.5388540371862,0.));
#577=CARTESIAN_POINT('',(0.94096145885282,48.2952186291226,0.));
#578=CARTESIAN_POINT('',(0.91730650951192,48.1654939777271,0.));
#579=CARTESIAN_POINT('',(0.919603175560892,48.0336720726998,0.));
#580=CARTESIAN_POINT('',(0.,0.,0.));
#581=CARTESIAN_POINT('',(1.05330009903105,0.,0.));
#582=CARTESIAN_POINT('',(1.05330009903105,0.,40.3651710624513));
#583=CARTESIAN_POINT('',(0.919603175560887,48.0336720726998,0.));
#584=CARTESIAN_POINT('',(0.933909073525594,47.212555426822,0.));
#585=CARTESIAN_POINT('',(0.94821763338037,46.3914388273151,0.));
#586=CARTESIAN_POINT('',(0.969685156208765,45.1597640101212,0.));
#587=CARTESIAN_POINT('',(0.97684177913347,44.749205751643,0.));
#588=CARTESIAN_POINT('',(0.991156724180208,43.9280892643109,0.));
#589=CARTESIAN_POINT('',(0.998315046226889,43.517531035454,0.));
#590=CARTESIAN_POINT('',(1.01263354066632,42.6964146100077,0.));
#591=CARTESIAN_POINT('',(1.01979371296961,42.2858564134147,0.));
#592=CARTESIAN_POINT('',(1.03411607758672,41.4647400554646,0.));
#593=CARTESIAN_POINT('',(1.04127826979377,41.0541818941031,0.));
#594=CARTESIAN_POINT('',(1.0556048653303,40.2330656099615,0.));
#595=CARTESIAN_POINT('',(1.06276926853163,39.8225074871759,0.));
#596=CARTESIAN_POINT('',(1.07710050212433,39.0013912839702,0.));
#597=CARTESIAN_POINT('',(1.08426733236102,38.5908332035435,0.));
#598=CARTESIAN_POINT('',(1.09143549881546,38.1802751464485,0.));
#599=CARTESIAN_POINT('',(0.,0.,0.));
#600=CARTESIAN_POINT('',(1.15506601605958,0.,0.));
#601=CARTESIAN_POINT('',(1.15506601605958,0.,39.6410533591089));
#602=CARTESIAN_POINT('',(4.05284349492679,0.,0.));
#603=CARTESIAN_POINT('',(11.7768542507517,0.,0.));
#604=CARTESIAN_POINT('',(1.15506601605958,0.,0.));
#605=CARTESIAN_POINT('',(50.,0.,0.));
#606=CARTESIAN_POINT('',(50.,0.,30.5));
#607=CARTESIAN_POINT('',(50.,17.2,0.));
#608=CARTESIAN_POINT('',(48.,0.,0.));
#609=CARTESIAN_POINT('',(48.,0.,32.5));
#610=CARTESIAN_POINT('',(48.,0.,0.));
#611=CARTESIAN_POINT('',(39.,0.,0.));
#612=CARTESIAN_POINT('',(39.,0.,32.5));
#613=CARTESIAN_POINT('',(0.,0.,0.));
#614=CARTESIAN_POINT('',(38.6535898384862,0.,0.));
#615=CARTESIAN_POINT('',(38.6535898384862,0.,32.3));
#616=CARTESIAN_POINT('',(39.,0.,0.));
#617=CARTESIAN_POINT('',(38.,0.,0.));
#618=CARTESIAN_POINT('',(38.,0.,32.3));
#619=CARTESIAN_POINT('',(0.,0.,0.));
#620=CARTESIAN_POINT('',(30.9289321881345,0.,0.));
#621=CARTESIAN_POINT('',(30.9289321881345,0.,35.2289321881345));
#622=CARTESIAN_POINT('',(38.,0.,0.));
#623=CARTESIAN_POINT('',(30.9289321881345,0.,0.));
#624=CARTESIAN_POINT('',(0.0312810067212609,0.,0.));
#625=CARTESIAN_POINT('',(0.0312810067212609,0.,48.8215129497012));
#626=CARTESIAN_POINT('',(1.20369735616662,0.,0.));
#627=CARTESIAN_POINT('',(1.20369735616662,0.,50.0449999875865));
#628=CARTESIAN_POINT('',(1.2245255165611,-48.8637860055417,0.232433680001031));
#629=CARTESIAN_POINT('',(1.15506601605958,0.,0.));
#630=CARTESIAN_POINT('',(0.210056050107329,0.,0.));
#631=CARTESIAN_POINT('',(0.210056050107329,0.,38.7302597529344));
#632=CARTESIAN_POINT('',(0.0312810067212607,-48.8213831921616,0.112560659039125));
#633=CARTESIAN_POINT('',(1.15506601605958,0.,0.));
#634=CARTESIAN_POINT('',(1.42412872034167,0.,0.));
#635=CARTESIAN_POINT('',(1.42412872034167,0.,37.6112101252167));
#636=CARTESIAN_POINT('',(1.40330055994717,-38.7250739084488,2.03924205283018));
#637=CARTESIAN_POINT('',(1.15506601605958,0.,0.));
#638=CARTESIAN_POINT('',(11.6661440964669,0.,0.));
#639=CARTESIAN_POINT('',(11.6661440964669,0.,38.0493437217734));
#640=CARTESIAN_POINT('',(1.42412872034167,-37.5438647320885,2.24974399917921));
#641=CARTESIAN_POINT('',(1.15506601605958,0.,0.));
#642=CARTESIAN_POINT('',(12.8385604459123,0.,0.));
#643=CARTESIAN_POINT('',(12.8385604459123,0.,39.2610831141653));
#644=CARTESIAN_POINT('',(11.6453159360725,-39.089031389961,3.06815214941992));
#645=CARTESIAN_POINT('',(1.15506601605958,0.,0.));
#646=CARTESIAN_POINT('',(12.6597854025262,0.,0.));
#647=CARTESIAN_POINT('',(12.6597854025262,0.,49.2895026989317));
#648=CARTESIAN_POINT('',(12.8385604459123,-39.131434203341,3.18802517038182));
#649=CARTESIAN_POINT('',(1.15506601605958,0.,0.));
#650=CARTESIAN_POINT('',(11.4457127322919,0.,0.));
#651=CARTESIAN_POINT('',(11.4457127322919,0.,50.4199045732389));
#652=CARTESIAN_POINT('',(11.4665408926864,-49.2277434870538,1.26134377659077));
#653=CARTESIAN_POINT('',(1.15506601605958,0.,0.));
#654=CARTESIAN_POINT('',(11.4457127322919,-50.4089526634141,1.05084183024175));
#655=CARTESIAN_POINT('',(1.15506601605958,0.,0.));
#656=(
GEOMETRIC_REPRESENTATION_CONTEXT(3)
GLOBAL_UNCERTAINTY_ASSIGNED_CONTEXT((#657))
GLOBAL_UNIT_ASSIGNED_CONTEXT((#663,#659,#658))
REPRESENTATION_CONTEXT('AFM88C-SN1204-D100-A32-Z08',
'TOP_LEVEL_ASSEMBLY_PART')
);
#657=UNCERTAINTY_MEASURE_WITH_UNIT(LENGTH_MEASURE(2.E-5),#663,
'DISTANCE_ACCURACY_VALUE','Maximum Tolerance applied to model');
#658=(
NAMED_UNIT(*)
SI_UNIT($,.STERADIAN.)
SOLID_ANGLE_UNIT()
);
#659=(
CONVERSION_BASED_UNIT('DEGREE',#661)
NAMED_UNIT(#660)
PLANE_ANGLE_UNIT()
);
#660=DIMENSIONAL_EXPONENTS(0.,0.,0.,0.,0.,0.,0.);
#661=PLANE_ANGLE_MEASURE_WITH_UNIT(PLANE_ANGLE_MEASURE(0.0174532925),#662);
#662=(
NAMED_UNIT(*)
PLANE_ANGLE_UNIT()
SI_UNIT($,.RADIAN.)
);
#663=(
LENGTH_UNIT()
NAMED_UNIT(*)
SI_UNIT(.MILLI.,.METRE.)
);
ENDSEC;
END-ISO-10303-21;
