ISO-10303-21;
HEADER;
/* Generated by software containing ST-Developer
 * from STEP Tools, Inc. (www.steptools.com) 
 */
/* OPTION: using custom schema-name function */

FILE_DESCRIPTION(
/* description */ (''),
/* implementation_level */ '2;1');

FILE_NAME(
/* name */ 'AFM90C-TP22-D063-A22-Z05.stp',
/* time_stamp */ '2023-10-31T10:27:13+03:00',
/* author */ (''),
/* organization */ (''),
/* preprocessor_version */ 'ST-DEVELOPER v19.4',
/* originating_system */ 'SIEMENS PLM Software NX2306.3001',
/* authorisation */ '');

FILE_SCHEMA (('AP203_CONFIGURATION_CONTROLLED_3D_DESIGN_OF_MECHANICAL_PARTS_AND_ASSEMBLIES_MIM_LF { 1 0 10303 403 2 1 2}'));
ENDSEC;

DATA;
#10=SHAPE_REPRESENTATION_RELATIONSHIP('None',
'relationship between model1-None and model1-None',#76,#11);
#11=ADVANCED_BREP_SHAPE_REPRESENTATION('model1-None',(#229,#230),#678);
#12=APPLIED_APPROVAL_ASSIGNMENT(#24,(#66));
#13=APPLIED_APPROVAL_ASSIGNMENT(#25,(#68));
#14=APPLIED_APPROVAL_ASSIGNMENT(#26,(#38));
#15=APPROVAL_PERSON_ORGANIZATION(#30,#24,#18);
#16=APPROVAL_PERSON_ORGANIZATION(#31,#25,#19);
#17=APPROVAL_PERSON_ORGANIZATION(#32,#26,#20);
#18=APPROVAL_ROLE('approver');
#19=APPROVAL_ROLE('approver');
#20=APPROVAL_ROLE('approver');
#21=APPROVAL_DATE_TIME(#46,#24);
#22=APPROVAL_DATE_TIME(#47,#25);
#23=APPROVAL_DATE_TIME(#48,#26);
#24=APPROVAL(#27,' ');
#25=APPROVAL(#28,' ');
#26=APPROVAL(#29,' ');
#27=APPROVAL_STATUS('not_yet_approved');
#28=APPROVAL_STATUS('not_yet_approved');
#29=APPROVAL_STATUS('not_yet_approved');
#30=PERSON_AND_ORGANIZATION(#36,#33);
#31=PERSON_AND_ORGANIZATION(#36,#34);
#32=PERSON_AND_ORGANIZATION(#36,#35);
#33=ORGANIZATION(' ',' ',' ');
#34=ORGANIZATION(' ',' ',' ');
#35=ORGANIZATION(' ',' ',' ');
#36=PERSON(' ',' ',' ',(' '),$,$);
#37=APPLIED_SECURITY_CLASSIFICATION_ASSIGNMENT(#38,(#68));
#38=SECURITY_CLASSIFICATION(' ',' ',#39);
#39=SECURITY_CLASSIFICATION_LEVEL('confidential');
#40=APPLIED_DATE_AND_TIME_ASSIGNMENT(#44,#42,(#66));
#41=APPLIED_DATE_AND_TIME_ASSIGNMENT(#45,#43,(#38));
#42=DATE_TIME_ROLE('creation_date');
#43=DATE_TIME_ROLE('classification_date');
#44=DATE_AND_TIME(#59,#49);
#45=DATE_AND_TIME(#60,#50);
#46=DATE_AND_TIME(#61,#51);
#47=DATE_AND_TIME(#62,#52);
#48=DATE_AND_TIME(#63,#53);
#49=LOCAL_TIME(0,0,0.,#54);
#50=LOCAL_TIME(0,0,0.,#55);
#51=LOCAL_TIME(0,0,0.,#56);
#52=LOCAL_TIME(0,0,0.,#57);
#53=LOCAL_TIME(0,0,0.,#58);
#54=COORDINATED_UNIVERSAL_TIME_OFFSET(0,0,.BEHIND.);
#55=COORDINATED_UNIVERSAL_TIME_OFFSET(0,0,.BEHIND.);
#56=COORDINATED_UNIVERSAL_TIME_OFFSET(0,0,.BEHIND.);
#57=COORDINATED_UNIVERSAL_TIME_OFFSET(0,0,.BEHIND.);
#58=COORDINATED_UNIVERSAL_TIME_OFFSET(0,0,.BEHIND.);
#59=CALENDAR_DATE(0,1,1);
#60=CALENDAR_DATE(0,1,1);
#61=CALENDAR_DATE(0,1,1);
#62=CALENDAR_DATE(0,1,1);
#63=CALENDAR_DATE(0,1,1);
#64=SHAPE_DEFINITION_REPRESENTATION(#65,#76);
#65=PRODUCT_DEFINITION_SHAPE('','',#66);
#66=PRODUCT_DEFINITION(' ','',#68,#67);
#67=PRODUCT_DEFINITION_CONTEXT('part definition',#75,'design');
#68=PRODUCT_DEFINITION_FORMATION_WITH_SPECIFIED_SOURCE(' ',' ',#70,
 .NOT_KNOWN.);
#69=PRODUCT_RELATED_PRODUCT_CATEGORY('detail','',(#70));
#70=PRODUCT('model1','model1',' ',(#73));
#71=PRODUCT_CATEGORY('part',' ');
#72=PRODUCT_CATEGORY(' ','');
#73=PRODUCT_CONTEXT(' ',#75,'mechanical');
#74=APPLICATION_PROTOCOL_DEFINITION('international standard',
'config_control_design',2010,#75);
#75=APPLICATION_CONTEXT(
'configuration controlled 3D designs of mechanical parts and assemblie
s');
#76=SHAPE_REPRESENTATION('model1-None',(#471),#678);
#77=DRAUGHTING_PRE_DEFINED_COLOUR('yellow');
#78=SURFACE_OF_REVOLUTION('',#96,#87);
#79=SURFACE_OF_REVOLUTION('',#97,#88);
#80=SURFACE_OF_REVOLUTION('',#98,#89);
#81=SURFACE_OF_REVOLUTION('',#99,#90);
#82=SURFACE_OF_REVOLUTION('',#100,#91);
#83=SURFACE_OF_REVOLUTION('',#101,#92);
#84=SURFACE_OF_REVOLUTION('',#102,#93);
#85=SURFACE_OF_REVOLUTION('',#103,#94);
#86=SURFACE_OF_REVOLUTION('',#104,#95);
#87=AXIS1_PLACEMENT('',#647,#569);
#88=AXIS1_PLACEMENT('',#651,#573);
#89=AXIS1_PLACEMENT('',#655,#577);
#90=AXIS1_PLACEMENT('',#659,#581);
#91=AXIS1_PLACEMENT('',#663,#585);
#92=AXIS1_PLACEMENT('',#667,#589);
#93=AXIS1_PLACEMENT('',#671,#593);
#94=AXIS1_PLACEMENT('',#675,#597);
#95=AXIS1_PLACEMENT('',#677,#599);
#96=LINE('',#646,#105);
#97=LINE('',#650,#106);
#98=LINE('',#654,#107);
#99=LINE('',#658,#108);
#100=LINE('',#662,#109);
#101=LINE('',#666,#110);
#102=LINE('',#670,#111);
#103=LINE('',#674,#112);
#104=LINE('',#676,#113);
#105=VECTOR('',#568,18.2639967597039);
#106=VECTOR('',#572,0.699999999999995);
#107=VECTOR('',#576,1.4);
#108=VECTOR('',#580,18.2639967597039);
#109=VECTOR('',#584,0.700000000000013);
#110=VECTOR('',#588,1.40000000000001);
#111=VECTOR('',#592,18.2639967597039);
#112=VECTOR('',#596,0.700000000000031);
#113=VECTOR('',#598,1.39999999999996);
#114=OVER_RIDING_STYLED_ITEM('',(#132),#246,#129);
#115=OVER_RIDING_STYLED_ITEM('',(#133),#247,#129);
#116=OVER_RIDING_STYLED_ITEM('',(#134),#248,#129);
#117=OVER_RIDING_STYLED_ITEM('',(#135),#249,#129);
#118=OVER_RIDING_STYLED_ITEM('',(#136),#250,#129);
#119=OVER_RIDING_STYLED_ITEM('',(#137),#251,#129);
#120=OVER_RIDING_STYLED_ITEM('',(#138),#252,#129);
#121=OVER_RIDING_STYLED_ITEM('',(#139),#253,#129);
#122=OVER_RIDING_STYLED_ITEM('',(#140),#254,#129);
#123=OVER_RIDING_STYLED_ITEM('',(#141),#255,#129);
#124=OVER_RIDING_STYLED_ITEM('',(#142),#256,#129);
#125=OVER_RIDING_STYLED_ITEM('',(#143),#257,#129);
#126=OVER_RIDING_STYLED_ITEM('',(#144),#258,#129);
#127=OVER_RIDING_STYLED_ITEM('',(#145),#259,#129);
#128=PRESENTATION_LAYER_ASSIGNMENT('1','Layer 1',(#229,#230));
#129=STYLED_ITEM('',(#131),#229);
#130=STYLED_ITEM('',(#146),#230);
#131=PRESENTATION_STYLE_ASSIGNMENT((#147));
#132=PRESENTATION_STYLE_ASSIGNMENT((#148));
#133=PRESENTATION_STYLE_ASSIGNMENT((#149));
#134=PRESENTATION_STYLE_ASSIGNMENT((#150));
#135=PRESENTATION_STYLE_ASSIGNMENT((#151));
#136=PRESENTATION_STYLE_ASSIGNMENT((#152));
#137=PRESENTATION_STYLE_ASSIGNMENT((#153));
#138=PRESENTATION_STYLE_ASSIGNMENT((#154));
#139=PRESENTATION_STYLE_ASSIGNMENT((#155));
#140=PRESENTATION_STYLE_ASSIGNMENT((#156));
#141=PRESENTATION_STYLE_ASSIGNMENT((#157));
#142=PRESENTATION_STYLE_ASSIGNMENT((#158));
#143=PRESENTATION_STYLE_ASSIGNMENT((#159));
#144=PRESENTATION_STYLE_ASSIGNMENT((#160));
#145=PRESENTATION_STYLE_ASSIGNMENT((#161));
#146=PRESENTATION_STYLE_ASSIGNMENT((#162));
#147=SURFACE_STYLE_USAGE(.BOTH.,#163);
#148=SURFACE_STYLE_USAGE(.BOTH.,#164);
#149=SURFACE_STYLE_USAGE(.BOTH.,#165);
#150=SURFACE_STYLE_USAGE(.BOTH.,#166);
#151=SURFACE_STYLE_USAGE(.BOTH.,#167);
#152=SURFACE_STYLE_USAGE(.BOTH.,#168);
#153=SURFACE_STYLE_USAGE(.BOTH.,#169);
#154=SURFACE_STYLE_USAGE(.BOTH.,#170);
#155=SURFACE_STYLE_USAGE(.BOTH.,#171);
#156=SURFACE_STYLE_USAGE(.BOTH.,#172);
#157=SURFACE_STYLE_USAGE(.BOTH.,#173);
#158=SURFACE_STYLE_USAGE(.BOTH.,#174);
#159=SURFACE_STYLE_USAGE(.BOTH.,#175);
#160=SURFACE_STYLE_USAGE(.BOTH.,#176);
#161=SURFACE_STYLE_USAGE(.BOTH.,#177);
#162=SURFACE_STYLE_USAGE(.BOTH.,#178);
#163=SURFACE_SIDE_STYLE('',(#179));
#164=SURFACE_SIDE_STYLE('',(#180));
#165=SURFACE_SIDE_STYLE('',(#181));
#166=SURFACE_SIDE_STYLE('',(#182));
#167=SURFACE_SIDE_STYLE('',(#183));
#168=SURFACE_SIDE_STYLE('',(#184));
#169=SURFACE_SIDE_STYLE('',(#185));
#170=SURFACE_SIDE_STYLE('',(#186));
#171=SURFACE_SIDE_STYLE('',(#187));
#172=SURFACE_SIDE_STYLE('',(#188));
#173=SURFACE_SIDE_STYLE('',(#189));
#174=SURFACE_SIDE_STYLE('',(#190));
#175=SURFACE_SIDE_STYLE('',(#191));
#176=SURFACE_SIDE_STYLE('',(#192));
#177=SURFACE_SIDE_STYLE('',(#193));
#178=SURFACE_SIDE_STYLE('',(#194));
#179=SURFACE_STYLE_FILL_AREA(#195);
#180=SURFACE_STYLE_FILL_AREA(#196);
#181=SURFACE_STYLE_FILL_AREA(#197);
#182=SURFACE_STYLE_FILL_AREA(#198);
#183=SURFACE_STYLE_FILL_AREA(#199);
#184=SURFACE_STYLE_FILL_AREA(#200);
#185=SURFACE_STYLE_FILL_AREA(#201);
#186=SURFACE_STYLE_FILL_AREA(#202);
#187=SURFACE_STYLE_FILL_AREA(#203);
#188=SURFACE_STYLE_FILL_AREA(#204);
#189=SURFACE_STYLE_FILL_AREA(#205);
#190=SURFACE_STYLE_FILL_AREA(#206);
#191=SURFACE_STYLE_FILL_AREA(#207);
#192=SURFACE_STYLE_FILL_AREA(#208);
#193=SURFACE_STYLE_FILL_AREA(#209);
#194=SURFACE_STYLE_FILL_AREA(#210);
#195=FILL_AREA_STYLE('',(#211));
#196=FILL_AREA_STYLE('',(#212));
#197=FILL_AREA_STYLE('',(#213));
#198=FILL_AREA_STYLE('',(#214));
#199=FILL_AREA_STYLE('',(#215));
#200=FILL_AREA_STYLE('',(#216));
#201=FILL_AREA_STYLE('',(#217));
#202=FILL_AREA_STYLE('',(#218));
#203=FILL_AREA_STYLE('',(#219));
#204=FILL_AREA_STYLE('',(#220));
#205=FILL_AREA_STYLE('',(#221));
#206=FILL_AREA_STYLE('',(#222));
#207=FILL_AREA_STYLE('',(#223));
#208=FILL_AREA_STYLE('',(#224));
#209=FILL_AREA_STYLE('',(#225));
#210=FILL_AREA_STYLE('',(#226));
#211=FILL_AREA_STYLE_COLOUR('',#227);
#212=FILL_AREA_STYLE_COLOUR('',#228);
#213=FILL_AREA_STYLE_COLOUR('',#228);
#214=FILL_AREA_STYLE_COLOUR('',#228);
#215=FILL_AREA_STYLE_COLOUR('',#228);
#216=FILL_AREA_STYLE_COLOUR('',#228);
#217=FILL_AREA_STYLE_COLOUR('',#228);
#218=FILL_AREA_STYLE_COLOUR('',#228);
#219=FILL_AREA_STYLE_COLOUR('',#228);
#220=FILL_AREA_STYLE_COLOUR('',#228);
#221=FILL_AREA_STYLE_COLOUR('',#228);
#222=FILL_AREA_STYLE_COLOUR('',#228);
#223=FILL_AREA_STYLE_COLOUR('',#228);
#224=FILL_AREA_STYLE_COLOUR('',#228);
#225=FILL_AREA_STYLE_COLOUR('',#228);
#226=FILL_AREA_STYLE_COLOUR('',#77);
#227=COLOUR_RGB('Medium Steel',0.611764705882353,0.658823529411765,0.670588235294118);
#228=COLOUR_RGB('silver gray',0.6,0.6,0.6);
#229=MANIFOLD_SOLID_BREP('',#231);
#230=MANIFOLD_SOLID_BREP('',#232);
#231=CLOSED_SHELL('',(#246,#247,#248,#249,#250,#251,#252,#253,#254,#255,
#256,#257,#258,#259));
#232=CLOSED_SHELL('',(#260,#261,#262,#263,#264,#265,#266,#267,#268));
#233=CYLINDRICAL_SURFACE('',#487,24.);
#234=CYLINDRICAL_SURFACE('',#495,30.75);
#235=PLANE('',#483);
#236=PLANE('',#498);
#237=FACE_OUTER_BOUND('',#325,.T.);
#238=VERTEX_LOOP('',#409);
#239=TOROIDAL_SURFACE('',#476,26.6519237886467,0.8);
#240=TOROIDAL_SURFACE('',#480,24.945587788454,1.);
#241=TOROIDAL_SURFACE('',#485,22.5,1.5);
#242=TOROIDAL_SURFACE('',#489,19.,5.);
#243=TOROIDAL_SURFACE('',#491,41.7,18.);
#244=TOROIDAL_SURFACE('',#493,27.75,3.);
#245=TOROIDAL_SURFACE('',#497,29.95,0.8);
#246=ADVANCED_FACE('',(#272,#273),#269,.F.);
#247=ADVANCED_FACE('',(#274,#275),#239,.F.);
#248=ADVANCED_FACE('',(#276,#277),#270,.T.);
#249=ADVANCED_FACE('',(#278,#279),#240,.T.);
#250=ADVANCED_FACE('',(#280,#281),#271,.F.);
#251=ADVANCED_FACE('',(#237),#235,.F.);
#252=ADVANCED_FACE('',(#282,#283),#241,.T.);
#253=ADVANCED_FACE('',(#284,#285),#233,.T.);
#254=ADVANCED_FACE('',(#286,#287),#242,.T.);
#255=ADVANCED_FACE('',(#288,#289),#243,.F.);
#256=ADVANCED_FACE('',(#290,#291),#244,.T.);
#257=ADVANCED_FACE('',(#292,#293),#234,.T.);
#258=ADVANCED_FACE('',(#294,#295),#245,.T.);
#259=ADVANCED_FACE('',(#296,#297),#236,.F.);
#260=ADVANCED_FACE('',(#298,#299),#78,.T.);
#261=ADVANCED_FACE('',(#300,#301),#79,.T.);
#262=ADVANCED_FACE('',(#302,#303),#80,.T.);
#263=ADVANCED_FACE('',(#304,#305),#81,.T.);
#264=ADVANCED_FACE('',(#306,#307),#82,.T.);
#265=ADVANCED_FACE('',(#308,#309),#83,.T.);
#266=ADVANCED_FACE('',(#310,#311),#84,.T.);
#267=ADVANCED_FACE('',(#312,#313),#85,.T.);
#268=ADVANCED_FACE('',(#314,#315),#86,.T.);
#269=CONICAL_SURFACE('',#474,29.65,60.);
#270=CONICAL_SURFACE('',#478,25.9591034656191,29.9999999999995);
#271=CONICAL_SURFACE('',#481,24.8584320457063,85.);
#272=FACE_BOUND('',#316,.T.);
#273=FACE_BOUND('',#317,.T.);
#274=FACE_BOUND('',#318,.T.);
#275=FACE_BOUND('',#319,.T.);
#276=FACE_BOUND('',#320,.T.);
#277=FACE_BOUND('',#321,.T.);
#278=FACE_BOUND('',#322,.T.);
#279=FACE_BOUND('',#323,.T.);
#280=FACE_BOUND('',#324,.T.);
#281=FACE_BOUND('',#238,.T.);
#282=FACE_BOUND('',#326,.T.);
#283=FACE_BOUND('',#327,.T.);
#284=FACE_BOUND('',#328,.T.);
#285=FACE_BOUND('',#329,.T.);
#286=FACE_BOUND('',#330,.T.);
#287=FACE_BOUND('',#331,.T.);
#288=FACE_BOUND('',#332,.T.);
#289=FACE_BOUND('',#333,.T.);
#290=FACE_BOUND('',#334,.T.);
#291=FACE_BOUND('',#335,.T.);
#292=FACE_BOUND('',#336,.T.);
#293=FACE_BOUND('',#337,.T.);
#294=FACE_BOUND('',#338,.T.);
#295=FACE_BOUND('',#339,.T.);
#296=FACE_BOUND('',#340,.T.);
#297=FACE_BOUND('',#341,.T.);
#298=FACE_BOUND('',#342,.T.);
#299=FACE_BOUND('',#343,.T.);
#300=FACE_BOUND('',#344,.T.);
#301=FACE_BOUND('',#345,.T.);
#302=FACE_BOUND('',#346,.T.);
#303=FACE_BOUND('',#347,.T.);
#304=FACE_BOUND('',#348,.T.);
#305=FACE_BOUND('',#349,.T.);
#306=FACE_BOUND('',#350,.T.);
#307=FACE_BOUND('',#351,.T.);
#308=FACE_BOUND('',#352,.T.);
#309=FACE_BOUND('',#353,.T.);
#310=FACE_BOUND('',#354,.T.);
#311=FACE_BOUND('',#355,.T.);
#312=FACE_BOUND('',#356,.T.);
#313=FACE_BOUND('',#357,.T.);
#314=FACE_BOUND('',#358,.T.);
#315=FACE_BOUND('',#359,.T.);
#316=EDGE_LOOP('',(#360));
#317=EDGE_LOOP('',(#361));
#318=EDGE_LOOP('',(#362));
#319=EDGE_LOOP('',(#363));
#320=EDGE_LOOP('',(#364));
#321=EDGE_LOOP('',(#365));
#322=EDGE_LOOP('',(#366));
#323=EDGE_LOOP('',(#367));
#324=EDGE_LOOP('',(#368));
#325=EDGE_LOOP('',(#369));
#326=EDGE_LOOP('',(#370));
#327=EDGE_LOOP('',(#371));
#328=EDGE_LOOP('',(#372));
#329=EDGE_LOOP('',(#373));
#330=EDGE_LOOP('',(#374));
#331=EDGE_LOOP('',(#375));
#332=EDGE_LOOP('',(#376));
#333=EDGE_LOOP('',(#377));
#334=EDGE_LOOP('',(#378));
#335=EDGE_LOOP('',(#379));
#336=EDGE_LOOP('',(#380));
#337=EDGE_LOOP('',(#381));
#338=EDGE_LOOP('',(#382));
#339=EDGE_LOOP('',(#383));
#340=EDGE_LOOP('',(#384));
#341=EDGE_LOOP('',(#385));
#342=EDGE_LOOP('',(#386));
#343=EDGE_LOOP('',(#387));
#344=EDGE_LOOP('',(#388));
#345=EDGE_LOOP('',(#389));
#346=EDGE_LOOP('',(#390));
#347=EDGE_LOOP('',(#391));
#348=EDGE_LOOP('',(#392));
#349=EDGE_LOOP('',(#393));
#350=EDGE_LOOP('',(#394));
#351=EDGE_LOOP('',(#395));
#352=EDGE_LOOP('',(#396));
#353=EDGE_LOOP('',(#397));
#354=EDGE_LOOP('',(#398));
#355=EDGE_LOOP('',(#399));
#356=EDGE_LOOP('',(#400));
#357=EDGE_LOOP('',(#401));
#358=EDGE_LOOP('',(#402));
#359=EDGE_LOOP('',(#403));
#360=ORIENTED_EDGE('',*,*,#427,.F.);
#361=ORIENTED_EDGE('',*,*,#428,.T.);
#362=ORIENTED_EDGE('',*,*,#429,.F.);
#363=ORIENTED_EDGE('',*,*,#427,.T.);
#364=ORIENTED_EDGE('',*,*,#430,.F.);
#365=ORIENTED_EDGE('',*,*,#429,.T.);
#366=ORIENTED_EDGE('',*,*,#431,.F.);
#367=ORIENTED_EDGE('',*,*,#430,.T.);
#368=ORIENTED_EDGE('',*,*,#431,.T.);
#369=ORIENTED_EDGE('',*,*,#432,.F.);
#370=ORIENTED_EDGE('',*,*,#433,.F.);
#371=ORIENTED_EDGE('',*,*,#432,.T.);
#372=ORIENTED_EDGE('',*,*,#434,.F.);
#373=ORIENTED_EDGE('',*,*,#433,.T.);
#374=ORIENTED_EDGE('',*,*,#435,.F.);
#375=ORIENTED_EDGE('',*,*,#434,.T.);
#376=ORIENTED_EDGE('',*,*,#436,.F.);
#377=ORIENTED_EDGE('',*,*,#435,.T.);
#378=ORIENTED_EDGE('',*,*,#437,.F.);
#379=ORIENTED_EDGE('',*,*,#436,.T.);
#380=ORIENTED_EDGE('',*,*,#438,.F.);
#381=ORIENTED_EDGE('',*,*,#437,.T.);
#382=ORIENTED_EDGE('',*,*,#439,.F.);
#383=ORIENTED_EDGE('',*,*,#438,.T.);
#384=ORIENTED_EDGE('',*,*,#428,.F.);
#385=ORIENTED_EDGE('',*,*,#439,.T.);
#386=ORIENTED_EDGE('',*,*,#440,.F.);
#387=ORIENTED_EDGE('',*,*,#441,.T.);
#388=ORIENTED_EDGE('',*,*,#442,.F.);
#389=ORIENTED_EDGE('',*,*,#440,.T.);
#390=ORIENTED_EDGE('',*,*,#443,.F.);
#391=ORIENTED_EDGE('',*,*,#442,.T.);
#392=ORIENTED_EDGE('',*,*,#444,.F.);
#393=ORIENTED_EDGE('',*,*,#443,.T.);
#394=ORIENTED_EDGE('',*,*,#445,.F.);
#395=ORIENTED_EDGE('',*,*,#444,.T.);
#396=ORIENTED_EDGE('',*,*,#446,.F.);
#397=ORIENTED_EDGE('',*,*,#445,.T.);
#398=ORIENTED_EDGE('',*,*,#447,.F.);
#399=ORIENTED_EDGE('',*,*,#446,.T.);
#400=ORIENTED_EDGE('',*,*,#448,.F.);
#401=ORIENTED_EDGE('',*,*,#447,.T.);
#402=ORIENTED_EDGE('',*,*,#441,.F.);
#403=ORIENTED_EDGE('',*,*,#448,.T.);
#404=VERTEX_POINT('',#602);
#405=VERTEX_POINT('',#604);
#406=VERTEX_POINT('',#607);
#407=VERTEX_POINT('',#610);
#408=VERTEX_POINT('',#613);
#409=VERTEX_POINT('',#615);
#410=VERTEX_POINT('',#618);
#411=VERTEX_POINT('',#621);
#412=VERTEX_POINT('',#624);
#413=VERTEX_POINT('',#627);
#414=VERTEX_POINT('',#630);
#415=VERTEX_POINT('',#633);
#416=VERTEX_POINT('',#636);
#417=VERTEX_POINT('',#639);
#418=VERTEX_POINT('',#643);
#419=VERTEX_POINT('',#645);
#420=VERTEX_POINT('',#649);
#421=VERTEX_POINT('',#653);
#422=VERTEX_POINT('',#657);
#423=VERTEX_POINT('',#661);
#424=VERTEX_POINT('',#665);
#425=VERTEX_POINT('',#669);
#426=VERTEX_POINT('',#673);
#427=EDGE_CURVE('',#404,#404,#449,.T.);
#428=EDGE_CURVE('',#405,#405,#450,.T.);
#429=EDGE_CURVE('',#406,#406,#451,.T.);
#430=EDGE_CURVE('',#407,#407,#452,.T.);
#431=EDGE_CURVE('',#408,#408,#453,.T.);
#432=EDGE_CURVE('',#410,#410,#454,.T.);
#433=EDGE_CURVE('',#411,#411,#455,.T.);
#434=EDGE_CURVE('',#412,#412,#456,.T.);
#435=EDGE_CURVE('',#413,#413,#457,.T.);
#436=EDGE_CURVE('',#414,#414,#458,.T.);
#437=EDGE_CURVE('',#415,#415,#459,.T.);
#438=EDGE_CURVE('',#416,#416,#460,.T.);
#439=EDGE_CURVE('',#417,#417,#461,.T.);
#440=EDGE_CURVE('',#418,#418,#462,.T.);
#441=EDGE_CURVE('',#419,#419,#463,.T.);
#442=EDGE_CURVE('',#420,#420,#464,.T.);
#443=EDGE_CURVE('',#421,#421,#465,.T.);
#444=EDGE_CURVE('',#422,#422,#466,.T.);
#445=EDGE_CURVE('',#423,#423,#467,.T.);
#446=EDGE_CURVE('',#424,#424,#468,.T.);
#447=EDGE_CURVE('',#425,#425,#469,.T.);
#448=EDGE_CURVE('',#426,#426,#470,.T.);
#449=CIRCLE('',#472,27.0519237886467);
#450=CIRCLE('',#473,29.65);
#451=CIRCLE('',#475,25.9591034656191);
#452=CIRCLE('',#477,25.8116131922384);
#453=CIRCLE('',#479,24.8584320457063);
#454=CIRCLE('',#482,22.5);
#455=CIRCLE('',#484,24.);
#456=CIRCLE('',#486,24.);
#457=CIRCLE('',#488,23.9347826086956);
#458=CIRCLE('',#490,29.7428571428571);
#459=CIRCLE('',#492,30.75);
#460=CIRCLE('',#494,30.75);
#461=CIRCLE('',#496,29.95);
#462=CIRCLE('',#499,13.6169370560832);
#463=CIRCLE('',#500,29.4797587144833);
#464=CIRCLE('',#501,13.6561429619345);
#465=CIRCLE('',#502,14.4281094374942);
#466=CIRCLE('',#503,30.2313329960695);
#467=CIRCLE('',#504,30.8150397087066);
#468=CIRCLE('',#505,31.4374378598656);
#469=CIRCLE('',#506,31.4999999841587);
#470=CIRCLE('',#507,30.8775777263517);
#471=AXIS2_PLACEMENT_3D('',#600,#508,#509);
#472=AXIS2_PLACEMENT_3D('',#601,#510,#511);
#473=AXIS2_PLACEMENT_3D('',#603,#512,#513);
#474=AXIS2_PLACEMENT_3D('',#605,#514,#515);
#475=AXIS2_PLACEMENT_3D('',#606,#516,#517);
#476=AXIS2_PLACEMENT_3D('',#608,#518,#519);
#477=AXIS2_PLACEMENT_3D('',#609,#520,#521);
#478=AXIS2_PLACEMENT_3D('',#611,#522,#523);
#479=AXIS2_PLACEMENT_3D('',#612,#524,#525);
#480=AXIS2_PLACEMENT_3D('',#614,#526,#527);
#481=AXIS2_PLACEMENT_3D('',#616,#528,#529);
#482=AXIS2_PLACEMENT_3D('',#617,#530,#531);
#483=AXIS2_PLACEMENT_3D('',#619,#532,#533);
#484=AXIS2_PLACEMENT_3D('',#620,#534,#535);
#485=AXIS2_PLACEMENT_3D('',#622,#536,#537);
#486=AXIS2_PLACEMENT_3D('',#623,#538,#539);
#487=AXIS2_PLACEMENT_3D('',#625,#540,#541);
#488=AXIS2_PLACEMENT_3D('',#626,#542,#543);
#489=AXIS2_PLACEMENT_3D('',#628,#544,#545);
#490=AXIS2_PLACEMENT_3D('',#629,#546,#547);
#491=AXIS2_PLACEMENT_3D('',#631,#548,#549);
#492=AXIS2_PLACEMENT_3D('',#632,#550,#551);
#493=AXIS2_PLACEMENT_3D('',#634,#552,#553);
#494=AXIS2_PLACEMENT_3D('',#635,#554,#555);
#495=AXIS2_PLACEMENT_3D('',#637,#556,#557);
#496=AXIS2_PLACEMENT_3D('',#638,#558,#559);
#497=AXIS2_PLACEMENT_3D('',#640,#560,#561);
#498=AXIS2_PLACEMENT_3D('',#641,#562,#563);
#499=AXIS2_PLACEMENT_3D('',#642,#564,#565);
#500=AXIS2_PLACEMENT_3D('',#644,#566,#567);
#501=AXIS2_PLACEMENT_3D('',#648,#570,#571);
#502=AXIS2_PLACEMENT_3D('',#652,#574,#575);
#503=AXIS2_PLACEMENT_3D('',#656,#578,#579);
#504=AXIS2_PLACEMENT_3D('',#660,#582,#583);
#505=AXIS2_PLACEMENT_3D('',#664,#586,#587);
#506=AXIS2_PLACEMENT_3D('',#668,#590,#591);
#507=AXIS2_PLACEMENT_3D('',#672,#594,#595);
#508=DIRECTION('',(0.,0.,1.));
#509=DIRECTION('',(1.,0.,0.));
#510=DIRECTION('',(-1.,0.,0.));
#511=DIRECTION('',(0.,0.,1.));
#512=DIRECTION('',(-1.,0.,0.));
#513=DIRECTION('',(0.,0.,1.));
#514=DIRECTION('',(-1.,0.,0.));
#515=DIRECTION('',(1.92629349166428E-17,0.,1.));
#516=DIRECTION('',(-1.,0.,0.));
#517=DIRECTION('',(0.,0.,1.));
#518=DIRECTION('',(-1.,0.,0.));
#519=DIRECTION('',(0.,0.,1.));
#520=DIRECTION('',(-1.,0.,0.));
#521=DIRECTION('',(0.,0.,1.));
#522=DIRECTION('',(1.,0.,0.));
#523=DIRECTION('',(9.05734138569335E-17,0.,-1.));
#524=DIRECTION('',(-1.,0.,0.));
#525=DIRECTION('',(0.,0.,1.));
#526=DIRECTION('',(-1.,0.,0.));
#527=DIRECTION('',(0.,0.,1.));
#528=DIRECTION('',(-1.,0.,0.));
#529=DIRECTION('',(1.21151426921602E-18,0.,1.));
#530=DIRECTION('',(-1.,0.,0.));
#531=DIRECTION('',(0.,0.,1.));
#532=DIRECTION('',(-1.,0.,0.));
#533=DIRECTION('',(0.,0.,1.));
#534=DIRECTION('',(-1.,0.,0.));
#535=DIRECTION('',(0.,0.,1.));
#536=DIRECTION('',(-1.,0.,0.));
#537=DIRECTION('',(0.,0.,1.));
#538=DIRECTION('',(-1.,0.,0.));
#539=DIRECTION('',(0.,0.,1.));
#540=DIRECTION('',(-1.,0.,0.));
#541=DIRECTION('',(0.,0.,1.));
#542=DIRECTION('',(-1.,0.,0.));
#543=DIRECTION('',(0.,0.,1.));
#544=DIRECTION('',(-1.,0.,0.));
#545=DIRECTION('',(0.,0.,1.));
#546=DIRECTION('',(-1.,0.,0.));
#547=DIRECTION('',(0.,0.,1.));
#548=DIRECTION('',(-1.,0.,0.));
#549=DIRECTION('',(0.,0.,1.));
#550=DIRECTION('',(-1.,0.,0.));
#551=DIRECTION('',(0.,0.,1.));
#552=DIRECTION('',(-1.,0.,0.));
#553=DIRECTION('',(0.,0.,1.));
#554=DIRECTION('',(-1.,0.,0.));
#555=DIRECTION('',(0.,0.,1.));
#556=DIRECTION('',(-1.,0.,0.));
#557=DIRECTION('',(0.,0.,1.));
#558=DIRECTION('',(-1.,0.,0.));
#559=DIRECTION('',(0.,0.,1.));
#560=DIRECTION('',(-1.,0.,0.));
#561=DIRECTION('',(0.,0.,1.));
#562=DIRECTION('',(1.,0.,0.));
#563=DIRECTION('',(0.,0.,-1.));
#564=DIRECTION('',(-1.,0.,0.));
#565=DIRECTION('',(0.,0.,1.));
#566=DIRECTION('',(-1.,0.,0.));
#567=DIRECTION('',(0.,0.,1.));
#568=DIRECTION('',(0.491314102980527,0.869811310771277,-0.0451523628040973));
#569=DIRECTION('',(-1.,0.,0.));
#570=DIRECTION('',(-1.,0.,0.));
#571=DIRECTION('',(0.,0.,1.));
#572=DIRECTION('',(0.991271108049886,-0.0485394705669586,-0.122578587618843));
#573=DIRECTION('',(-1.,0.,0.));
#574=DIRECTION('',(-1.,0.,0.));
#575=DIRECTION('',(0.,0.,1.));
#576=DIRECTION('',(0.830951657382125,-0.54504522287906,-0.111557375868275));
#577=DIRECTION('',(-1.,0.,0.));
#578=DIRECTION('',(-1.,0.,0.));
#579=DIRECTION('',(0.,0.,1.));
#580=DIRECTION('',(0.501215585920446,-0.861925755255782,-0.0765958801579691));
#581=DIRECTION('',(-1.,0.,0.));
#582=DIRECTION('',(-1.,0.,0.));
#583=DIRECTION('',(0.,0.,1.));
#584=DIRECTION('',(-0.539191151973565,-0.840604760120422,0.0515416229498916));
#585=DIRECTION('',(-1.,0.,0.));
#586=DIRECTION('',(-1.,0.,0.));
#587=DIRECTION('',(0.,0.,1.));
#588=DIRECTION('',(-0.885582630039357,-0.453403852959498,0.100838244203556));
#589=DIRECTION('',(-1.,0.,0.));
#590=DIRECTION('',(-1.,0.,0.));
#591=DIRECTION('',(0.,0.,1.));
#592=DIRECTION('',(-0.992529688900973,-0.00788555551549498,0.121748242962066));
#593=DIRECTION('',(-1.,0.,0.));
#594=DIRECTION('',(-1.,0.,0.));
#595=DIRECTION('',(0.,0.,1.));
#596=DIRECTION('',(-0.452079956076321,0.88914423068738,0.071036964668952));
#597=DIRECTION('',(-1.,0.,0.));
#598=DIRECTION('',(0.0546309726572318,0.998449075838562,0.0107191316647197));
#599=DIRECTION('',(-1.,0.,0.));
#600=CARTESIAN_POINT('',(0.,0.,0.));
#601=CARTESIAN_POINT('',(2.2,0.,0.));
#602=CARTESIAN_POINT('',(2.2,0.,27.0519237886467));
#603=CARTESIAN_POINT('',(0.7,0.,0.));
#604=CARTESIAN_POINT('',(0.7,0.,29.65));
#605=CARTESIAN_POINT('',(0.7,0.,0.));
#606=CARTESIAN_POINT('',(1.90717967697246,0.,0.));
#607=CARTESIAN_POINT('',(1.90717967697246,0.,25.9591034656191));
#608=CARTESIAN_POINT('',(1.50717967697247,0.,0.));
#609=CARTESIAN_POINT('',(1.65171902985487,0.,0.));
#610=CARTESIAN_POINT('',(1.65171902985487,0.,25.8116131922384));
#611=CARTESIAN_POINT('',(1.90717967697246,0.,0.));
#612=CARTESIAN_POINT('',(1.15552433176312,0.,0.));
#613=CARTESIAN_POINT('',(1.15552433176312,0.,24.8584320457063));
#614=CARTESIAN_POINT('',(2.15171902985487,0.,0.));
#615=CARTESIAN_POINT('',(3.33035532879198,0.,0.));
#616=CARTESIAN_POINT('',(1.15552433176312,0.,0.));
#617=CARTESIAN_POINT('',(45.,0.,0.));
#618=CARTESIAN_POINT('',(45.,0.,22.5));
#619=CARTESIAN_POINT('',(45.,12.,0.));
#620=CARTESIAN_POINT('',(43.5,0.,0.));
#621=CARTESIAN_POINT('',(43.5,0.,24.));
#622=CARTESIAN_POINT('',(43.5,0.,0.));
#623=CARTESIAN_POINT('',(37.,0.,0.));
#624=CARTESIAN_POINT('',(37.,0.,24.));
#625=CARTESIAN_POINT('',(0.,0.,0.));
#626=CARTESIAN_POINT('',(36.1950648442795,0.,0.));
#627=CARTESIAN_POINT('',(36.1950648442795,0.,23.9347826086956));
#628=CARTESIAN_POINT('',(37.,0.,0.));
#629=CARTESIAN_POINT('',(19.8426806862254,0.,0.));
#630=CARTESIAN_POINT('',(19.8426806862254,0.,29.7428571428571));
#631=CARTESIAN_POINT('',(33.2972982836854,0.,0.));
#632=CARTESIAN_POINT('',(17.6002444199821,0.,0.));
#633=CARTESIAN_POINT('',(17.6002444199821,0.,30.75));
#634=CARTESIAN_POINT('',(17.6002444199821,0.,0.));
#635=CARTESIAN_POINT('',(1.5,0.,0.));
#636=CARTESIAN_POINT('',(1.5,0.,30.75));
#637=CARTESIAN_POINT('',(0.,0.,0.));
#638=CARTESIAN_POINT('',(0.7,0.,0.));
#639=CARTESIAN_POINT('',(0.7,0.,29.95));
#640=CARTESIAN_POINT('',(1.5,0.,0.));
#641=CARTESIAN_POINT('',(0.7,29.95,0.));
#642=CARTESIAN_POINT('',(9.04626965665285,0.,0.));
#643=CARTESIAN_POINT('',(9.04626965665285,0.,13.6169370560832));
#644=CARTESIAN_POINT('',(0.0729104718196628,0.,0.));
#645=CARTESIAN_POINT('',(0.0729104718196628,0.,29.4797587144833));
#646=CARTESIAN_POINT('',(0.0729104718196487,-29.4797469355533,0.0263529863359375));
#647=CARTESIAN_POINT('',(1.15552433176312,0.,0.));
#648=CARTESIAN_POINT('',(9.74015943228776,0.,0.));
#649=CARTESIAN_POINT('',(9.74015943228776,0.,13.6561429619345));
#650=CARTESIAN_POINT('',(9.04626965665285,-13.5935159740728,-0.798309621611074));
#651=CARTESIAN_POINT('',(1.15552433176312,0.,0.));
#652=CARTESIAN_POINT('',(10.9034917526227,0.,0.));
#653=CARTESIAN_POINT('',(10.9034917526227,0.,14.4281094374942));
#654=CARTESIAN_POINT('',(9.74015943228776,-13.6274936034697,-0.884114632944264));
#655=CARTESIAN_POINT('',(1.15552433176312,0.,0.));
#656=CARTESIAN_POINT('',(20.0576915897869,0.,0.));
#657=CARTESIAN_POINT('',(20.0576915897869,0.,30.2313329960695));
#658=CARTESIAN_POINT('',(10.9034917526227,-14.3905569155004,-1.04029495915985));
#659=CARTESIAN_POINT('',(1.15552433176312,0.,0.));
#660=CARTESIAN_POINT('',(19.6802577834054,0.,0.));
#661=CARTESIAN_POINT('',(19.6802577834054,0.,30.8150397087066));
#662=CARTESIAN_POINT('',(20.0576915897869,-30.1327661165973,-2.43924186617167));
#663=CARTESIAN_POINT('',(1.15552433176312,0.,0.));
#664=CARTESIAN_POINT('',(18.4404421013502,0.,0.));
#665=CARTESIAN_POINT('',(18.4404421013502,0.,31.4374378598656));
#666=CARTESIAN_POINT('',(19.6802577834054,-30.7211894486817,-2.40316273010674));
#667=CARTESIAN_POINT('',(1.15552433176312,0.,0.));
#668=CARTESIAN_POINT('',(0.312883079352964,0.,0.));
#669=CARTESIAN_POINT('',(0.312883079352964,0.,31.4999999841587));
#670=CARTESIAN_POINT('',(18.4404421013502,-31.355954842825,-2.26198918822176));
#671=CARTESIAN_POINT('',(1.15552433176312,0.,0.));
#672=CARTESIAN_POINT('',(-0.00357288990046178,0.,0.));
#673=CARTESIAN_POINT('',(-0.00357288990046178,0.,30.8775777263517));
#674=CARTESIAN_POINT('',(0.312883079352975,-31.4999766032084,-0.0383796732629392));
#675=CARTESIAN_POINT('',(1.15552433176312,0.,0.));
#676=CARTESIAN_POINT('',(-0.00357288990045952,-30.8775756417272,0.0113462020053295));
#677=CARTESIAN_POINT('',(1.15552433176312,0.,0.));
#678=(
GEOMETRIC_REPRESENTATION_CONTEXT(3)
GLOBAL_UNCERTAINTY_ASSIGNED_CONTEXT((#679))
GLOBAL_UNIT_ASSIGNED_CONTEXT((#685,#681,#680))
REPRESENTATION_CONTEXT('AFM90C-TP22-D063-A22-Z05',
'TOP_LEVEL_ASSEMBLY_PART')
);
#679=UNCERTAINTY_MEASURE_WITH_UNIT(LENGTH_MEASURE(2.E-5),#685,
'DISTANCE_ACCURACY_VALUE','Maximum Tolerance applied to model');
#680=(
NAMED_UNIT(*)
SI_UNIT($,.STERADIAN.)
SOLID_ANGLE_UNIT()
);
#681=(
CONVERSION_BASED_UNIT('DEGREE',#683)
NAMED_UNIT(#682)
PLANE_ANGLE_UNIT()
);
#682=DIMENSIONAL_EXPONENTS(0.,0.,0.,0.,0.,0.,0.);
#683=PLANE_ANGLE_MEASURE_WITH_UNIT(PLANE_ANGLE_MEASURE(0.0174532925),#684);
#684=(
NAMED_UNIT(*)
PLANE_ANGLE_UNIT()
SI_UNIT($,.RADIAN.)
);
#685=(
LENGTH_UNIT()
NAMED_UNIT(*)
SI_UNIT(.MILLI.,.METRE.)
);
ENDSEC;
END-ISO-10303-21;
