ISO-10303-21;
HEADER;
/* Generated by software containing ST-Developer
 * from STEP Tools, Inc. (www.steptools.com) 
 */
/* OPTION: using custom schema-name function */

FILE_DESCRIPTION(
/* description */ (''),
/* implementation_level */ '2;1');

FILE_NAME(
/* name */ 'model1_1.stp',
/* time_stamp */ '2023-11-06T15:11:31+03:00',
/* author */ (''),
/* organization */ (''),
/* preprocessor_version */ 'ST-DEVELOPER v19.4',
/* originating_system */ 'SIEMENS PLM Software NX2306.3001',
/* authorisation */ '');

FILE_SCHEMA (('AUTOMOTIVE_DESIGN { 1 0 10303 214 3 1 1 1 }'));
ENDSEC;

DATA;
#10=PROPERTY_DEFINITION_REPRESENTATION(#14,#12);
#11=PROPERTY_DEFINITION_REPRESENTATION(#15,#13);
#12=REPRESENTATION('',(#16),#465);
#13=REPRESENTATION('',(#17),#465);
#14=PROPERTY_DEFINITION('pmi validation property','',#21);
#15=PROPERTY_DEFINITION('pmi validation property','',#21);
#16=VALUE_REPRESENTATION_ITEM('number of annotations',COUNT_MEASURE(0.));
#17=VALUE_REPRESENTATION_ITEM('number of views',COUNT_MEASURE(0.));
#18=SHAPE_REPRESENTATION_RELATIONSHIP('None',
'relationship between model1_objects-None and model1_objects-None',#30,
#19);
#19=ADVANCED_BREP_SHAPE_REPRESENTATION('model1_objects-None',(#125,#126),
#465);
#20=SHAPE_DEFINITION_REPRESENTATION(#21,#30);
#21=PRODUCT_DEFINITION_SHAPE('','',#22);
#22=PRODUCT_DEFINITION(' ','',#24,#23);
#23=PRODUCT_DEFINITION_CONTEXT('part definition',#29,'design');
#24=PRODUCT_DEFINITION_FORMATION_WITH_SPECIFIED_SOURCE(' ',' ',#26,
 .NOT_KNOWN.);
#25=PRODUCT_RELATED_PRODUCT_CATEGORY('part','',(#26));
#26=PRODUCT('model1_objects','model1_objects',' ',(#27));
#27=PRODUCT_CONTEXT(' ',#29,'mechanical');
#28=APPLICATION_PROTOCOL_DEFINITION('international standard',
'automotive_design',2010,#29);
#29=APPLICATION_CONTEXT(
'core data for automotive mechanical design processes');
#30=SHAPE_REPRESENTATION('model1_objects-None',(#233),#465);
#31=OVER_RIDING_STYLED_ITEM('',(#60),#131,#57);
#32=OVER_RIDING_STYLED_ITEM('',(#61),#132,#57);
#33=OVER_RIDING_STYLED_ITEM('',(#62),#133,#57);
#34=OVER_RIDING_STYLED_ITEM('',(#63),#134,#57);
#35=OVER_RIDING_STYLED_ITEM('',(#64),#135,#57);
#36=OVER_RIDING_STYLED_ITEM('',(#65),#136,#57);
#37=OVER_RIDING_STYLED_ITEM('',(#66),#137,#57);
#38=OVER_RIDING_STYLED_ITEM('',(#67),#138,#57);
#39=OVER_RIDING_STYLED_ITEM('',(#68),#139,#57);
#40=COLOUR_RGB('Medium Steel',0.611764705882353,0.658823529411765,0.670588235294118);
#41=COLOUR_RGB('silver gray',0.6,0.6,0.6);
#42=SURFACE_OF_REVOLUTION('',#44,#43);
#43=AXIS1_PLACEMENT('',#457,#280);
#44=B_SPLINE_CURVE_WITH_KNOTS('',3,(#391,#392,#393,#394,#395,#396,#397,
#398,#399,#400,#401,#402,#403,#404,#405,#406,#407,#408,#409,#410,#411,#412,
#413,#414,#415,#416,#417,#418,#419,#420,#421,#422,#423,#424,#425,#426,#427,
#428,#429,#430,#431,#432,#433,#434,#435,#436,#437,#438,#439,#440,#441,#442,
#443,#444,#445,#446,#447,#448,#449,#450,#451,#452,#453,#454,#455,#456),
 .UNSPECIFIED.,.T.,.F.,(2,2,2,2,2,2,2,2,2,2,2,2,2,2,2,2,2,2,2,2,2,2,2,2,
2,2,2,2,2,2,2,2,2,2,2),(-0.03125,0.,0.03125,0.0625,0.09375,0.125,0.15625,
0.1875,0.21875,0.25,0.28125,0.3125,0.34375,0.375,0.40625,0.4375,0.46875,
0.5,0.53125,0.5625,0.59375,0.625,0.65625,0.6875,0.71875,0.75,0.78125,0.8125,
0.84375,0.875,0.90625,0.9375,0.96875,1.,1.03125),.UNSPECIFIED.);
#45=CONICAL_SURFACE('',#245,11.2628044170145,74.9999999999978);
#46=VERTEX_LOOP('',#209);
#47=PLANE('',#241);
#48=FACE_OUTER_BOUND('',#170,.T.);
#49=TOROIDAL_SURFACE('',#240,17.,1.);
#50=TOROIDAL_SURFACE('',#243,13.,5.);
#51=TOROIDAL_SURFACE('',#250,13.,5.);
#52=TOROIDAL_SURFACE('',#251,57.,40.);
#53=CYLINDRICAL_SURFACE('',#238,18.);
#54=CYLINDRICAL_SURFACE('',#248,18.);
#55=PRESENTATION_LAYER_ASSIGNMENT('1','Layer 1',(#125,#126));
#56=STYLED_ITEM('',(#58),#125);
#57=STYLED_ITEM('',(#59),#126);
#58=PRESENTATION_STYLE_ASSIGNMENT((#69));
#59=PRESENTATION_STYLE_ASSIGNMENT((#70));
#60=PRESENTATION_STYLE_ASSIGNMENT((#71));
#61=PRESENTATION_STYLE_ASSIGNMENT((#72));
#62=PRESENTATION_STYLE_ASSIGNMENT((#73));
#63=PRESENTATION_STYLE_ASSIGNMENT((#74));
#64=PRESENTATION_STYLE_ASSIGNMENT((#75));
#65=PRESENTATION_STYLE_ASSIGNMENT((#76));
#66=PRESENTATION_STYLE_ASSIGNMENT((#77));
#67=PRESENTATION_STYLE_ASSIGNMENT((#78));
#68=PRESENTATION_STYLE_ASSIGNMENT((#79));
#69=SURFACE_STYLE_USAGE(.BOTH.,#80);
#70=SURFACE_STYLE_USAGE(.BOTH.,#81);
#71=SURFACE_STYLE_USAGE(.BOTH.,#82);
#72=SURFACE_STYLE_USAGE(.BOTH.,#83);
#73=SURFACE_STYLE_USAGE(.BOTH.,#84);
#74=SURFACE_STYLE_USAGE(.BOTH.,#85);
#75=SURFACE_STYLE_USAGE(.BOTH.,#86);
#76=SURFACE_STYLE_USAGE(.BOTH.,#87);
#77=SURFACE_STYLE_USAGE(.BOTH.,#88);
#78=SURFACE_STYLE_USAGE(.BOTH.,#89);
#79=SURFACE_STYLE_USAGE(.BOTH.,#90);
#80=SURFACE_SIDE_STYLE('',(#91));
#81=SURFACE_SIDE_STYLE('',(#92));
#82=SURFACE_SIDE_STYLE('',(#93));
#83=SURFACE_SIDE_STYLE('',(#94));
#84=SURFACE_SIDE_STYLE('',(#95));
#85=SURFACE_SIDE_STYLE('',(#96));
#86=SURFACE_SIDE_STYLE('',(#97));
#87=SURFACE_SIDE_STYLE('',(#98));
#88=SURFACE_SIDE_STYLE('',(#99));
#89=SURFACE_SIDE_STYLE('',(#100));
#90=SURFACE_SIDE_STYLE('',(#101));
#91=SURFACE_STYLE_FILL_AREA(#102);
#92=SURFACE_STYLE_FILL_AREA(#103);
#93=SURFACE_STYLE_FILL_AREA(#104);
#94=SURFACE_STYLE_FILL_AREA(#105);
#95=SURFACE_STYLE_FILL_AREA(#106);
#96=SURFACE_STYLE_FILL_AREA(#107);
#97=SURFACE_STYLE_FILL_AREA(#108);
#98=SURFACE_STYLE_FILL_AREA(#109);
#99=SURFACE_STYLE_FILL_AREA(#110);
#100=SURFACE_STYLE_FILL_AREA(#111);
#101=SURFACE_STYLE_FILL_AREA(#112);
#102=FILL_AREA_STYLE('',(#113));
#103=FILL_AREA_STYLE('',(#114));
#104=FILL_AREA_STYLE('',(#115));
#105=FILL_AREA_STYLE('',(#116));
#106=FILL_AREA_STYLE('',(#117));
#107=FILL_AREA_STYLE('',(#118));
#108=FILL_AREA_STYLE('',(#119));
#109=FILL_AREA_STYLE('',(#120));
#110=FILL_AREA_STYLE('',(#121));
#111=FILL_AREA_STYLE('',(#122));
#112=FILL_AREA_STYLE('',(#123));
#113=FILL_AREA_STYLE_COLOUR('',#124);
#114=FILL_AREA_STYLE_COLOUR('',#40);
#115=FILL_AREA_STYLE_COLOUR('',#41);
#116=FILL_AREA_STYLE_COLOUR('',#41);
#117=FILL_AREA_STYLE_COLOUR('',#41);
#118=FILL_AREA_STYLE_COLOUR('',#41);
#119=FILL_AREA_STYLE_COLOUR('',#41);
#120=FILL_AREA_STYLE_COLOUR('',#41);
#121=FILL_AREA_STYLE_COLOUR('',#41);
#122=FILL_AREA_STYLE_COLOUR('',#41);
#123=FILL_AREA_STYLE_COLOUR('',#41);
#124=DRAUGHTING_PRE_DEFINED_COLOUR('yellow');
#125=MANIFOLD_SOLID_BREP('',#127);
#126=MANIFOLD_SOLID_BREP('',#128);
#127=CLOSED_SHELL('',(#129,#130));
#128=CLOSED_SHELL('',(#131,#132,#133,#134,#135,#136,#137,#138,#139));
#129=ADVANCED_FACE('',(#142,#143),#140,.F.);
#130=ADVANCED_FACE('',(#144,#145),#141,.F.);
#131=ADVANCED_FACE('',(#146,#147),#53,.T.);
#132=ADVANCED_FACE('',(#148,#149),#49,.T.);
#133=ADVANCED_FACE('',(#48),#47,.F.);
#134=ADVANCED_FACE('',(#150,#151),#50,.T.);
#135=ADVANCED_FACE('',(#152,#153),#45,.F.);
#136=ADVANCED_FACE('',(#154,#155),#42,.T.);
#137=ADVANCED_FACE('',(#156,#157),#54,.T.);
#138=ADVANCED_FACE('',(#158,#159),#51,.T.);
#139=ADVANCED_FACE('',(#160,#161),#52,.F.);
#140=(
BOUNDED_SURFACE()
B_SPLINE_SURFACE(3,3,((#296,#297,#298,#299,#300,#301,#302),(#303,#304,#305,
#306,#307,#308,#309),(#310,#311,#312,#313,#314,#315,#316),(#317,#318,#319,
#320,#321,#322,#323),(#324,#325,#326,#327,#328,#329,#330),(#331,#332,#333,
#334,#335,#336,#337),(#338,#339,#340,#341,#342,#343,#344)),
 .UNSPECIFIED.,.T.,.F.,.F.)
B_SPLINE_SURFACE_WITH_KNOTS((1,3,3,3,1),(4,3,4),(-0.5,0.,0.5,1.,1.5),(0.,
0.5,1.),.UNSPECIFIED.)
GEOMETRIC_REPRESENTATION_ITEM()
RATIONAL_B_SPLINE_SURFACE(((1.,0.563410192158556,0.563410192158556,1.,0.563410192158556,
0.563410192158556,1.),(0.333333333333334,0.187803397386186,0.187803397386186,
0.333333333333334,0.187803397386186,0.187803397386186,0.333333333333334),
(0.333333333333334,0.187803397386186,0.187803397386186,0.333333333333334,
0.187803397386186,0.187803397386186,0.333333333333334),(1.,0.563410192158556,
0.563410192158556,1.,0.563410192158556,0.563410192158556,1.),(0.333333333333334,
0.187803397386186,0.187803397386186,0.333333333333334,0.187803397386186,
0.187803397386186,0.333333333333334),(0.333333333333334,0.187803397386186,
0.187803397386186,0.333333333333334,0.187803397386186,0.187803397386186,
0.333333333333334),(1.,0.563410192158556,0.563410192158556,1.,0.563410192158556,
0.563410192158556,1.)))
REPRESENTATION_ITEM('')
SURFACE()
);
#141=(
BOUNDED_SURFACE()
B_SPLINE_SURFACE(3,3,((#345,#346,#347,#348),(#349,#350,#351,#352),(#353,
#354,#355,#356),(#357,#358,#359,#360),(#361,#362,#363,#364),(#365,#366,
#367,#368),(#369,#370,#371,#372)),.UNSPECIFIED.,.T.,.F.,.F.)
B_SPLINE_SURFACE_WITH_KNOTS((1,3,3,3,1),(4,4),(-0.5,0.,0.5,1.,1.5),(0.,
1.),.UNSPECIFIED.)
GEOMETRIC_REPRESENTATION_ITEM()
RATIONAL_B_SPLINE_SURFACE(((1.,0.841193917099356,0.841193917099356,1.),
(0.333333333333334,0.280397972366452,0.280397972366452,0.333333333333334),
(0.333333333333334,0.280397972366452,0.280397972366452,0.333333333333334),
(1.,0.841193917099356,0.841193917099356,1.),(0.333333333333334,0.280397972366452,
0.280397972366452,0.333333333333334),(0.333333333333334,0.280397972366452,
0.280397972366452,0.333333333333334),(1.,0.841193917099356,0.841193917099356,
1.)))
REPRESENTATION_ITEM('')
SURFACE()
);
#142=FACE_BOUND('',#162,.T.);
#143=FACE_BOUND('',#163,.T.);
#144=FACE_BOUND('',#164,.T.);
#145=FACE_BOUND('',#165,.T.);
#146=FACE_BOUND('',#166,.T.);
#147=FACE_BOUND('',#167,.T.);
#148=FACE_BOUND('',#168,.T.);
#149=FACE_BOUND('',#169,.T.);
#150=FACE_BOUND('',#171,.T.);
#151=FACE_BOUND('',#172,.T.);
#152=FACE_BOUND('',#173,.T.);
#153=FACE_BOUND('',#46,.T.);
#154=FACE_BOUND('',#174,.T.);
#155=FACE_BOUND('',#175,.T.);
#156=FACE_BOUND('',#176,.T.);
#157=FACE_BOUND('',#177,.T.);
#158=FACE_BOUND('',#178,.T.);
#159=FACE_BOUND('',#179,.T.);
#160=FACE_BOUND('',#180,.T.);
#161=FACE_BOUND('',#181,.T.);
#162=EDGE_LOOP('',(#182));
#163=EDGE_LOOP('',(#183));
#164=EDGE_LOOP('',(#184));
#165=EDGE_LOOP('',(#185));
#166=EDGE_LOOP('',(#186));
#167=EDGE_LOOP('',(#187));
#168=EDGE_LOOP('',(#188));
#169=EDGE_LOOP('',(#189));
#170=EDGE_LOOP('',(#190));
#171=EDGE_LOOP('',(#191));
#172=EDGE_LOOP('',(#192));
#173=EDGE_LOOP('',(#193));
#174=EDGE_LOOP('',(#194));
#175=EDGE_LOOP('',(#195));
#176=EDGE_LOOP('',(#196));
#177=EDGE_LOOP('',(#197));
#178=EDGE_LOOP('',(#198));
#179=EDGE_LOOP('',(#199));
#180=EDGE_LOOP('',(#200));
#181=EDGE_LOOP('',(#201));
#182=ORIENTED_EDGE('',*,*,#213,.T.);
#183=ORIENTED_EDGE('',*,*,#214,.F.);
#184=ORIENTED_EDGE('',*,*,#214,.T.);
#185=ORIENTED_EDGE('',*,*,#213,.F.);
#186=ORIENTED_EDGE('',*,*,#215,.T.);
#187=ORIENTED_EDGE('',*,*,#216,.F.);
#188=ORIENTED_EDGE('',*,*,#215,.F.);
#189=ORIENTED_EDGE('',*,*,#217,.T.);
#190=ORIENTED_EDGE('',*,*,#217,.F.);
#191=ORIENTED_EDGE('',*,*,#218,.F.);
#192=ORIENTED_EDGE('',*,*,#216,.T.);
#193=ORIENTED_EDGE('',*,*,#219,.T.);
#194=ORIENTED_EDGE('',*,*,#219,.F.);
#195=ORIENTED_EDGE('',*,*,#220,.T.);
#196=ORIENTED_EDGE('',*,*,#220,.F.);
#197=ORIENTED_EDGE('',*,*,#221,.T.);
#198=ORIENTED_EDGE('',*,*,#221,.F.);
#199=ORIENTED_EDGE('',*,*,#222,.T.);
#200=ORIENTED_EDGE('',*,*,#222,.F.);
#201=ORIENTED_EDGE('',*,*,#218,.T.);
#202=VERTEX_POINT('',#293);
#203=VERTEX_POINT('',#295);
#204=VERTEX_POINT('',#374);
#205=VERTEX_POINT('',#376);
#206=VERTEX_POINT('',#379);
#207=VERTEX_POINT('',#383);
#208=VERTEX_POINT('',#386);
#209=VERTEX_POINT('',#387);
#210=VERTEX_POINT('',#390);
#211=VERTEX_POINT('',#459);
#212=VERTEX_POINT('',#462);
#213=EDGE_CURVE('',#202,#202,#223,.T.);
#214=EDGE_CURVE('',#203,#203,#224,.T.);
#215=EDGE_CURVE('',#204,#204,#225,.T.);
#216=EDGE_CURVE('',#205,#205,#226,.T.);
#217=EDGE_CURVE('',#206,#206,#227,.T.);
#218=EDGE_CURVE('',#207,#207,#228,.T.);
#219=EDGE_CURVE('',#208,#208,#229,.T.);
#220=EDGE_CURVE('',#210,#210,#230,.T.);
#221=EDGE_CURVE('',#211,#211,#231,.T.);
#222=EDGE_CURVE('',#212,#212,#232,.T.);
#223=CIRCLE('',#234,5.);
#224=CIRCLE('',#235,5.);
#225=CIRCLE('',#236,18.);
#226=CIRCLE('',#237,18.);
#227=CIRCLE('',#239,17.);
#228=CIRCLE('',#242,17.8888888888889);
#229=CIRCLE('',#244,11.2628044170145);
#230=CIRCLE('',#246,18.);
#231=CIRCLE('',#247,18.);
#232=CIRCLE('',#249,17.8888888888889);
#233=AXIS2_PLACEMENT_3D('',#291,#252,#253);
#234=AXIS2_PLACEMENT_3D('',#292,#254,#255);
#235=AXIS2_PLACEMENT_3D('',#294,#256,#257);
#236=AXIS2_PLACEMENT_3D('',#373,#258,#259);
#237=AXIS2_PLACEMENT_3D('',#375,#260,#261);
#238=AXIS2_PLACEMENT_3D('',#377,#262,#263);
#239=AXIS2_PLACEMENT_3D('',#378,#264,#265);
#240=AXIS2_PLACEMENT_3D('',#380,#266,#267);
#241=AXIS2_PLACEMENT_3D('',#381,#268,#269);
#242=AXIS2_PLACEMENT_3D('',#382,#270,#271);
#243=AXIS2_PLACEMENT_3D('',#384,#272,#273);
#244=AXIS2_PLACEMENT_3D('',#385,#274,#275);
#245=AXIS2_PLACEMENT_3D('',#388,#276,#277);
#246=AXIS2_PLACEMENT_3D('',#389,#278,#279);
#247=AXIS2_PLACEMENT_3D('',#458,#281,#282);
#248=AXIS2_PLACEMENT_3D('',#460,#283,#284);
#249=AXIS2_PLACEMENT_3D('',#461,#285,#286);
#250=AXIS2_PLACEMENT_3D('',#463,#287,#288);
#251=AXIS2_PLACEMENT_3D('',#464,#289,#290);
#252=DIRECTION('',(0.,0.,1.));
#253=DIRECTION('',(1.,0.,0.));
#254=DIRECTION('',(-0.104528463267654,0.981604375945871,0.159770615229523));
#255=DIRECTION('',(0.994521895368273,0.103170777267232,0.0167925683316257));
#256=DIRECTION('',(-0.104528463267654,0.,0.994521895368273));
#257=DIRECTION('',(0.994521895368273,0.,0.104528463267654));
#258=DIRECTION('',(-1.,0.,0.));
#259=DIRECTION('',(0.,0.,1.));
#260=DIRECTION('',(-1.,0.,0.));
#261=DIRECTION('',(0.,0.,1.));
#262=DIRECTION('',(-1.,0.,0.));
#263=DIRECTION('',(0.,0.,1.));
#264=DIRECTION('',(-1.,0.,0.));
#265=DIRECTION('',(0.,0.,1.));
#266=DIRECTION('',(-1.,0.,0.));
#267=DIRECTION('',(0.,0.,1.));
#268=DIRECTION('',(-1.,0.,0.));
#269=DIRECTION('',(0.,0.,1.));
#270=DIRECTION('',(-1.,0.,0.));
#271=DIRECTION('',(0.,0.,1.));
#272=DIRECTION('',(-1.,0.,0.));
#273=DIRECTION('',(0.,0.,1.));
#274=DIRECTION('',(-1.,0.,0.));
#275=DIRECTION('',(0.,0.,1.));
#276=DIRECTION('',(-1.,0.,0.));
#277=DIRECTION('',(1.50611246647179E-18,0.,1.));
#278=DIRECTION('',(-1.,0.,0.));
#279=DIRECTION('',(0.,0.,1.));
#280=DIRECTION('',(-1.,0.,0.));
#281=DIRECTION('',(-1.,0.,0.));
#282=DIRECTION('',(0.,0.,1.));
#283=DIRECTION('',(-1.,0.,0.));
#284=DIRECTION('',(0.,0.,1.));
#285=DIRECTION('',(-1.,0.,0.));
#286=DIRECTION('',(0.,0.,1.));
#287=DIRECTION('',(-1.,0.,0.));
#288=DIRECTION('',(0.,0.,1.));
#289=DIRECTION('',(-1.,0.,0.));
#290=DIRECTION('',(0.,0.,1.));
#291=CARTESIAN_POINT('',(0.,0.,0.));
#292=CARTESIAN_POINT('',(4.97260947684137,0.10588097135692,15.0521407801602));
#293=CARTESIAN_POINT('',(9.94521895368274,0.621734857693082,15.1361036218183));
#294=CARTESIAN_POINT('',(4.97260947684137,-14.8396236,2.52264231633827));
#295=CARTESIAN_POINT('',(9.94521895368274,-14.8396236,3.04528463267654));
#296=CARTESIAN_POINT('',(9.94521895368274,-14.8396236,3.04528463267654));
#297=CARTESIAN_POINT('',(9.94521895368273,-18.2216275703171,-13.4351669463606));
#298=CARTESIAN_POINT('',(9.94521895368273,-3.92091125764201,-22.2970374062927));
#299=CARTESIAN_POINT('',(9.94521895368274,9.33188437718784,-11.9333197834672));
#300=CARTESIAN_POINT('',(9.94521895368273,22.5846800120177,-1.56960216064171));
#301=CARTESIAN_POINT('',(9.94521895368273,17.4314484702854,14.4456230885243));
#302=CARTESIAN_POINT('',(9.94521895368274,0.621734857693082,15.1361036218184));
#303=CARTESIAN_POINT('',(9.94521895368274,-4.83962359999999,3.04528463267654));
#304=CARTESIAN_POINT('',(9.94521895368272,-8.22162757031712,-2.32945967017529));
#305=CARTESIAN_POINT('',(9.94521895368272,-4.34428721693023,-7.35858076240169));
#306=CARTESIAN_POINT('',(9.94521895368274,1.7139756206975,-5.45508961020325));
#307=CARTESIAN_POINT('',(9.94521895368272,7.77223845832521,-3.55159845800479));
#308=CARTESIAN_POINT('',(9.94521895368272,8.07649635579522,2.79137042951988));
#309=CARTESIAN_POINT('',(9.94521895368274,2.22824162213551,5.26599034912482));
#310=CARTESIAN_POINT('',(-1.38414715812049E-15,-4.83962359999999,2.));
#311=CARTESIAN_POINT('',(-1.38414715812049E-15,-7.06076505523705,-3.37474430285182));
#312=CARTESIAN_POINT('',(-1.38414715812049E-15,-2.78279330035382,-7.31432592399282));
#313=CARTESIAN_POINT('',(-1.38414715812049E-15,2.39113506540293,-4.65880131457411));
#314=CARTESIAN_POINT('',(-1.38414715812049E-15,7.56506343115967,-2.00327670515538));
#315=CARTESIAN_POINT('',(-1.38414715812049E-15,6.85829523481652,3.76922919799002));
#316=CARTESIAN_POINT('',(-1.38414715812049E-15,1.19653384946318,5.09806466580856));
#317=CARTESIAN_POINT('',(-2.60208521396521E-15,-14.8396236,2.));
#318=CARTESIAN_POINT('',(-2.60208521396521E-15,-17.0607650552371,-14.4804515790372));
#319=CARTESIAN_POINT('',(-2.60208521396521E-15,-2.35941734106561,-22.2527825678839));
#320=CARTESIAN_POINT('',(-2.60208521396521E-15,10.0090438218933,-11.1370314878381));
#321=CARTESIAN_POINT('',(-2.60208521396521E-15,22.3775049848522,-0.021280407792295));
#322=CARTESIAN_POINT('',(-2.60208521396521E-15,16.2132473493067,15.4234818569945));
#323=CARTESIAN_POINT('',(-2.60208521396521E-15,-0.409972914979243,14.9681779385021));
#324=CARTESIAN_POINT('',(-3.82002326980992E-15,-24.8396236,2.));
#325=CARTESIAN_POINT('',(-3.82002326980992E-15,-27.0607650552371,-25.5861588552225));
#326=CARTESIAN_POINT('',(-3.82002326980992E-15,-1.93604138177739,-37.1912392117749));
#327=CARTESIAN_POINT('',(-3.82002326980992E-15,17.6269525783836,-17.6152616611021));
#328=CARTESIAN_POINT('',(-3.82002326980992E-15,37.1899465385446,1.9607158895708));
#329=CARTESIAN_POINT('',(-3.82002326980992E-15,25.5681994637968,27.0777345159989));
#330=CARTESIAN_POINT('',(-3.82002326980992E-15,-2.01647967942167,24.8382912111956));
#331=CARTESIAN_POINT('',(9.94521895368274,-24.8396236,3.04528463267654));
#332=CARTESIAN_POINT('',(9.94521895368272,-28.2216275703171,-24.540874222546));
#333=CARTESIAN_POINT('',(9.94521895368272,-3.49753529835379,-37.2354940501838));
#334=CARTESIAN_POINT('',(9.94521895368274,16.9497931336782,-18.4115499567312));
#335=CARTESIAN_POINT('',(9.94521895368272,37.3971215657101,0.412394136721387));
#336=CARTESIAN_POINT('',(9.94521895368272,26.7864005847755,26.0998757475288));
#337=CARTESIAN_POINT('',(9.94521895368274,-0.984771906749344,25.0062168945118));
#338=CARTESIAN_POINT('',(9.94521895368274,-14.8396236,3.04528463267654));
#339=CARTESIAN_POINT('',(9.94521895368273,-18.2216275703171,-13.4351669463606));
#340=CARTESIAN_POINT('',(9.94521895368273,-3.92091125764201,-22.2970374062927));
#341=CARTESIAN_POINT('',(9.94521895368274,9.33188437718784,-11.9333197834672));
#342=CARTESIAN_POINT('',(9.94521895368273,22.5846800120177,-1.56960216064171));
#343=CARTESIAN_POINT('',(9.94521895368273,17.4314484702854,14.4456230885243));
#344=CARTESIAN_POINT('',(9.94521895368274,0.621734857693082,15.1361036218184));
#345=CARTESIAN_POINT('',(9.94521895368274,0.621734857693083,15.1361036218184));
#346=CARTESIAN_POINT('',(9.94521895368274,-7.14937563936743,15.4553119464787));
#347=CARTESIAN_POINT('',(9.94521895368274,-13.2761272097258,10.6641776854537));
#348=CARTESIAN_POINT('',(9.94521895368274,-14.8396236,3.04528463267654));
#349=CARTESIAN_POINT('',(9.94521895368274,2.22824162213551,5.26599034912482));
#350=CARTESIAN_POINT('',(9.94521895368273,-0.475399546157911,6.41000417807377));
#351=CARTESIAN_POINT('',(9.94521895368273,-3.27612720972576,5.53002249517167));
#352=CARTESIAN_POINT('',(9.94521895368274,-4.83962359999999,3.04528463267654));
#353=CARTESIAN_POINT('',(-1.38414715812049E-15,1.19653384946318,5.09806466580856));
#354=CARTESIAN_POINT('',(-1.38414715812049E-15,-1.42089166697226,5.71238371316552));
#355=CARTESIAN_POINT('',(-1.38414715812049E-15,-3.81279256194359,4.48473786249513));
#356=CARTESIAN_POINT('',(-1.38414715812049E-15,-4.83962359999999,2.));
#357=CARTESIAN_POINT('',(-2.60208521396521E-15,-0.409972914979243,14.9681779385021));
#358=CARTESIAN_POINT('',(-2.60208521396521E-15,-8.09486776018177,14.7576914815705));
#359=CARTESIAN_POINT('',(-2.60208521396521E-15,-13.8127925619436,9.61889305277715));
#360=CARTESIAN_POINT('',(-2.60208521396521E-15,-14.8396236,2.));
#361=CARTESIAN_POINT('',(-3.82002326980992E-15,-2.01647967942167,24.8382912111956));
#362=CARTESIAN_POINT('',(-3.82002326980992E-15,-14.7688438533913,23.8029992499755));
#363=CARTESIAN_POINT('',(-3.82002326980992E-15,-23.8127925619436,14.7530482430592));
#364=CARTESIAN_POINT('',(-3.82002326980992E-15,-24.8396236,2.));
#365=CARTESIAN_POINT('',(9.94521895368274,-0.984771906749342,25.0062168945118));
#366=CARTESIAN_POINT('',(9.94521895368273,-13.8233517325769,24.5006197148837));
#367=CARTESIAN_POINT('',(9.94521895368273,-23.2761272097258,15.7983328757357));
#368=CARTESIAN_POINT('',(9.94521895368274,-24.8396236,3.04528463267654));
#369=CARTESIAN_POINT('',(9.94521895368274,0.621734857693083,15.1361036218184));
#370=CARTESIAN_POINT('',(9.94521895368274,-7.14937563936743,15.4553119464787));
#371=CARTESIAN_POINT('',(9.94521895368274,-13.2761272097258,10.6641776854537));
#372=CARTESIAN_POINT('',(9.94521895368274,-14.8396236,3.04528463267654));
#373=CARTESIAN_POINT('',(39.,0.,0.));
#374=CARTESIAN_POINT('',(39.,0.,18.));
#375=CARTESIAN_POINT('',(33.,0.,0.));
#376=CARTESIAN_POINT('',(33.,0.,18.));
#377=CARTESIAN_POINT('',(0.,0.,0.));
#378=CARTESIAN_POINT('',(40.,0.,0.));
#379=CARTESIAN_POINT('',(40.,0.,17.));
#380=CARTESIAN_POINT('',(39.,0.,0.));
#381=CARTESIAN_POINT('',(40.,9.,0.));
#382=CARTESIAN_POINT('',(31.951779874216,0.,0.));
#383=CARTESIAN_POINT('',(31.951779874216,0.,17.8888888888889));
#384=CARTESIAN_POINT('',(33.,0.,0.));
#385=CARTESIAN_POINT('',(2.99999999999977,0.,0.));
#386=CARTESIAN_POINT('',(2.99999999999977,0.,11.2628044170145));
#387=CARTESIAN_POINT('',(6.01785934804895,0.,0.));
#388=CARTESIAN_POINT('',(2.99999999999977,0.,0.));
#389=CARTESIAN_POINT('',(8.48407463069729,0.,0.));
#390=CARTESIAN_POINT('',(8.48407463069729,0.,18.));
#391=CARTESIAN_POINT('',(0.999214567606951,15.2490965675233,0.));
#392=CARTESIAN_POINT('',(0.999214567606951,14.6690997098321,0.));
#393=CARTESIAN_POINT('',(1.02782670274358,14.3822257626826,0.));
#394=CARTESIAN_POINT('',(1.14161649580028,13.8146307684051,0.));
#395=CARTESIAN_POINT('',(1.22603726557996,13.5390349847722,0.));
#396=CARTESIAN_POINT('',(1.44515150615783,13.0111801589141,0.));
#397=CARTESIAN_POINT('',(1.5814016857148,12.7557388243207,0.));
#398=CARTESIAN_POINT('',(1.90147670778339,12.2753879919846,0.));
#399=CARTESIAN_POINT('',(2.08247135039424,12.0538647168467,0.));
#400=CARTESIAN_POINT('',(2.48511592295294,11.6470019424977,0.));
#401=CARTESIAN_POINT('',(2.70947193887572,11.4601400338565,0.));
#402=CARTESIAN_POINT('',(3.18400295720475,11.1369254917811,0.));
#403=CARTESIAN_POINT('',(3.43460194814952,10.9992520952601,0.));
#404=CARTESIAN_POINT('',(3.96264341446846,10.7720899098481,0.));
#405=CARTESIAN_POINT('',(4.24042180402232,10.6833158360222,0.));
#406=CARTESIAN_POINT('',(4.79993579081163,10.562640259371,0.));
#407=CARTESIAN_POINT('',(5.08451184301225,10.5293068113992,0.));
#408=CARTESIAN_POINT('',(5.663772266797,10.5192834444157,0.));
#409=CARTESIAN_POINT('',(5.95017195869169,10.5428651270732,0.));
#410=CARTESIAN_POINT('',(6.51305228463129,10.6454399464173,0.));
#411=CARTESIAN_POINT('',(6.79312563470028,10.7257612492232,0.));
#412=CARTESIAN_POINT('',(7.32742329558528,10.9393008463866,0.));
#413=CARTESIAN_POINT('',(7.58098904442995,11.0714104312777,0.));
#414=CARTESIAN_POINT('',(8.06107925111248,11.3860762195763,0.));
#415=CARTESIAN_POINT('',(8.28811505766177,11.5700953807827,0.));
#416=CARTESIAN_POINT('',(8.69452601133951,11.9731491481311,0.));
#417=CARTESIAN_POINT('',(8.87680077535062,12.1937258282172,0.));
#418=CARTESIAN_POINT('',(9.1985146301013,12.6738654790959,0.));
#419=CARTESIAN_POINT('',(9.33438200032255,12.9287822434987,0.));
#420=CARTESIAN_POINT('',(9.55272733928563,13.4570214657732,0.));
#421=CARTESIAN_POINT('',(9.63668043587569,13.734257649916,0.));
#422=CARTESIAN_POINT('',(9.74847316498113,14.3004484008147,0.));
#423=CARTESIAN_POINT('',(9.77599183041653,14.5851503032362,0.));
#424=CARTESIAN_POINT('',(9.77592888501974,15.1576734617532,0.));
#425=CARTESIAN_POINT('',(9.74744467564695,15.4484416496139,0.));
#426=CARTESIAN_POINT('',(9.63611321147201,16.011351831068,0.));
#427=CARTESIAN_POINT('',(9.55385913609739,16.2851053831723,0.));
#428=CARTESIAN_POINT('',(9.33596372742949,16.8171484163638,0.));
#429=CARTESIAN_POINT('',(9.19970245266689,17.0748685269251,0.));
#430=CARTESIAN_POINT('',(8.8847351371051,17.5524434379781,0.));
#431=CARTESIAN_POINT('',(8.70496151459465,17.7753558491038,0.));
#432=CARTESIAN_POINT('',(8.29916846300628,18.188244135048,0.));
#433=CARTESIAN_POINT('',(8.07833348324009,18.3726827591154,0.));
#434=CARTESIAN_POINT('',(7.60629673172297,18.6954668799207,0.));
#435=CARTESIAN_POINT('',(7.35177493649069,18.8355398574717,0.));
#436=CARTESIAN_POINT('',(6.82207627585432,19.0624203299112,0.));
#437=CARTESIAN_POINT('',(6.54943580933563,19.148827415429,0.));
#438=CARTESIAN_POINT('',(5.9887640150566,19.2682394303897,0.));
#439=CARTESIAN_POINT('',(5.69826859501176,19.3008259293882,0.));
#440=CARTESIAN_POINT('',(5.12515548311693,19.3084257807723,0.));
#441=CARTESIAN_POINT('',(4.84012397748065,19.2843988866797,0.));
#442=CARTESIAN_POINT('',(4.2731765856582,19.1794959700924,0.));
#443=CARTESIAN_POINT('',(3.99439590611812,19.098589701675,0.));
#444=CARTESIAN_POINT('',(3.46346291497341,18.886117568715,0.));
#445=CARTESIAN_POINT('',(3.20719258951936,18.7531844645462,0.));
#446=CARTESIAN_POINT('',(2.72320192910806,18.4369333183944,0.));
#447=CARTESIAN_POINT('',(2.50039505215258,18.257237499351,0.));
#448=CARTESIAN_POINT('',(2.09211839016263,17.8558742522998,0.));
#449=CARTESIAN_POINT('',(1.90509321452353,17.6313837099028,0.));
#450=CARTESIAN_POINT('',(1.58350118695185,17.1559160333804,0.));
#451=CARTESIAN_POINT('',(1.44749014722016,16.9044465150949,0.));
#452=CARTESIAN_POINT('',(1.2253160029409,16.3738820597493,0.));
#453=CARTESIAN_POINT('',(1.14016820824397,16.0951390376237,0.));
#454=CARTESIAN_POINT('',(1.02782397378483,15.5342332854445,0.));
#455=CARTESIAN_POINT('',(0.999214567606951,15.2490965675233,0.));
#456=CARTESIAN_POINT('',(0.999214567606951,14.6690997098321,0.));
#457=CARTESIAN_POINT('',(0.,0.,0.));
#458=CARTESIAN_POINT('',(14.1320377358867,0.,0.));
#459=CARTESIAN_POINT('',(14.1320377358867,0.,18.));
#460=CARTESIAN_POINT('',(0.,0.,0.));
#461=CARTESIAN_POINT('',(15.1802578616708,0.,0.));
#462=CARTESIAN_POINT('',(15.1802578616708,0.,17.8888888888889));
#463=CARTESIAN_POINT('',(14.1320377358867,0.,0.));
#464=CARTESIAN_POINT('',(23.5660188679434,0.,0.));
#465=(
GEOMETRIC_REPRESENTATION_CONTEXT(3)
GLOBAL_UNCERTAINTY_ASSIGNED_CONTEXT((#466))
GLOBAL_UNIT_ASSIGNED_CONTEXT((#472,#468,#467))
REPRESENTATION_CONTEXT('model1_1','TOP_LEVEL_ASSEMBLY_PART')
);
#466=UNCERTAINTY_MEASURE_WITH_UNIT(LENGTH_MEASURE(2.E-5),#472,
'DISTANCE_ACCURACY_VALUE','Maximum Tolerance applied to model');
#467=(
NAMED_UNIT(*)
SI_UNIT($,.STERADIAN.)
SOLID_ANGLE_UNIT()
);
#468=(
CONVERSION_BASED_UNIT('DEGREE',#470)
NAMED_UNIT(#469)
PLANE_ANGLE_UNIT()
);
#469=DIMENSIONAL_EXPONENTS(0.,0.,0.,0.,0.,0.,0.);
#470=PLANE_ANGLE_MEASURE_WITH_UNIT(PLANE_ANGLE_MEASURE(0.0174532925),#471);
#471=(
NAMED_UNIT(*)
PLANE_ANGLE_UNIT()
SI_UNIT($,.RADIAN.)
);
#472=(
LENGTH_UNIT()
NAMED_UNIT(*)
SI_UNIT(.MILLI.,.METRE.)
);
ENDSEC;
END-ISO-10303-21;
