ISO-10303-21;
HEADER;
/* Generated by software containing ST-Developer
 * from STEP Tools, Inc. (www.steptools.com) 
 */
/* OPTION: using custom schema-name function */

FILE_DESCRIPTION(
/* description */ (''),
/* implementation_level */ '2;1');

FILE_NAME(
/* name */ 'model1.stp',
/* time_stamp */ '2023-11-03T12:16:26+03:00',
/* author */ (''),
/* organization */ (''),
/* preprocessor_version */ 'ST-DEVELOPER v19.4',
/* originating_system */ 'SIEMENS PLM Software NX2306.3001',
/* authorisation */ '');

FILE_SCHEMA (('AUTOMOTIVE_DESIGN { 1 0 10303 214 3 1 1 1 }'));
ENDSEC;

DATA;
#10=PROPERTY_DEFINITION_REPRESENTATION(#14,#12);
#11=PROPERTY_DEFINITION_REPRESENTATION(#15,#13);
#12=REPRESENTATION('',(#16),#492);
#13=REPRESENTATION('',(#17),#492);
#14=PROPERTY_DEFINITION('pmi validation property','',#21);
#15=PROPERTY_DEFINITION('pmi validation property','',#21);
#16=VALUE_REPRESENTATION_ITEM('number of annotations',COUNT_MEASURE(0.));
#17=VALUE_REPRESENTATION_ITEM('number of views',COUNT_MEASURE(0.));
#18=SHAPE_REPRESENTATION_RELATIONSHIP('None',
'relationship between model1_objects-None and model1_objects-None',#30,
#19);
#19=ADVANCED_BREP_SHAPE_REPRESENTATION('model1_objects-None',(#133,#134),
#492);
#20=SHAPE_DEFINITION_REPRESENTATION(#21,#30);
#21=PRODUCT_DEFINITION_SHAPE('','',#22);
#22=PRODUCT_DEFINITION(' ','',#24,#23);
#23=PRODUCT_DEFINITION_CONTEXT('part definition',#29,'design');
#24=PRODUCT_DEFINITION_FORMATION_WITH_SPECIFIED_SOURCE(' ',' ',#26,
 .NOT_KNOWN.);
#25=PRODUCT_RELATED_PRODUCT_CATEGORY('part','',(#26));
#26=PRODUCT('model1_objects','model1_objects',' ',(#27));
#27=PRODUCT_CONTEXT(' ',#29,'mechanical');
#28=APPLICATION_PROTOCOL_DEFINITION('international standard',
'automotive_design',2010,#29);
#29=APPLICATION_CONTEXT(
'core data for automotive mechanical design processes');
#30=SHAPE_REPRESENTATION('model1_objects-None',(#251),#492);
#31=OVER_RIDING_STYLED_ITEM('',(#62),#139,#59);
#32=OVER_RIDING_STYLED_ITEM('',(#63),#140,#59);
#33=OVER_RIDING_STYLED_ITEM('',(#64),#141,#59);
#34=OVER_RIDING_STYLED_ITEM('',(#65),#142,#59);
#35=OVER_RIDING_STYLED_ITEM('',(#66),#143,#59);
#36=OVER_RIDING_STYLED_ITEM('',(#67),#144,#59);
#37=OVER_RIDING_STYLED_ITEM('',(#68),#145,#59);
#38=OVER_RIDING_STYLED_ITEM('',(#69),#146,#59);
#39=OVER_RIDING_STYLED_ITEM('',(#70),#147,#59);
#40=OVER_RIDING_STYLED_ITEM('',(#71),#148,#59);
#41=COLOUR_RGB('Medium Steel',0.611764705882353,0.658823529411765,0.670588235294118);
#42=COLOUR_RGB('silver gray',0.6,0.6,0.6);
#43=VERTEX_LOOP('',#228);
#44=SURFACE_OF_REVOLUTION('',#46,#45);
#45=AXIS1_PLACEMENT('',#489,#312);
#46=B_SPLINE_CURVE_WITH_KNOTS('',3,(#423,#424,#425,#426,#427,#428,#429,
#430,#431,#432,#433,#434,#435,#436,#437,#438,#439,#440,#441,#442,#443,#444,
#445,#446,#447,#448,#449,#450,#451,#452,#453,#454,#455,#456,#457,#458,#459,
#460,#461,#462,#463,#464,#465,#466,#467,#468,#469,#470,#471,#472,#473,#474,
#475,#476,#477,#478,#479,#480,#481,#482,#483,#484,#485,#486,#487,#488),
 .UNSPECIFIED.,.T.,.F.,(2,2,2,2,2,2,2,2,2,2,2,2,2,2,2,2,2,2,2,2,2,2,2,2,
2,2,2,2,2,2,2,2,2,2,2),(-0.03125,0.,0.03125,0.0625,0.09375,0.125,0.15625,
0.1875,0.21875,0.25,0.28125,0.3125,0.34375,0.375,0.40625,0.4375,0.46875,
0.5,0.53125,0.5625,0.59375,0.625,0.65625,0.6875,0.71875,0.75,0.78125,0.8125,
0.84375,0.875,0.90625,0.9375,0.96875,1.,1.03125),.UNSPECIFIED.);
#47=CONICAL_SURFACE('',#261,24.,30.);
#48=CONICAL_SURFACE('',#271,22.7581044658419,74.9999999999996);
#49=TOROIDAL_SURFACE('',#259,22.5,1.5);
#50=TOROIDAL_SURFACE('',#265,73.8,50.);
#51=TOROIDAL_SURFACE('',#267,24.5,5.);
#52=PLANE('',#258);
#53=FACE_OUTER_BOUND('',#179,.T.);
#54=CYLINDRICAL_SURFACE('',#256,24.);
#55=CYLINDRICAL_SURFACE('',#263,23.8);
#56=CYLINDRICAL_SURFACE('',#269,29.5);
#57=PRESENTATION_LAYER_ASSIGNMENT('1','Layer 1',(#133,#134));
#58=STYLED_ITEM('',(#60),#133);
#59=STYLED_ITEM('',(#61),#134);
#60=PRESENTATION_STYLE_ASSIGNMENT((#72));
#61=PRESENTATION_STYLE_ASSIGNMENT((#73));
#62=PRESENTATION_STYLE_ASSIGNMENT((#74));
#63=PRESENTATION_STYLE_ASSIGNMENT((#75));
#64=PRESENTATION_STYLE_ASSIGNMENT((#76));
#65=PRESENTATION_STYLE_ASSIGNMENT((#77));
#66=PRESENTATION_STYLE_ASSIGNMENT((#78));
#67=PRESENTATION_STYLE_ASSIGNMENT((#79));
#68=PRESENTATION_STYLE_ASSIGNMENT((#80));
#69=PRESENTATION_STYLE_ASSIGNMENT((#81));
#70=PRESENTATION_STYLE_ASSIGNMENT((#82));
#71=PRESENTATION_STYLE_ASSIGNMENT((#83));
#72=SURFACE_STYLE_USAGE(.BOTH.,#84);
#73=SURFACE_STYLE_USAGE(.BOTH.,#85);
#74=SURFACE_STYLE_USAGE(.BOTH.,#86);
#75=SURFACE_STYLE_USAGE(.BOTH.,#87);
#76=SURFACE_STYLE_USAGE(.BOTH.,#88);
#77=SURFACE_STYLE_USAGE(.BOTH.,#89);
#78=SURFACE_STYLE_USAGE(.BOTH.,#90);
#79=SURFACE_STYLE_USAGE(.BOTH.,#91);
#80=SURFACE_STYLE_USAGE(.BOTH.,#92);
#81=SURFACE_STYLE_USAGE(.BOTH.,#93);
#82=SURFACE_STYLE_USAGE(.BOTH.,#94);
#83=SURFACE_STYLE_USAGE(.BOTH.,#95);
#84=SURFACE_SIDE_STYLE('',(#96));
#85=SURFACE_SIDE_STYLE('',(#97));
#86=SURFACE_SIDE_STYLE('',(#98));
#87=SURFACE_SIDE_STYLE('',(#99));
#88=SURFACE_SIDE_STYLE('',(#100));
#89=SURFACE_SIDE_STYLE('',(#101));
#90=SURFACE_SIDE_STYLE('',(#102));
#91=SURFACE_SIDE_STYLE('',(#103));
#92=SURFACE_SIDE_STYLE('',(#104));
#93=SURFACE_SIDE_STYLE('',(#105));
#94=SURFACE_SIDE_STYLE('',(#106));
#95=SURFACE_SIDE_STYLE('',(#107));
#96=SURFACE_STYLE_FILL_AREA(#108);
#97=SURFACE_STYLE_FILL_AREA(#109);
#98=SURFACE_STYLE_FILL_AREA(#110);
#99=SURFACE_STYLE_FILL_AREA(#111);
#100=SURFACE_STYLE_FILL_AREA(#112);
#101=SURFACE_STYLE_FILL_AREA(#113);
#102=SURFACE_STYLE_FILL_AREA(#114);
#103=SURFACE_STYLE_FILL_AREA(#115);
#104=SURFACE_STYLE_FILL_AREA(#116);
#105=SURFACE_STYLE_FILL_AREA(#117);
#106=SURFACE_STYLE_FILL_AREA(#118);
#107=SURFACE_STYLE_FILL_AREA(#119);
#108=FILL_AREA_STYLE('',(#120));
#109=FILL_AREA_STYLE('',(#121));
#110=FILL_AREA_STYLE('',(#122));
#111=FILL_AREA_STYLE('',(#123));
#112=FILL_AREA_STYLE('',(#124));
#113=FILL_AREA_STYLE('',(#125));
#114=FILL_AREA_STYLE('',(#126));
#115=FILL_AREA_STYLE('',(#127));
#116=FILL_AREA_STYLE('',(#128));
#117=FILL_AREA_STYLE('',(#129));
#118=FILL_AREA_STYLE('',(#130));
#119=FILL_AREA_STYLE('',(#131));
#120=FILL_AREA_STYLE_COLOUR('',#132);
#121=FILL_AREA_STYLE_COLOUR('',#41);
#122=FILL_AREA_STYLE_COLOUR('',#42);
#123=FILL_AREA_STYLE_COLOUR('',#42);
#124=FILL_AREA_STYLE_COLOUR('',#42);
#125=FILL_AREA_STYLE_COLOUR('',#42);
#126=FILL_AREA_STYLE_COLOUR('',#42);
#127=FILL_AREA_STYLE_COLOUR('',#42);
#128=FILL_AREA_STYLE_COLOUR('',#42);
#129=FILL_AREA_STYLE_COLOUR('',#42);
#130=FILL_AREA_STYLE_COLOUR('',#42);
#131=FILL_AREA_STYLE_COLOUR('',#42);
#132=DRAUGHTING_PRE_DEFINED_COLOUR('yellow');
#133=MANIFOLD_SOLID_BREP('',#135);
#134=MANIFOLD_SOLID_BREP('',#136);
#135=CLOSED_SHELL('',(#137,#138));
#136=CLOSED_SHELL('',(#139,#140,#141,#142,#143,#144,#145,#146,#147,#148));
#137=ADVANCED_FACE('',(#151,#152),#149,.F.);
#138=ADVANCED_FACE('',(#153,#154),#150,.F.);
#139=ADVANCED_FACE('',(#155,#156),#54,.T.);
#140=ADVANCED_FACE('',(#53),#52,.F.);
#141=ADVANCED_FACE('',(#157,#158),#49,.T.);
#142=ADVANCED_FACE('',(#159,#160),#47,.T.);
#143=ADVANCED_FACE('',(#161,#162),#55,.T.);
#144=ADVANCED_FACE('',(#163,#164),#50,.F.);
#145=ADVANCED_FACE('',(#165,#166),#51,.T.);
#146=ADVANCED_FACE('',(#167,#168),#56,.T.);
#147=ADVANCED_FACE('',(#169,#170),#44,.T.);
#148=ADVANCED_FACE('',(#171,#172),#48,.F.);
#149=(
BOUNDED_SURFACE()
B_SPLINE_SURFACE(3,3,((#320,#321,#322,#323,#324,#325,#326),(#327,#328,#329,
#330,#331,#332,#333),(#334,#335,#336,#337,#338,#339,#340),(#341,#342,#343,
#344,#345,#346,#347),(#348,#349,#350,#351,#352,#353,#354),(#355,#356,#357,
#358,#359,#360,#361),(#362,#363,#364,#365,#366,#367,#368)),
 .UNSPECIFIED.,.T.,.F.,.F.)
B_SPLINE_SURFACE_WITH_KNOTS((1,3,3,3,1),(4,3,4),(-0.5,0.,0.5,1.,1.5),(0.,
0.5,1.),.UNSPECIFIED.)
GEOMETRIC_REPRESENTATION_ITEM()
RATIONAL_B_SPLINE_SURFACE(((1.,0.57323725403527,0.57323725403527,1.,0.57323725403527,
0.57323725403527,1.),(0.333333333333334,0.191079084678423,0.191079084678423,
0.333333333333334,0.191079084678423,0.191079084678423,0.333333333333334),
(0.333333333333334,0.191079084678423,0.191079084678423,0.333333333333334,
0.191079084678423,0.191079084678423,0.333333333333334),(1.,0.57323725403527,
0.57323725403527,1.,0.57323725403527,0.57323725403527,1.),(0.333333333333334,
0.191079084678423,0.191079084678423,0.333333333333334,0.191079084678423,
0.191079084678423,0.333333333333334),(0.333333333333334,0.191079084678423,
0.191079084678423,0.333333333333334,0.191079084678423,0.191079084678423,
0.333333333333334),(1.,0.57323725403527,0.57323725403527,1.,0.57323725403527,
0.57323725403527,1.)))
REPRESENTATION_ITEM('')
SURFACE()
);
#150=(
BOUNDED_SURFACE()
B_SPLINE_SURFACE(3,3,((#369,#370,#371,#372),(#373,#374,#375,#376),(#377,
#378,#379,#380),(#381,#382,#383,#384),(#385,#386,#387,#388),(#389,#390,
#391,#392),(#393,#394,#395,#396)),.UNSPECIFIED.,.T.,.F.,.F.)
B_SPLINE_SURFACE_WITH_KNOTS((1,3,3,3,1),(4,4),(-0.5,0.,0.5,1.,1.5),(0.,
1.),.UNSPECIFIED.)
GEOMETRIC_REPRESENTATION_ITEM()
RATIONAL_B_SPLINE_SURFACE(((1.,0.827338326495516,0.827338326495516,1.),
(0.333333333333334,0.275779442165172,0.275779442165172,0.333333333333334),
(0.333333333333334,0.275779442165172,0.275779442165172,0.333333333333334),
(1.,0.827338326495516,0.827338326495516,1.),(0.333333333333334,0.275779442165172,
0.275779442165172,0.333333333333334),(0.333333333333334,0.275779442165172,
0.275779442165172,0.333333333333334),(1.,0.827338326495516,0.827338326495516,
1.)))
REPRESENTATION_ITEM('')
SURFACE()
);
#151=FACE_BOUND('',#173,.T.);
#152=FACE_BOUND('',#174,.T.);
#153=FACE_BOUND('',#175,.T.);
#154=FACE_BOUND('',#176,.T.);
#155=FACE_BOUND('',#177,.T.);
#156=FACE_BOUND('',#178,.T.);
#157=FACE_BOUND('',#180,.T.);
#158=FACE_BOUND('',#181,.T.);
#159=FACE_BOUND('',#182,.T.);
#160=FACE_BOUND('',#183,.T.);
#161=FACE_BOUND('',#184,.T.);
#162=FACE_BOUND('',#185,.T.);
#163=FACE_BOUND('',#186,.T.);
#164=FACE_BOUND('',#187,.T.);
#165=FACE_BOUND('',#188,.T.);
#166=FACE_BOUND('',#189,.T.);
#167=FACE_BOUND('',#190,.T.);
#168=FACE_BOUND('',#191,.T.);
#169=FACE_BOUND('',#192,.T.);
#170=FACE_BOUND('',#193,.T.);
#171=FACE_BOUND('',#194,.T.);
#172=FACE_BOUND('',#43,.T.);
#173=EDGE_LOOP('',(#195));
#174=EDGE_LOOP('',(#196));
#175=EDGE_LOOP('',(#197));
#176=EDGE_LOOP('',(#198));
#177=EDGE_LOOP('',(#199));
#178=EDGE_LOOP('',(#200));
#179=EDGE_LOOP('',(#201));
#180=EDGE_LOOP('',(#202));
#181=EDGE_LOOP('',(#203));
#182=EDGE_LOOP('',(#204));
#183=EDGE_LOOP('',(#205));
#184=EDGE_LOOP('',(#206));
#185=EDGE_LOOP('',(#207));
#186=EDGE_LOOP('',(#208));
#187=EDGE_LOOP('',(#209));
#188=EDGE_LOOP('',(#210));
#189=EDGE_LOOP('',(#211));
#190=EDGE_LOOP('',(#212));
#191=EDGE_LOOP('',(#213));
#192=EDGE_LOOP('',(#214));
#193=EDGE_LOOP('',(#215));
#194=EDGE_LOOP('',(#216));
#195=ORIENTED_EDGE('',*,*,#229,.T.);
#196=ORIENTED_EDGE('',*,*,#230,.F.);
#197=ORIENTED_EDGE('',*,*,#230,.T.);
#198=ORIENTED_EDGE('',*,*,#229,.F.);
#199=ORIENTED_EDGE('',*,*,#231,.T.);
#200=ORIENTED_EDGE('',*,*,#232,.F.);
#201=ORIENTED_EDGE('',*,*,#233,.F.);
#202=ORIENTED_EDGE('',*,*,#233,.T.);
#203=ORIENTED_EDGE('',*,*,#231,.F.);
#204=ORIENTED_EDGE('',*,*,#234,.F.);
#205=ORIENTED_EDGE('',*,*,#232,.T.);
#206=ORIENTED_EDGE('',*,*,#235,.F.);
#207=ORIENTED_EDGE('',*,*,#234,.T.);
#208=ORIENTED_EDGE('',*,*,#236,.F.);
#209=ORIENTED_EDGE('',*,*,#235,.T.);
#210=ORIENTED_EDGE('',*,*,#237,.F.);
#211=ORIENTED_EDGE('',*,*,#236,.T.);
#212=ORIENTED_EDGE('',*,*,#238,.F.);
#213=ORIENTED_EDGE('',*,*,#237,.T.);
#214=ORIENTED_EDGE('',*,*,#239,.F.);
#215=ORIENTED_EDGE('',*,*,#238,.T.);
#216=ORIENTED_EDGE('',*,*,#239,.T.);
#217=VERTEX_POINT('',#317);
#218=VERTEX_POINT('',#319);
#219=VERTEX_POINT('',#398);
#220=VERTEX_POINT('',#400);
#221=VERTEX_POINT('',#403);
#222=VERTEX_POINT('',#407);
#223=VERTEX_POINT('',#410);
#224=VERTEX_POINT('',#413);
#225=VERTEX_POINT('',#416);
#226=VERTEX_POINT('',#419);
#227=VERTEX_POINT('',#422);
#228=VERTEX_POINT('',#490);
#229=EDGE_CURVE('',#217,#217,#240,.T.);
#230=EDGE_CURVE('',#218,#218,#241,.T.);
#231=EDGE_CURVE('',#219,#219,#242,.T.);
#232=EDGE_CURVE('',#220,#220,#243,.T.);
#233=EDGE_CURVE('',#221,#221,#244,.T.);
#234=EDGE_CURVE('',#222,#222,#245,.T.);
#235=EDGE_CURVE('',#223,#223,#246,.T.);
#236=EDGE_CURVE('',#224,#224,#247,.T.);
#237=EDGE_CURVE('',#225,#225,#248,.T.);
#238=EDGE_CURVE('',#226,#226,#249,.T.);
#239=EDGE_CURVE('',#227,#227,#250,.T.);
#240=CIRCLE('',#252,5.);
#241=CIRCLE('',#253,5.);
#242=CIRCLE('',#254,24.);
#243=CIRCLE('',#255,24.);
#244=CIRCLE('',#257,22.5);
#245=CIRCLE('',#260,23.8);
#246=CIRCLE('',#262,23.8);
#247=CIRCLE('',#264,28.9818181818182);
#248=CIRCLE('',#266,29.5);
#249=CIRCLE('',#268,29.5);
#250=CIRCLE('',#270,22.7581044658419);
#251=AXIS2_PLACEMENT_3D('',#315,#272,#273);
#252=AXIS2_PLACEMENT_3D('',#316,#274,#275);
#253=AXIS2_PLACEMENT_3D('',#318,#276,#277);
#254=AXIS2_PLACEMENT_3D('',#397,#278,#279);
#255=AXIS2_PLACEMENT_3D('',#399,#280,#281);
#256=AXIS2_PLACEMENT_3D('',#401,#282,#283);
#257=AXIS2_PLACEMENT_3D('',#402,#284,#285);
#258=AXIS2_PLACEMENT_3D('',#404,#286,#287);
#259=AXIS2_PLACEMENT_3D('',#405,#288,#289);
#260=AXIS2_PLACEMENT_3D('',#406,#290,#291);
#261=AXIS2_PLACEMENT_3D('',#408,#292,#293);
#262=AXIS2_PLACEMENT_3D('',#409,#294,#295);
#263=AXIS2_PLACEMENT_3D('',#411,#296,#297);
#264=AXIS2_PLACEMENT_3D('',#412,#298,#299);
#265=AXIS2_PLACEMENT_3D('',#414,#300,#301);
#266=AXIS2_PLACEMENT_3D('',#415,#302,#303);
#267=AXIS2_PLACEMENT_3D('',#417,#304,#305);
#268=AXIS2_PLACEMENT_3D('',#418,#306,#307);
#269=AXIS2_PLACEMENT_3D('',#420,#308,#309);
#270=AXIS2_PLACEMENT_3D('',#421,#310,#311);
#271=AXIS2_PLACEMENT_3D('',#491,#313,#314);
#272=DIRECTION('',(0.,0.,1.));
#273=DIRECTION('',(1.,0.,0.));
#274=DIRECTION('',(-0.104528463267654,0.989716622754267,0.0976463363920587));
#275=DIRECTION('',(0.994521895368273,0.104023408764315,0.010263043512982));
#276=DIRECTION('',(-0.104528463267654,0.,0.994521895368273));
#277=DIRECTION('',(0.994521895368273,0.,0.104528463267654));
#278=DIRECTION('',(-1.,0.,0.));
#279=DIRECTION('',(0.,0.,1.));
#280=DIRECTION('',(-1.,0.,0.));
#281=DIRECTION('',(0.,0.,1.));
#282=DIRECTION('',(-1.,0.,0.));
#283=DIRECTION('',(0.,0.,1.));
#284=DIRECTION('',(-1.,0.,0.));
#285=DIRECTION('',(0.,0.,1.));
#286=DIRECTION('',(-1.,0.,0.));
#287=DIRECTION('',(0.,0.,1.));
#288=DIRECTION('',(-1.,0.,0.));
#289=DIRECTION('',(0.,0.,1.));
#290=DIRECTION('',(-1.,0.,0.));
#291=DIRECTION('',(0.,0.,1.));
#292=DIRECTION('',(1.,0.,0.));
#293=DIRECTION('',(5.76942778562153E-17,0.,-1.));
#294=DIRECTION('',(-1.,0.,0.));
#295=DIRECTION('',(0.,0.,1.));
#296=DIRECTION('',(-1.,0.,0.));
#297=DIRECTION('',(0.,0.,1.));
#298=DIRECTION('',(-1.,0.,0.));
#299=DIRECTION('',(0.,0.,1.));
#300=DIRECTION('',(-1.,0.,0.));
#301=DIRECTION('',(0.,0.,1.));
#302=DIRECTION('',(-1.,0.,0.));
#303=DIRECTION('',(0.,0.,1.));
#304=DIRECTION('',(-1.,0.,0.));
#305=DIRECTION('',(0.,0.,1.));
#306=DIRECTION('',(-1.,0.,0.));
#307=DIRECTION('',(0.,0.,1.));
#308=DIRECTION('',(-1.,0.,0.));
#309=DIRECTION('',(0.,0.,1.));
#310=DIRECTION('',(-1.,0.,0.));
#311=DIRECTION('',(0.,0.,1.));
#312=DIRECTION('',(-1.,0.,0.));
#313=DIRECTION('',(-1.,0.,0.));
#314=DIRECTION('',(1.23585125287334E-17,0.,1.));
#315=CARTESIAN_POINT('',(0.,0.,0.));
#316=CARTESIAN_POINT('',(4.97260947684137,-0.0814687606716697,26.5187010606931));
#317=CARTESIAN_POINT('',(9.94521895368274,0.438648283149907,26.5700162782581));
#318=CARTESIAN_POINT('',(4.97260947684137,-26.3985685,2.52264231633827));
#319=CARTESIAN_POINT('',(9.94521895368274,-26.3985685,3.04528463267654));
#320=CARTESIAN_POINT('',(9.94521895368274,-26.3985685,3.04528463267654));
#321=CARTESIAN_POINT('',(9.94521895368273,-29.7029299496424,-25.5991353802001));
#322=CARTESIAN_POINT('',(9.94521895368273,-4.16655363515511,-38.9899937241924));
#323=CARTESIAN_POINT('',(9.94521895368273,17.5166382095841,-19.9831319661795));
#324=CARTESIAN_POINT('',(9.94521895368273,39.1998300543233,-0.976270208166739));
#325=CARTESIAN_POINT('',(9.94521895368273,29.2691019504916,26.0940501037864));
#326=CARTESIAN_POINT('',(9.94521895368273,0.438648283149918,26.5700162782581));
#327=CARTESIAN_POINT('',(9.94521895368274,-16.3985685,3.04528463267654));
#328=CARTESIAN_POINT('',(9.94521895368273,-19.7029299496424,-14.748387919073));
#329=CARTESIAN_POINT('',(9.94521895368273,-4.29038675711613,-24.2345409753587));
#330=CARTESIAN_POINT('',(9.94521895368272,10.1065633121513,-13.2681643553539));
#331=CARTESIAN_POINT('',(9.94521895368273,24.5035133814188,-2.30178773534919));
#332=CARTESIAN_POINT('',(9.94521895368273,19.4526244921944,15.076995562036));
#333=CARTESIAN_POINT('',(9.94521895368272,1.42049028026251,16.6183336922475));
#334=CARTESIAN_POINT('',(-1.38414715812049E-15,-16.3985685,2.));
#335=CARTESIAN_POINT('',(-1.38414715812049E-15,-18.5687179922254,-15.7936725517495));
#336=CARTESIAN_POINT('',(-1.38414715812049E-15,-2.74802195646207,-24.2215968894184));
#337=CARTESIAN_POINT('',(-1.38414715812049E-15,10.808468557403,-12.4936006136271));
#338=CARTESIAN_POINT('',(-1.38414715812049E-15,24.3649590712681,-0.765604337835689));
#339=CARTESIAN_POINT('',(-1.38414715812049E-15,18.3010287112093,16.1030968654534));
#340=CARTESIAN_POINT('',(-1.38414715812049E-15,0.380256192619353,16.5157032571177));
#341=CARTESIAN_POINT('',(-2.60208521396521E-15,-26.3985685,2.));
#342=CARTESIAN_POINT('',(-2.60208521396521E-15,-28.5687179922254,-26.6444200128767));
#343=CARTESIAN_POINT('',(-2.60208521396521E-15,-2.62418883450105,-38.9770496382521));
#344=CARTESIAN_POINT('',(-2.60208521396521E-15,18.2185434548357,-19.2085682244527));
#345=CARTESIAN_POINT('',(-2.60208521396521E-15,39.0612757441726,0.559913189346766));
#346=CARTESIAN_POINT('',(-2.60208521396521E-15,28.1175061695065,27.1201514072038));
#347=CARTESIAN_POINT('',(-2.60208521396521E-15,-0.601585804493238,26.4673858431282));
#348=CARTESIAN_POINT('',(-3.82002326980992E-15,-36.3985685,2.));
#349=CARTESIAN_POINT('',(-3.82002326980993E-15,-38.5687179922254,-37.4951674740039));
#350=CARTESIAN_POINT('',(-3.82002326980992E-15,-2.50035571254003,-53.7325023870858));
#351=CARTESIAN_POINT('',(-3.82002326980992E-15,25.6286183522685,-25.9235358352783));
#352=CARTESIAN_POINT('',(-3.82002326980992E-15,53.757592417077,1.88543071652922));
#353=CARTESIAN_POINT('',(-3.82002326980992E-15,37.9339836278036,38.137205948954));
#354=CARTESIAN_POINT('',(-3.82002326980992E-15,-1.58342780160583,36.4190684291388));
#355=CARTESIAN_POINT('',(9.94521895368274,-36.3985685,3.04528463267654));
#356=CARTESIAN_POINT('',(9.94521895368273,-39.7029299496424,-36.4498828413273));
#357=CARTESIAN_POINT('',(9.94521895368273,-4.04272051319409,-53.7454464730259));
#358=CARTESIAN_POINT('',(9.94521895368272,24.9267131070168,-26.6980995770052));
#359=CARTESIAN_POINT('',(9.94521895368273,53.8961467272278,0.349247319015713));
#360=CARTESIAN_POINT('',(9.94521895368273,39.0855794087887,37.1111046455366));
#361=CARTESIAN_POINT('',(9.94521895368272,-0.543193713962674,36.5216988642686));
#362=CARTESIAN_POINT('',(9.94521895368274,-26.3985685,3.04528463267654));
#363=CARTESIAN_POINT('',(9.94521895368273,-29.7029299496424,-25.5991353802001));
#364=CARTESIAN_POINT('',(9.94521895368273,-4.16655363515511,-38.9899937241924));
#365=CARTESIAN_POINT('',(9.94521895368273,17.5166382095841,-19.9831319661795));
#366=CARTESIAN_POINT('',(9.94521895368273,39.1998300543233,-0.976270208166739));
#367=CARTESIAN_POINT('',(9.94521895368273,29.2691019504916,26.0940501037864));
#368=CARTESIAN_POINT('',(9.94521895368273,0.438648283149918,26.5700162782581));
#369=CARTESIAN_POINT('',(9.94521895368274,0.438648283149908,26.5700162782581));
#370=CARTESIAN_POINT('',(9.94521895368275,-13.9381222200258,26.8073644843116));
#371=CARTESIAN_POINT('',(9.94521895368275,-24.7507953928129,17.3292864549646));
#372=CARTESIAN_POINT('',(9.94521895368274,-26.3985685,3.04528463267654));
#373=CARTESIAN_POINT('',(9.94521895368274,1.4204902802625,16.6183336922475));
#374=CARTESIAN_POINT('',(9.94521895368275,-7.57152414443841,17.3869467991215));
#375=CARTESIAN_POINT('',(9.94521895368275,-14.7507953928129,11.9183863062357));
#376=CARTESIAN_POINT('',(9.94521895368274,-16.3985685,3.04528463267653));
#377=CARTESIAN_POINT('',(-1.38414715812049E-15,0.380256192619346,16.5157032571177));
#378=CARTESIAN_POINT('',(-1.3841471581205E-15,-8.55622592841076,16.7214560860376));
#379=CARTESIAN_POINT('',(-1.3841471581205E-15,-15.3163884702542,10.8731016735592));
#380=CARTESIAN_POINT('',(-1.38414715812049E-15,-16.3985685,2.));
#381=CARTESIAN_POINT('',(-2.60208521396521E-15,-0.601585804493247,26.4673858431283));
#382=CARTESIAN_POINT('',(-2.60208521396521E-15,-14.9228240039981,26.1418737712276));
#383=CARTESIAN_POINT('',(-2.60208521396521E-15,-25.3163884702542,16.2840018222881));
#384=CARTESIAN_POINT('',(-2.60208521396521E-15,-26.3985685,2.));
#385=CARTESIAN_POINT('',(-3.82002326980992E-15,-1.58342780160584,36.4190684291388));
#386=CARTESIAN_POINT('',(-3.82002326980993E-15,-21.2894220795855,35.5622914564178));
#387=CARTESIAN_POINT('',(-3.82002326980993E-15,-35.3163884702542,21.694901971017));
#388=CARTESIAN_POINT('',(-3.82002326980992E-15,-36.3985685,2.));
#389=CARTESIAN_POINT('',(9.94521895368274,-0.543193713962686,36.5216988642686));
#390=CARTESIAN_POINT('',(9.94521895368275,-20.3047202956132,36.2277821695017));
#391=CARTESIAN_POINT('',(9.94521895368275,-34.7507953928129,22.7401866036936));
#392=CARTESIAN_POINT('',(9.94521895368274,-36.3985685,3.04528463267653));
#393=CARTESIAN_POINT('',(9.94521895368274,0.438648283149908,26.5700162782581));
#394=CARTESIAN_POINT('',(9.94521895368275,-13.9381222200258,26.8073644843116));
#395=CARTESIAN_POINT('',(9.94521895368275,-24.7507953928129,17.3292864549646));
#396=CARTESIAN_POINT('',(9.94521895368274,-26.3985685,3.04528463267654));
#397=CARTESIAN_POINT('',(48.5,0.,0.));
#398=CARTESIAN_POINT('',(48.5,0.,24.));
#399=CARTESIAN_POINT('',(42.,0.,0.));
#400=CARTESIAN_POINT('',(42.,0.,24.));
#401=CARTESIAN_POINT('',(0.,0.,0.));
#402=CARTESIAN_POINT('',(50.,0.,0.));
#403=CARTESIAN_POINT('',(50.,0.,22.5));
#404=CARTESIAN_POINT('',(50.,12.,0.));
#405=CARTESIAN_POINT('',(48.5,0.,0.));
#406=CARTESIAN_POINT('',(41.6535898384862,0.,0.));
#407=CARTESIAN_POINT('',(41.6535898384862,0.,23.8));
#408=CARTESIAN_POINT('',(42.,0.,0.));
#409=CARTESIAN_POINT('',(41.,0.,0.));
#410=CARTESIAN_POINT('',(41.,0.,23.8));
#411=CARTESIAN_POINT('',(0.,0.,0.));
#412=CARTESIAN_POINT('',(18.8340220492667,0.,0.));
#413=CARTESIAN_POINT('',(18.8340220492667,0.,28.9818181818182));
#414=CARTESIAN_POINT('',(41.,0.,0.));
#415=CARTESIAN_POINT('',(16.6174242541933,0.,0.));
#416=CARTESIAN_POINT('',(16.6174242541933,0.,29.5));
#417=CARTESIAN_POINT('',(16.6174242541933,0.,0.));
#418=CARTESIAN_POINT('',(8.52899875267818,0.,0.));
#419=CARTESIAN_POINT('',(8.52899875267818,0.,29.5));
#420=CARTESIAN_POINT('',(0.,0.,0.));
#421=CARTESIAN_POINT('',(2.99999999999985,0.,0.));
#422=CARTESIAN_POINT('',(2.99999999999985,0.,22.7581044658419));
#423=CARTESIAN_POINT('',(0.999214567606952,26.7563945200109,0.));
#424=CARTESIAN_POINT('',(0.999214567606951,26.1754336132439,0.));
#425=CARTESIAN_POINT('',(1.02760941831462,25.8880274038072,0.));
#426=CARTESIAN_POINT('',(1.14066415481881,25.3192794897419,0.));
#427=CARTESIAN_POINT('',(1.22458392506049,25.0429910405176,0.));
#428=CARTESIAN_POINT('',(1.44276120531626,24.5134974735834,0.));
#429=CARTESIAN_POINT('',(1.57863626746565,24.2570253629747,0.));
#430=CARTESIAN_POINT('',(1.89792438161768,23.7751656623817,0.));
#431=CARTESIAN_POINT('',(2.07872311536083,23.5528054678658,0.));
#432=CARTESIAN_POINT('',(2.48172015462245,23.1444257806767,0.));
#433=CARTESIAN_POINT('',(2.70654827760693,22.9570149303658,0.));
#434=CARTESIAN_POINT('',(3.18185934325787,22.6338473205473,0.));
#435=CARTESIAN_POINT('',(3.43320567943326,22.4964193434042,0.));
#436=CARTESIAN_POINT('',(3.96366376392968,22.2705522246527,0.));
#437=CARTESIAN_POINT('',(4.24197263830912,22.18325677424,0.));
#438=CARTESIAN_POINT('',(4.80292225860942,22.0660594491871,0.));
#439=CARTESIAN_POINT('',(5.08887509537338,22.0347958530968,0.));
#440=CARTESIAN_POINT('',(5.66940032622319,22.0297237453423,0.));
#441=CARTESIAN_POINT('',(5.95518942409393,22.0559034018433,0.));
#442=CARTESIAN_POINT('',(6.51812349806146,22.1637497212855,0.));
#443=CARTESIAN_POINT('',(6.79829162661503,22.2468599709835,0.));
#444=CARTESIAN_POINT('',(7.3312132783806,22.4650033519494,0.));
#445=CARTESIAN_POINT('',(7.58418203278388,22.5992100225588,0.));
#446=CARTESIAN_POINT('',(8.06324337821131,22.917692164068,0.));
#447=CARTESIAN_POINT('',(8.28951172875091,23.1031699122211,0.));
#448=CARTESIAN_POINT('',(8.69479190862,23.508617734695,0.));
#449=CARTESIAN_POINT('',(8.87670295726552,23.7302088100853,0.));
#450=CARTESIAN_POINT('',(9.19795981325315,24.2121330031873,0.));
#451=CARTESIAN_POINT('',(9.3335647773863,24.4674548957056,0.));
#452=CARTESIAN_POINT('',(9.55190082426712,24.9968383761956,0.));
#453=CARTESIAN_POINT('',(9.63599526548201,25.2747349208424,0.));
#454=CARTESIAN_POINT('',(9.7480612972685,25.8417226686887,0.));
#455=CARTESIAN_POINT('',(9.77580143696818,26.1269047139551,0.));
#456=CARTESIAN_POINT('',(9.77611798271175,26.7005602985628,0.));
#457=CARTESIAN_POINT('',(9.74778928921449,26.9919002484183,0.));
#458=CARTESIAN_POINT('',(9.63665541344372,27.555754049766,0.));
#459=CARTESIAN_POINT('',(9.5544149208941,27.8300712803442,0.));
#460=CARTESIAN_POINT('',(9.33617442294961,28.3633687471472,0.));
#461=CARTESIAN_POINT('',(9.19974854003275,28.6213747669223,0.));
#462=CARTESIAN_POINT('',(8.88408775528982,29.0996283166692,0.));
#463=CARTESIAN_POINT('',(8.70377758730396,29.3229004999919,0.));
#464=CARTESIAN_POINT('',(8.29631742658697,29.7364095595954,0.));
#465=CARTESIAN_POINT('',(8.07526181178189,29.9203477154016,0.));
#466=CARTESIAN_POINT('',(7.60159005164243,30.2427028896863,0.));
#467=CARTESIAN_POINT('',(7.34577944616487,30.3825216758392,0.));
#468=CARTESIAN_POINT('',(6.81489189912634,30.6077996836592,0.));
#469=CARTESIAN_POINT('',(6.54149993568629,30.6933216776566,0.));
#470=CARTESIAN_POINT('',(5.97894279268295,30.8105518461239,0.));
#471=CARTESIAN_POINT('',(5.68781090333868,30.8417245446743,0.));
#472=CARTESIAN_POINT('',(5.11402077857423,30.8462596850253,0.));
#473=CARTESIAN_POINT('',(4.82855248320575,30.8205745754354,0.));
#474=CARTESIAN_POINT('',(4.26054358856634,30.7118460414932,0.));
#475=CARTESIAN_POINT('',(3.98250885576375,30.6291681136768,0.));
#476=CARTESIAN_POINT('',(3.45212877707691,30.4128928079932,0.));
#477=CARTESIAN_POINT('',(3.19565655607404,30.2776323410816,0.));
#478=CARTESIAN_POINT('',(2.71354450410248,29.9580248184218,0.));
#479=CARTESIAN_POINT('',(2.49159913352754,29.7766915955741,0.));
#480=CARTESIAN_POINT('',(2.08496680476589,29.3720509978428,0.));
#481=CARTESIAN_POINT('',(1.89886171168272,29.1460093141861,0.));
#482=CARTESIAN_POINT('',(1.57932975583419,28.668336923483,0.));
#483=CARTESIAN_POINT('',(1.44420287364134,28.4158441843469,0.));
#484=CARTESIAN_POINT('',(1.22352652799402,27.8833797678415,0.));
#485=CARTESIAN_POINT('',(1.13908315028319,27.6040812744532,0.));
#486=CARTESIAN_POINT('',(1.0276077475843,27.0420528126042,0.));
#487=CARTESIAN_POINT('',(0.999214567606952,26.7563945200109,0.));
#488=CARTESIAN_POINT('',(0.999214567606951,26.1754336132439,0.));
#489=CARTESIAN_POINT('',(0.,0.,0.));
#490=CARTESIAN_POINT('',(9.09801571288546,0.,0.));
#491=CARTESIAN_POINT('',(2.99999999999985,0.,0.));
#492=(
GEOMETRIC_REPRESENTATION_CONTEXT(3)
GLOBAL_UNCERTAINTY_ASSIGNED_CONTEXT((#493))
GLOBAL_UNIT_ASSIGNED_CONTEXT((#499,#495,#494))
REPRESENTATION_CONTEXT('model1','TOP_LEVEL_ASSEMBLY_PART')
);
#493=UNCERTAINTY_MEASURE_WITH_UNIT(LENGTH_MEASURE(2.E-5),#499,
'DISTANCE_ACCURACY_VALUE','Maximum Tolerance applied to model');
#494=(
NAMED_UNIT(*)
SI_UNIT($,.STERADIAN.)
SOLID_ANGLE_UNIT()
);
#495=(
CONVERSION_BASED_UNIT('DEGREE',#497)
NAMED_UNIT(#496)
PLANE_ANGLE_UNIT()
);
#496=DIMENSIONAL_EXPONENTS(0.,0.,0.,0.,0.,0.,0.);
#497=PLANE_ANGLE_MEASURE_WITH_UNIT(PLANE_ANGLE_MEASURE(0.0174532925),#498);
#498=(
NAMED_UNIT(*)
PLANE_ANGLE_UNIT()
SI_UNIT($,.RADIAN.)
);
#499=(
LENGTH_UNIT()
NAMED_UNIT(*)
SI_UNIT(.MILLI.,.METRE.)
);
ENDSEC;
END-ISO-10303-21;
