ISO-10303-21;
HEADER;
/* Generated by software containing ST-Developer
 * from STEP Tools, Inc. (www.steptools.com) 
 */
/* OPTION: using custom schema-name function */

FILE_DESCRIPTION(
/* description */ (''),
/* implementation_level */ '2;1');

FILE_NAME(
/* name */ 'model1.stp',
/* time_stamp */ '2023-11-03T09:40:59+03:00',
/* author */ (''),
/* organization */ (''),
/* preprocessor_version */ 'ST-DEVELOPER v19.4',
/* originating_system */ 'SIEMENS PLM Software NX2306.3001',
/* authorisation */ '');

FILE_SCHEMA (('AUTOMOTIVE_DESIGN { 1 0 10303 214 3 1 1 1 }'));
ENDSEC;

DATA;
#10=PROPERTY_DEFINITION_REPRESENTATION(#14,#12);
#11=PROPERTY_DEFINITION_REPRESENTATION(#15,#13);
#12=REPRESENTATION('',(#16),#432);
#13=REPRESENTATION('',(#17),#432);
#14=PROPERTY_DEFINITION('pmi validation property','',#21);
#15=PROPERTY_DEFINITION('pmi validation property','',#21);
#16=VALUE_REPRESENTATION_ITEM('number of annotations',COUNT_MEASURE(0.));
#17=VALUE_REPRESENTATION_ITEM('number of views',COUNT_MEASURE(0.));
#18=SHAPE_REPRESENTATION_RELATIONSHIP('None',
'relationship between model1_objects-None and model1_objects-None',#30,
#19);
#19=ADVANCED_BREP_SHAPE_REPRESENTATION('model1_objects-None',(#117,#118),
#432);
#20=SHAPE_DEFINITION_REPRESENTATION(#21,#30);
#21=PRODUCT_DEFINITION_SHAPE('','',#22);
#22=PRODUCT_DEFINITION(' ','',#24,#23);
#23=PRODUCT_DEFINITION_CONTEXT('part definition',#29,'design');
#24=PRODUCT_DEFINITION_FORMATION_WITH_SPECIFIED_SOURCE(' ',' ',#26,
 .NOT_KNOWN.);
#25=PRODUCT_RELATED_PRODUCT_CATEGORY('part','',(#26));
#26=PRODUCT('model1_objects','model1_objects',' ',(#27));
#27=PRODUCT_CONTEXT(' ',#29,'mechanical');
#28=APPLICATION_PROTOCOL_DEFINITION('international standard',
'automotive_design',2010,#29);
#29=APPLICATION_CONTEXT(
'core data for automotive mechanical design processes');
#30=SHAPE_REPRESENTATION('model1_objects-None',(#215),#432);
#31=OVER_RIDING_STYLED_ITEM('',(#58),#123,#55);
#32=OVER_RIDING_STYLED_ITEM('',(#59),#124,#55);
#33=OVER_RIDING_STYLED_ITEM('',(#60),#125,#55);
#34=OVER_RIDING_STYLED_ITEM('',(#61),#126,#55);
#35=OVER_RIDING_STYLED_ITEM('',(#62),#127,#55);
#36=OVER_RIDING_STYLED_ITEM('',(#63),#128,#55);
#37=OVER_RIDING_STYLED_ITEM('',(#64),#129,#55);
#38=OVER_RIDING_STYLED_ITEM('',(#65),#130,#55);
#39=COLOUR_RGB('Medium Steel',0.611764705882353,0.658823529411765,0.670588235294118);
#40=COLOUR_RGB('silver gray',0.6,0.6,0.6);
#41=VERTEX_LOOP('',#196);
#42=SURFACE_OF_REVOLUTION('',#44,#43);
#43=AXIS1_PLACEMENT('',#429,#264);
#44=B_SPLINE_CURVE_WITH_KNOTS('',3,(#369,#370,#371,#372,#373,#374,#375,
#376,#377,#378,#379,#380,#381,#382,#383,#384,#385,#386,#387,#388,#389,#390,
#391,#392,#393,#394,#395,#396,#397,#398,#399,#400,#401,#402,#403,#404,#405,
#406,#407,#408,#409,#410,#411,#412,#413,#414,#415,#416,#417,#418,#419,#420,
#421,#422,#423,#424,#425,#426,#427,#428),.UNSPECIFIED.,.T.,.F.,(2,2,2,2,
2,2,2,2,2,2,2,2,2,2,2,2,2,2,2,2,2,2,2,2,2,2,2,2,2,2,2,2),(-0.03125,0.,0.0625,
0.09375,0.125,0.15625,0.1875,0.21875,0.25,0.28125,0.3125,0.34375,0.375,
0.40625,0.4375,0.46875,0.5,0.53125,0.5625,0.625,0.65625,0.6875,0.71875,
0.75,0.8125,0.84375,0.875,0.90625,0.9375,0.96875,1.,1.0625),
 .UNSPECIFIED.);
#45=CONICAL_SURFACE('',#229,20.958617372545,14.9999999999972);
#46=CONICAL_SURFACE('',#231,18.2522597289313,80.0000000000002);
#47=TOROIDAL_SURFACE('',#223,19.5,1.5);
#48=TOROIDAL_SURFACE('',#225,16.,5.);
#49=TOROIDAL_SURFACE('',#227,49.9363921612171,30.);
#50=PLANE('',#222);
#51=FACE_OUTER_BOUND('',#157,.T.);
#52=CYLINDRICAL_SURFACE('',#220,21.);
#53=PRESENTATION_LAYER_ASSIGNMENT('1','Layer 1',(#117,#118));
#54=STYLED_ITEM('',(#56),#117);
#55=STYLED_ITEM('',(#57),#118);
#56=PRESENTATION_STYLE_ASSIGNMENT((#66));
#57=PRESENTATION_STYLE_ASSIGNMENT((#67));
#58=PRESENTATION_STYLE_ASSIGNMENT((#68));
#59=PRESENTATION_STYLE_ASSIGNMENT((#69));
#60=PRESENTATION_STYLE_ASSIGNMENT((#70));
#61=PRESENTATION_STYLE_ASSIGNMENT((#71));
#62=PRESENTATION_STYLE_ASSIGNMENT((#72));
#63=PRESENTATION_STYLE_ASSIGNMENT((#73));
#64=PRESENTATION_STYLE_ASSIGNMENT((#74));
#65=PRESENTATION_STYLE_ASSIGNMENT((#75));
#66=SURFACE_STYLE_USAGE(.BOTH.,#76);
#67=SURFACE_STYLE_USAGE(.BOTH.,#77);
#68=SURFACE_STYLE_USAGE(.BOTH.,#78);
#69=SURFACE_STYLE_USAGE(.BOTH.,#79);
#70=SURFACE_STYLE_USAGE(.BOTH.,#80);
#71=SURFACE_STYLE_USAGE(.BOTH.,#81);
#72=SURFACE_STYLE_USAGE(.BOTH.,#82);
#73=SURFACE_STYLE_USAGE(.BOTH.,#83);
#74=SURFACE_STYLE_USAGE(.BOTH.,#84);
#75=SURFACE_STYLE_USAGE(.BOTH.,#85);
#76=SURFACE_SIDE_STYLE('',(#86));
#77=SURFACE_SIDE_STYLE('',(#87));
#78=SURFACE_SIDE_STYLE('',(#88));
#79=SURFACE_SIDE_STYLE('',(#89));
#80=SURFACE_SIDE_STYLE('',(#90));
#81=SURFACE_SIDE_STYLE('',(#91));
#82=SURFACE_SIDE_STYLE('',(#92));
#83=SURFACE_SIDE_STYLE('',(#93));
#84=SURFACE_SIDE_STYLE('',(#94));
#85=SURFACE_SIDE_STYLE('',(#95));
#86=SURFACE_STYLE_FILL_AREA(#96);
#87=SURFACE_STYLE_FILL_AREA(#97);
#88=SURFACE_STYLE_FILL_AREA(#98);
#89=SURFACE_STYLE_FILL_AREA(#99);
#90=SURFACE_STYLE_FILL_AREA(#100);
#91=SURFACE_STYLE_FILL_AREA(#101);
#92=SURFACE_STYLE_FILL_AREA(#102);
#93=SURFACE_STYLE_FILL_AREA(#103);
#94=SURFACE_STYLE_FILL_AREA(#104);
#95=SURFACE_STYLE_FILL_AREA(#105);
#96=FILL_AREA_STYLE('',(#106));
#97=FILL_AREA_STYLE('',(#107));
#98=FILL_AREA_STYLE('',(#108));
#99=FILL_AREA_STYLE('',(#109));
#100=FILL_AREA_STYLE('',(#110));
#101=FILL_AREA_STYLE('',(#111));
#102=FILL_AREA_STYLE('',(#112));
#103=FILL_AREA_STYLE('',(#113));
#104=FILL_AREA_STYLE('',(#114));
#105=FILL_AREA_STYLE('',(#115));
#106=FILL_AREA_STYLE_COLOUR('',#116);
#107=FILL_AREA_STYLE_COLOUR('',#39);
#108=FILL_AREA_STYLE_COLOUR('',#40);
#109=FILL_AREA_STYLE_COLOUR('',#40);
#110=FILL_AREA_STYLE_COLOUR('',#40);
#111=FILL_AREA_STYLE_COLOUR('',#40);
#112=FILL_AREA_STYLE_COLOUR('',#40);
#113=FILL_AREA_STYLE_COLOUR('',#40);
#114=FILL_AREA_STYLE_COLOUR('',#40);
#115=FILL_AREA_STYLE_COLOUR('',#40);
#116=DRAUGHTING_PRE_DEFINED_COLOUR('yellow');
#117=MANIFOLD_SOLID_BREP('',#119);
#118=MANIFOLD_SOLID_BREP('',#120);
#119=CLOSED_SHELL('',(#121,#122));
#120=CLOSED_SHELL('',(#123,#124,#125,#126,#127,#128,#129,#130));
#121=ADVANCED_FACE('',(#133,#134),#131,.F.);
#122=ADVANCED_FACE('',(#135,#136),#132,.F.);
#123=ADVANCED_FACE('',(#137,#138),#52,.T.);
#124=ADVANCED_FACE('',(#51),#50,.F.);
#125=ADVANCED_FACE('',(#139,#140),#47,.T.);
#126=ADVANCED_FACE('',(#141,#142),#48,.T.);
#127=ADVANCED_FACE('',(#143,#144),#49,.F.);
#128=ADVANCED_FACE('',(#145,#146),#45,.T.);
#129=ADVANCED_FACE('',(#147,#148),#42,.T.);
#130=ADVANCED_FACE('',(#149,#150),#46,.F.);
#131=(
BOUNDED_SURFACE()
B_SPLINE_SURFACE(3,3,((#272,#273,#274,#275,#276,#277,#278),(#279,#280,#281,
#282,#283,#284,#285),(#286,#287,#288,#289,#290,#291,#292),(#293,#294,#295,
#296,#297,#298,#299),(#300,#301,#302,#303,#304,#305,#306),(#307,#308,#309,
#310,#311,#312,#313),(#314,#315,#316,#317,#318,#319,#320)),
 .UNSPECIFIED.,.T.,.F.,.F.)
B_SPLINE_SURFACE_WITH_KNOTS((1,3,3,3,1),(4,3,4),(-0.5,0.,0.5,1.,1.5),(0.,
0.5,1.),.UNSPECIFIED.)
GEOMETRIC_REPRESENTATION_ITEM()
RATIONAL_B_SPLINE_SURFACE(((1.,0.602495402378005,0.602495402378005,1.,0.602495402378005,
0.602495402378005,1.),(0.333333333333334,0.200831800792669,0.200831800792669,
0.333333333333334,0.200831800792669,0.200831800792669,0.333333333333334),
(0.333333333333334,0.200831800792669,0.200831800792669,0.333333333333334,
0.200831800792669,0.200831800792669,0.333333333333334),(1.,0.602495402378005,
0.602495402378005,1.,0.602495402378005,0.602495402378005,1.),(0.333333333333334,
0.200831800792669,0.200831800792669,0.333333333333334,0.200831800792669,
0.200831800792669,0.333333333333334),(0.333333333333334,0.200831800792669,
0.200831800792669,0.333333333333334,0.200831800792669,0.200831800792669,
0.333333333333334),(1.,0.602495402378005,0.602495402378005,1.,0.602495402378005,
0.602495402378005,1.)))
REPRESENTATION_ITEM('')
SURFACE()
);
#132=(
BOUNDED_SURFACE()
B_SPLINE_SURFACE(3,3,((#321,#322,#323,#324),(#325,#326,#327,#328),(#329,
#330,#331,#332),(#333,#334,#335,#336),(#337,#338,#339,#340),(#341,#342,
#343,#344),(#345,#346,#347,#348)),.UNSPECIFIED.,.T.,.F.,.F.)
B_SPLINE_SURFACE_WITH_KNOTS((1,3,3,3,1),(4,4),(-0.5,0.,0.5,1.,1.5),(0.,
1.),.UNSPECIFIED.)
GEOMETRIC_REPRESENTATION_ITEM()
RATIONAL_B_SPLINE_SURFACE(((1.,0.782655341762775,0.782655341762775,1.),
(0.333333333333334,0.260885113920925,0.260885113920925,0.333333333333334),
(0.333333333333334,0.260885113920925,0.260885113920925,0.333333333333334),
(1.,0.782655341762775,0.782655341762775,1.),(0.333333333333334,0.260885113920925,
0.260885113920925,0.333333333333334),(0.333333333333334,0.260885113920925,
0.260885113920925,0.333333333333334),(1.,0.782655341762775,0.782655341762775,
1.)))
REPRESENTATION_ITEM('')
SURFACE()
);
#133=FACE_BOUND('',#151,.T.);
#134=FACE_BOUND('',#152,.T.);
#135=FACE_BOUND('',#153,.T.);
#136=FACE_BOUND('',#154,.T.);
#137=FACE_BOUND('',#155,.T.);
#138=FACE_BOUND('',#156,.T.);
#139=FACE_BOUND('',#158,.T.);
#140=FACE_BOUND('',#159,.T.);
#141=FACE_BOUND('',#160,.T.);
#142=FACE_BOUND('',#161,.T.);
#143=FACE_BOUND('',#162,.T.);
#144=FACE_BOUND('',#163,.T.);
#145=FACE_BOUND('',#164,.T.);
#146=FACE_BOUND('',#165,.T.);
#147=FACE_BOUND('',#166,.T.);
#148=FACE_BOUND('',#167,.T.);
#149=FACE_BOUND('',#168,.T.);
#150=FACE_BOUND('',#41,.T.);
#151=EDGE_LOOP('',(#169));
#152=EDGE_LOOP('',(#170));
#153=EDGE_LOOP('',(#171));
#154=EDGE_LOOP('',(#172));
#155=EDGE_LOOP('',(#173));
#156=EDGE_LOOP('',(#174));
#157=EDGE_LOOP('',(#175));
#158=EDGE_LOOP('',(#176));
#159=EDGE_LOOP('',(#177));
#160=EDGE_LOOP('',(#178));
#161=EDGE_LOOP('',(#179));
#162=EDGE_LOOP('',(#180));
#163=EDGE_LOOP('',(#181));
#164=EDGE_LOOP('',(#182));
#165=EDGE_LOOP('',(#183));
#166=EDGE_LOOP('',(#184));
#167=EDGE_LOOP('',(#185));
#168=EDGE_LOOP('',(#186));
#169=ORIENTED_EDGE('',*,*,#197,.T.);
#170=ORIENTED_EDGE('',*,*,#198,.F.);
#171=ORIENTED_EDGE('',*,*,#198,.T.);
#172=ORIENTED_EDGE('',*,*,#197,.F.);
#173=ORIENTED_EDGE('',*,*,#199,.T.);
#174=ORIENTED_EDGE('',*,*,#200,.F.);
#175=ORIENTED_EDGE('',*,*,#201,.F.);
#176=ORIENTED_EDGE('',*,*,#199,.F.);
#177=ORIENTED_EDGE('',*,*,#201,.T.);
#178=ORIENTED_EDGE('',*,*,#202,.F.);
#179=ORIENTED_EDGE('',*,*,#200,.T.);
#180=ORIENTED_EDGE('',*,*,#203,.F.);
#181=ORIENTED_EDGE('',*,*,#202,.T.);
#182=ORIENTED_EDGE('',*,*,#204,.F.);
#183=ORIENTED_EDGE('',*,*,#203,.T.);
#184=ORIENTED_EDGE('',*,*,#205,.F.);
#185=ORIENTED_EDGE('',*,*,#204,.T.);
#186=ORIENTED_EDGE('',*,*,#205,.T.);
#187=VERTEX_POINT('',#269);
#188=VERTEX_POINT('',#271);
#189=VERTEX_POINT('',#350);
#190=VERTEX_POINT('',#352);
#191=VERTEX_POINT('',#355);
#192=VERTEX_POINT('',#359);
#193=VERTEX_POINT('',#362);
#194=VERTEX_POINT('',#365);
#195=VERTEX_POINT('',#368);
#196=VERTEX_POINT('',#430);
#197=EDGE_CURVE('',#187,#187,#206,.T.);
#198=EDGE_CURVE('',#188,#188,#207,.T.);
#199=EDGE_CURVE('',#189,#189,#208,.T.);
#200=EDGE_CURVE('',#190,#190,#209,.T.);
#201=EDGE_CURVE('',#191,#191,#210,.T.);
#202=EDGE_CURVE('',#192,#192,#211,.T.);
#203=EDGE_CURVE('',#193,#193,#212,.T.);
#204=EDGE_CURVE('',#194,#194,#213,.T.);
#205=EDGE_CURVE('',#195,#195,#214,.T.);
#206=CIRCLE('',#216,4.);
#207=CIRCLE('',#217,4.);
#208=CIRCLE('',#218,21.);
#209=CIRCLE('',#219,21.);
#210=CIRCLE('',#221,19.5);
#211=CIRCLE('',#224,20.848056023031);
#212=CIRCLE('',#226,20.958617372545);
#213=CIRCLE('',#228,23.8490761835231);
#214=CIRCLE('',#230,18.2522597289313);
#215=AXIS2_PLACEMENT_3D('',#267,#232,#233);
#216=AXIS2_PLACEMENT_3D('',#268,#234,#235);
#217=AXIS2_PLACEMENT_3D('',#270,#236,#237);
#218=AXIS2_PLACEMENT_3D('',#349,#238,#239);
#219=AXIS2_PLACEMENT_3D('',#351,#240,#241);
#220=AXIS2_PLACEMENT_3D('',#353,#242,#243);
#221=AXIS2_PLACEMENT_3D('',#354,#244,#245);
#222=AXIS2_PLACEMENT_3D('',#356,#246,#247);
#223=AXIS2_PLACEMENT_3D('',#357,#248,#249);
#224=AXIS2_PLACEMENT_3D('',#358,#250,#251);
#225=AXIS2_PLACEMENT_3D('',#360,#252,#253);
#226=AXIS2_PLACEMENT_3D('',#361,#254,#255);
#227=AXIS2_PLACEMENT_3D('',#363,#256,#257);
#228=AXIS2_PLACEMENT_3D('',#364,#258,#259);
#229=AXIS2_PLACEMENT_3D('',#366,#260,#261);
#230=AXIS2_PLACEMENT_3D('',#367,#262,#263);
#231=AXIS2_PLACEMENT_3D('',#431,#265,#266);
#232=DIRECTION('',(0.,0.,1.));
#233=DIRECTION('',(1.,0.,0.));
#234=DIRECTION('',(0.121869343405148,0.99231012256766,-0.0216444863129995));
#235=DIRECTION('',(0.992510112580906,-0.121650107331644,0.0111771110237243));
#236=DIRECTION('',(0.121869343405148,-0.0692365195668007,0.990128359101119));
#237=DIRECTION('',(0.992510112580906,0.,-0.122162500075257));
#238=DIRECTION('',(-1.,0.,0.));
#239=DIRECTION('',(0.,0.,1.));
#240=DIRECTION('',(-1.,0.,0.));
#241=DIRECTION('',(0.,0.,1.));
#242=DIRECTION('',(-1.,0.,0.));
#243=DIRECTION('',(0.,0.,1.));
#244=DIRECTION('',(-1.,0.,0.));
#245=DIRECTION('',(0.,0.,1.));
#246=DIRECTION('',(-1.,0.,0.));
#247=DIRECTION('',(0.,0.,1.));
#248=DIRECTION('',(-1.,0.,0.));
#249=DIRECTION('',(0.,0.,1.));
#250=DIRECTION('',(-1.,0.,0.));
#251=DIRECTION('',(0.,0.,1.));
#252=DIRECTION('',(-1.,0.,0.));
#253=DIRECTION('',(0.,0.,1.));
#254=DIRECTION('',(-1.,0.,0.));
#255=DIRECTION('',(0.,0.,1.));
#256=DIRECTION('',(-1.,0.,0.));
#257=DIRECTION('',(0.,0.,1.));
#258=DIRECTION('',(-1.,0.,0.));
#259=DIRECTION('',(0.,0.,1.));
#260=DIRECTION('',(-1.,0.,0.));
#261=DIRECTION('',(6.00441876997365E-17,0.,1.));
#262=DIRECTION('',(-1.,0.,0.));
#263=DIRECTION('',(0.,0.,1.));
#264=DIRECTION('',(-1.,0.,0.));
#265=DIRECTION('',(-1.,0.,0.));
#266=DIRECTION('',(5.79304835578798E-18,0.,1.));
#267=CARTESIAN_POINT('',(0.,0.,0.));
#268=CARTESIAN_POINT('',(3.97018460656529,1.43719219967976,20.9572021957259));
#269=CARTESIAN_POINT('',(7.94022505688891,0.950591770353189,21.0019106398208));
#270=CARTESIAN_POINT('',(3.97018460656529,-21.0007944473862,-0.486289903238978));
#271=CARTESIAN_POINT('',(7.94022505688891,-21.0007944473862,-0.974939903540004));
#272=CARTESIAN_POINT('',(7.94022505688891,-21.0007944473862,-0.974939903540005));
#273=CARTESIAN_POINT('',(7.94022505688891,-20.013848483602,-22.2343521410025));
#274=CARTESIAN_POINT('',(7.94022505688891,-0.165726383623265,-29.9147635962655));
#275=CARTESIAN_POINT('',(7.94022505688891,14.8744124858372,-14.857177674042));
#276=CARTESIAN_POINT('',(7.94022505688891,29.9145513552977,0.200408248181554));
#277=CARTESIAN_POINT('',(7.94022505688891,22.2111339457884,20.0396126483754));
#278=CARTESIAN_POINT('',(7.94022505688891,0.950591770353193,21.0019106398208));
#279=CARTESIAN_POINT('',(8.00788990750323,-13.019992264715,-0.42519633690036));
#280=CARTESIAN_POINT('',(8.00788990750323,-12.5895597765217,-13.6055254705251));
#281=CARTESIAN_POINT('',(8.00788990750323,-0.357456294709604,-18.533201657919));
#282=CARTESIAN_POINT('',(8.00788990750323,9.08936606289634,-9.33190307883763));
#283=CARTESIAN_POINT('',(8.00788990750323,18.5361884205023,-0.130604499756246));
#284=CARTESIAN_POINT('',(8.00788990750323,13.9322636937022,12.2269933779677));
#285=CARTESIAN_POINT('',(8.00788990750323,0.767835620522,13.004284638457));
#286=CARTESIAN_POINT('',(0.0678090068559801,-13.019992264715,0.552103663701693));
#287=CARTESIAN_POINT('',(0.0678090068559799,-13.5788949011773,-12.628225469923));
#288=CARTESIAN_POINT('',(0.0678090068559799,-1.7462286530615,-18.4610170561553));
#289=CARTESIAN_POINT('',(0.0678090068559801,8.36738877237451,-9.99058667750054));
#290=CARTESIAN_POINT('',(0.0678090068559799,18.4810061978105,-1.52015629884575));
#291=CARTESIAN_POINT('',(0.0678090068559799,14.8149465249645,11.1523909866392));
#292=CARTESIAN_POINT('',(0.0678090068559801,1.74103647917515,12.9148677502672));
#293=CARTESIAN_POINT('',(0.000144156241660767,-21.0007944473862,0.00236009706204858));
#294=CARTESIAN_POINT('',(0.000144156241660767,-21.0031836082576,-21.2570521404005));
#295=CARTESIAN_POINT('',(0.000144156241660767,-1.55449874197517,-29.8425789945019));
#296=CARTESIAN_POINT('',(0.000144156241660767,14.1524351953154,-15.5158612727049));
#297=CARTESIAN_POINT('',(0.000144156241660767,29.8593691326059,-1.18914355090795));
#298=CARTESIAN_POINT('',(0.000144156241660767,23.0938167770507,18.9650102570469));
#299=CARTESIAN_POINT('',(0.000144156241660767,1.92379262900634,20.912493751631));
#300=CARTESIAN_POINT('',(-0.0675206943726585,-28.9815966300574,-0.547383469577595));
#301=CARTESIAN_POINT('',(-0.0675206943726585,-28.4274723153379,-29.8858788108778));
#302=CARTESIAN_POINT('',(-0.0675206943726585,-1.36276883088882,-41.2241409328483));
#303=CARTESIAN_POINT('',(-0.0675206943726585,19.9374816182562,-21.0411358679092));
#304=CARTESIAN_POINT('',(-0.0675206943726585,41.2377320674013,-0.858130802970146));
#305=CARTESIAN_POINT('',(-0.0675206943726585,31.3726870291369,26.7776295274545));
#306=CARTESIAN_POINT('',(-0.0675206943726585,2.10654877883753,28.9101197529948));
#307=CARTESIAN_POINT('',(7.87256020627459,-28.9815966300574,-1.52468347017965));
#308=CARTESIAN_POINT('',(7.87256020627457,-27.4381371906823,-30.8631788114799));
#309=CARTESIAN_POINT('',(7.87256020627457,0.0260035274630768,-41.296325534612));
#310=CARTESIAN_POINT('',(7.87256020627459,20.659458908778,-20.3824522692463));
#311=CARTESIAN_POINT('',(7.87256020627457,41.292914290093,0.531420996119354));
#312=CARTESIAN_POINT('',(7.87256020627457,30.4900041978746,27.852231918783));
#313=CARTESIAN_POINT('',(7.87256020627459,1.13334792018439,28.9995366411846));
#314=CARTESIAN_POINT('',(7.94022505688891,-21.0007944473862,-0.974939903540005));
#315=CARTESIAN_POINT('',(7.94022505688891,-20.013848483602,-22.2343521410025));
#316=CARTESIAN_POINT('',(7.94022505688891,-0.165726383623265,-29.9147635962655));
#317=CARTESIAN_POINT('',(7.94022505688891,14.8744124858372,-14.857177674042));
#318=CARTESIAN_POINT('',(7.94022505688891,29.9145513552977,0.200408248181554));
#319=CARTESIAN_POINT('',(7.94022505688891,22.2111339457884,20.0396126483754));
#320=CARTESIAN_POINT('',(7.94022505688891,0.950591770353193,21.0019106398208));
#321=CARTESIAN_POINT('',(7.94022505688891,0.950591770353191,21.0019106398208));
#322=CARTESIAN_POINT('',(7.94022505688891,-12.2651830951365,21.6000851126783));
#323=CARTESIAN_POINT('',(7.94022505688891,-21.6142903570458,12.2401325807152));
#324=CARTESIAN_POINT('',(7.94022505688891,-21.0007944473862,-0.974939903540003));
#325=CARTESIAN_POINT('',(8.00788990750323,0.767835620522,13.004284638457));
#326=CARTESIAN_POINT('',(8.00788990750323,-7.41531023777599,13.4874569968462));
#327=CARTESIAN_POINT('',(8.00788990750323,-13.2875535908474,7.7678337864941));
#328=CARTESIAN_POINT('',(8.00788990750323,-13.019992264715,-0.425196336900359));
#329=CARTESIAN_POINT('',(0.0678090068559801,1.74103647917515,12.9148677502672));
#330=CARTESIAN_POINT('',(0.0678090068559801,-6.38584242876031,14.0104416976088));
#331=CARTESIAN_POINT('',(0.0678090068559801,-12.6725725538597,8.74513378709615));
#332=CARTESIAN_POINT('',(0.0678090068559801,-13.019992264715,0.552103663701693));
#333=CARTESIAN_POINT('',(0.000144156241660767,1.92379262900634,20.912493751631));
#334=CARTESIAN_POINT('',(0.000144156241660767,-11.2357152861208,22.1230698134408));
#335=CARTESIAN_POINT('',(0.000144156241660767,-20.9993093200581,13.2174325813172));
#336=CARTESIAN_POINT('',(0.000144156241660767,-21.0007944473862,0.00236009706205075));
#337=CARTESIAN_POINT('',(-0.0675206943726585,2.10654877883753,28.9101197529948));
#338=CARTESIAN_POINT('',(-0.0675206943726586,-16.0855881434814,30.2356979292729));
#339=CARTESIAN_POINT('',(-0.0675206943726586,-29.3260460862565,17.6897313755383));
#340=CARTESIAN_POINT('',(-0.0675206943726585,-28.9815966300574,-0.547383469577592));
#341=CARTESIAN_POINT('',(7.87256020627459,1.13334792018438,28.9995366411846));
#342=CARTESIAN_POINT('',(7.8725602062746,-17.115055952497,29.7127132285103));
#343=CARTESIAN_POINT('',(7.8725602062746,-29.9410271232442,16.7124313749363));
#344=CARTESIAN_POINT('',(7.87256020627459,-28.9815966300574,-1.52468347017965));
#345=CARTESIAN_POINT('',(7.94022505688891,0.950591770353191,21.0019106398208));
#346=CARTESIAN_POINT('',(7.94022505688891,-12.2651830951365,21.6000851126783));
#347=CARTESIAN_POINT('',(7.94022505688891,-21.6142903570458,12.2401325807152));
#348=CARTESIAN_POINT('',(7.94022505688891,-21.0007944473862,-0.974939903540003));
#349=CARTESIAN_POINT('',(38.5,0.,0.));
#350=CARTESIAN_POINT('',(38.5,0.,21.));
#351=CARTESIAN_POINT('',(32.,0.,0.));
#352=CARTESIAN_POINT('',(32.,0.,21.));
#353=CARTESIAN_POINT('',(0.,0.,0.));
#354=CARTESIAN_POINT('',(40.,0.,0.));
#355=CARTESIAN_POINT('',(40.,0.,19.5));
#356=CARTESIAN_POINT('',(40.,12.,0.));
#357=CARTESIAN_POINT('',(38.5,0.,0.));
#358=CARTESIAN_POINT('',(30.7767449989668,0.,0.));
#359=CARTESIAN_POINT('',(30.7767449989668,0.,20.848056023031));
#360=CARTESIAN_POINT('',(32.,0.,0.));
#361=CARTESIAN_POINT('',(15.6726436396921,0.,0.));
#362=CARTESIAN_POINT('',(15.6726436396921,0.,20.958617372545));
#363=CARTESIAN_POINT('',(23.4372149927675,0.,0.));
#364=CARTESIAN_POINT('',(4.88530449993451,0.,0.));
#365=CARTESIAN_POINT('',(4.88530449993451,0.,23.8490761835231));
#366=CARTESIAN_POINT('',(15.6726436396921,0.,0.));
#367=CARTESIAN_POINT('',(2.50000000000058,0.,0.));
#368=CARTESIAN_POINT('',(2.50000000000058,0.,18.2522597289313));
#369=CARTESIAN_POINT('',(0.55584859014445,21.2352242726148,0.));
#370=CARTESIAN_POINT('',(0.560944167335969,20.6350729298703,0.));
#371=CARTESIAN_POINT('',(0.644165165626608,20.2382794681217,0.));
#372=CARTESIAN_POINT('',(0.876311956171237,19.6935437071897,0.));
#373=CARTESIAN_POINT('',(0.972983886240955,19.5172767375606,0.));
#374=CARTESIAN_POINT('',(1.19786729941963,19.1901454471095,0.));
#375=CARTESIAN_POINT('',(1.32527101510103,19.0395021221242,0.));
#376=CARTESIAN_POINT('',(1.60996158875603,18.7640248091288,0.));
#377=CARTESIAN_POINT('',(1.76822030037119,18.6391476518473,0.));
#378=CARTESIAN_POINT('',(2.10118325008552,18.4268342749636,0.));
#379=CARTESIAN_POINT('',(2.27738574856715,18.3376767680129,0.));
#380=CARTESIAN_POINT('',(2.64978684060388,18.1943289820909,0.));
#381=CARTESIAN_POINT('',(2.84179506932981,18.1419889944291,0.));
#382=CARTESIAN_POINT('',(3.23058123797978,18.0761007281018,0.));
#383=CARTESIAN_POINT('',(3.43020075237486,18.0622518225548,0.));
#384=CARTESIAN_POINT('',(3.82795284730311,18.0742571434742,0.));
#385=CARTESIAN_POINT('',(4.02358855722867,18.0996394021037,0.));
#386=CARTESIAN_POINT('',(4.40858545867694,18.1879301473897,0.));
#387=CARTESIAN_POINT('',(4.5997568900908,18.2518949233652,0.));
#388=CARTESIAN_POINT('',(4.961187200832,18.4132693630965,0.));
#389=CARTESIAN_POINT('',(5.13270445631204,18.5105630392436,0.));
#390=CARTESIAN_POINT('',(5.45732955474908,18.7383878813856,0.));
#391=CARTESIAN_POINT('',(5.61004523683159,18.8693036419941,0.));
#392=CARTESIAN_POINT('',(5.88380900053623,19.1537030393119,0.));
#393=CARTESIAN_POINT('',(6.00673602832596,19.3083576753394,0.));
#394=CARTESIAN_POINT('',(6.22364683778014,19.64349927184,0.));
#395=CARTESIAN_POINT('',(6.31489336040678,19.8200480941893,0.));
#396=CARTESIAN_POINT('',(6.46174307598815,20.1862982318709,0.));
#397=CARTESIAN_POINT('',(6.51809482753463,20.3785600773804,0.));
#398=CARTESIAN_POINT('',(6.59190933475424,20.7693357220729,0.));
#399=CARTESIAN_POINT('',(6.60943181899828,20.9659232087059,0.));
#400=CARTESIAN_POINT('',(6.60603029123984,21.3614775184309,0.));
#401=CARTESIAN_POINT('',(6.58445152086903,21.5620165082236,0.));
#402=CARTESIAN_POINT('',(6.50341469752768,21.9490610574924,0.));
#403=CARTESIAN_POINT('',(6.44424046061972,22.1373684140804,0.));
#404=CARTESIAN_POINT('',(6.20934707425316,22.6862534890747,0.));
#405=CARTESIAN_POINT('',(5.98133060581252,23.0171160889618,0.));
#406=CARTESIAN_POINT('',(5.55089529075621,23.4320353061415,0.));
#407=CARTESIAN_POINT('',(5.39573399886838,23.5540860008972,0.));
#408=CARTESIAN_POINT('',(5.06269190580684,23.7665750984957,0.));
#409=CARTESIAN_POINT('',(4.88271538627725,23.8575732696848,0.));
#410=CARTESIAN_POINT('',(4.51342963794638,24.0000794558784,0.));
#411=CARTESIAN_POINT('',(4.32333526293022,24.0525886928857,0.));
#412=CARTESIAN_POINT('',(3.93220669847949,24.1199928818218,0.));
#413=CARTESIAN_POINT('',(3.73169254365303,24.1342481383481,0.));
#414=CARTESIAN_POINT('',(3.14010306422577,24.1182656980727,0.));
#415=CARTESIAN_POINT('',(2.74366294576155,24.0281387415733,0.));
#416=CARTESIAN_POINT('',(2.20292565985433,23.7880528560828,0.));
#417=CARTESIAN_POINT('',(2.02838846854412,23.6893831280652,0.));
#418=CARTESIAN_POINT('',(1.70312927590273,23.4609600683936,0.));
#419=CARTESIAN_POINT('',(1.55344083646469,23.3324779197884,0.));
#420=CARTESIAN_POINT('',(1.27945759599181,23.0475112626574,0.));
#421=CARTESIAN_POINT('',(1.15440873938101,22.8893469346209,0.));
#422=CARTESIAN_POINT('',(0.940218599414287,22.5568085402522,0.));
#423=CARTESIAN_POINT('',(0.849745783602857,22.3815128790494,0.));
#424=CARTESIAN_POINT('',(0.702506951079381,22.0126175885963,0.));
#425=CARTESIAN_POINT('',(0.646583873288763,21.8198392796175,0.));
#426=CARTESIAN_POINT('',(0.573683418319795,21.4321079246215,0.));
#427=CARTESIAN_POINT('',(0.55584859014445,21.2352242726148,0.));
#428=CARTESIAN_POINT('',(0.560944167335969,20.6350729298703,0.));
#429=CARTESIAN_POINT('',(0.,0.,0.));
#430=CARTESIAN_POINT('',(5.71836584910969,0.,0.));
#431=CARTESIAN_POINT('',(2.50000000000058,0.,0.));
#432=(
GEOMETRIC_REPRESENTATION_CONTEXT(3)
GLOBAL_UNCERTAINTY_ASSIGNED_CONTEXT((#433))
GLOBAL_UNIT_ASSIGNED_CONTEXT((#439,#435,#434))
REPRESENTATION_CONTEXT('model1','TOP_LEVEL_ASSEMBLY_PART')
);
#433=UNCERTAINTY_MEASURE_WITH_UNIT(LENGTH_MEASURE(2.E-5),#439,
'DISTANCE_ACCURACY_VALUE','Maximum Tolerance applied to model');
#434=(
NAMED_UNIT(*)
SI_UNIT($,.STERADIAN.)
SOLID_ANGLE_UNIT()
);
#435=(
CONVERSION_BASED_UNIT('DEGREE',#437)
NAMED_UNIT(#436)
PLANE_ANGLE_UNIT()
);
#436=DIMENSIONAL_EXPONENTS(0.,0.,0.,0.,0.,0.,0.);
#437=PLANE_ANGLE_MEASURE_WITH_UNIT(PLANE_ANGLE_MEASURE(0.0174532925),#438);
#438=(
NAMED_UNIT(*)
PLANE_ANGLE_UNIT()
SI_UNIT($,.RADIAN.)
);
#439=(
LENGTH_UNIT()
NAMED_UNIT(*)
SI_UNIT(.MILLI.,.METRE.)
);
ENDSEC;
END-ISO-10303-21;
