ISO-10303-21;
HEADER;
/* Generated by software containing ST-Developer
 * from STEP Tools, Inc. (www.steptools.com) 
 */
/* OPTION: using custom schema-name function */

FILE_DESCRIPTION(
/* description */ (''),
/* implementation_level */ '2;1');

FILE_NAME(
/* name */ 'model1.stp',
/* time_stamp */ '2023-11-06T16:19:35+03:00',
/* author */ (''),
/* organization */ (''),
/* preprocessor_version */ 'ST-DEVELOPER v19.4',
/* originating_system */ 'SIEMENS PLM Software NX2306.3001',
/* authorisation */ '');

FILE_SCHEMA (('AUTOMOTIVE_DESIGN { 1 0 10303 214 3 1 1 1 }'));
ENDSEC;

DATA;
#10=PROPERTY_DEFINITION_REPRESENTATION(#14,#12);
#11=PROPERTY_DEFINITION_REPRESENTATION(#15,#13);
#12=REPRESENTATION('',(#16),#490);
#13=REPRESENTATION('',(#17),#490);
#14=PROPERTY_DEFINITION('pmi validation property','',#21);
#15=PROPERTY_DEFINITION('pmi validation property','',#21);
#16=VALUE_REPRESENTATION_ITEM('number of annotations',COUNT_MEASURE(0.));
#17=VALUE_REPRESENTATION_ITEM('number of views',COUNT_MEASURE(0.));
#18=SHAPE_REPRESENTATION_RELATIONSHIP('None',
'relationship between model1_objects-None and model1_objects-None',#30,
#19);
#19=ADVANCED_BREP_SHAPE_REPRESENTATION('model1_objects-None',(#133,#134),
#490);
#20=SHAPE_DEFINITION_REPRESENTATION(#21,#30);
#21=PRODUCT_DEFINITION_SHAPE('','',#22);
#22=PRODUCT_DEFINITION(' ','',#24,#23);
#23=PRODUCT_DEFINITION_CONTEXT('part definition',#29,'design');
#24=PRODUCT_DEFINITION_FORMATION_WITH_SPECIFIED_SOURCE(' ',' ',#26,
 .NOT_KNOWN.);
#25=PRODUCT_RELATED_PRODUCT_CATEGORY('part','',(#26));
#26=PRODUCT('model1_objects','model1_objects',' ',(#27));
#27=PRODUCT_CONTEXT(' ',#29,'mechanical');
#28=APPLICATION_PROTOCOL_DEFINITION('international standard',
'automotive_design',2010,#29);
#29=APPLICATION_CONTEXT(
'core data for automotive mechanical design processes');
#30=SHAPE_REPRESENTATION('model1_objects-None',(#251),#490);
#31=OVER_RIDING_STYLED_ITEM('',(#62),#139,#59);
#32=OVER_RIDING_STYLED_ITEM('',(#63),#140,#59);
#33=OVER_RIDING_STYLED_ITEM('',(#64),#141,#59);
#34=OVER_RIDING_STYLED_ITEM('',(#65),#142,#59);
#35=OVER_RIDING_STYLED_ITEM('',(#66),#143,#59);
#36=OVER_RIDING_STYLED_ITEM('',(#67),#144,#59);
#37=OVER_RIDING_STYLED_ITEM('',(#68),#145,#59);
#38=OVER_RIDING_STYLED_ITEM('',(#69),#146,#59);
#39=OVER_RIDING_STYLED_ITEM('',(#70),#147,#59);
#40=OVER_RIDING_STYLED_ITEM('',(#71),#148,#59);
#41=COLOUR_RGB('Medium Steel',0.611764705882353,0.658823529411765,0.670588235294118);
#42=COLOUR_RGB('silver gray',0.6,0.6,0.6);
#43=VERTEX_LOOP('',#228);
#44=SURFACE_OF_REVOLUTION('',#46,#45);
#45=AXIS1_PLACEMENT('',#487,#312);
#46=B_SPLINE_CURVE_WITH_KNOTS('',3,(#423,#424,#425,#426,#427,#428,#429,
#430,#431,#432,#433,#434,#435,#436,#437,#438,#439,#440,#441,#442,#443,#444,
#445,#446,#447,#448,#449,#450,#451,#452,#453,#454,#455,#456,#457,#458,#459,
#460,#461,#462,#463,#464,#465,#466,#467,#468,#469,#470,#471,#472,#473,#474,
#475,#476,#477,#478,#479,#480,#481,#482,#483,#484,#485,#486),
 .UNSPECIFIED.,.T.,.F.,(2,2,2,2,2,2,2,2,2,2,2,2,2,2,2,2,2,2,2,2,2,2,2,2,
2,2,2,2,2,2,2,2,2,2),(-0.03125,0.,0.0625,0.09375,0.125,0.15625,0.1875,0.21875,
0.25,0.28125,0.3125,0.34375,0.375,0.40625,0.4375,0.46875,0.5,0.53125,0.5625,
0.59375,0.625,0.65625,0.6875,0.71875,0.75,0.78125,0.8125,0.84375,0.875,
0.90625,0.9375,0.96875,1.,1.0625),.UNSPECIFIED.);
#47=CONICAL_SURFACE('',#261,24.,30.);
#48=CONICAL_SURFACE('',#271,23.1235349694198,75.0000000000002);
#49=TOROIDAL_SURFACE('',#259,22.5,1.5);
#50=TOROIDAL_SURFACE('',#265,77.8,54.);
#51=TOROIDAL_SURFACE('',#267,24.5,5.);
#52=PLANE('',#258);
#53=FACE_OUTER_BOUND('',#179,.T.);
#54=CYLINDRICAL_SURFACE('',#256,24.);
#55=CYLINDRICAL_SURFACE('',#263,23.8);
#56=CYLINDRICAL_SURFACE('',#269,29.5);
#57=PRESENTATION_LAYER_ASSIGNMENT('1','Layer 1',(#133,#134));
#58=STYLED_ITEM('',(#60),#133);
#59=STYLED_ITEM('',(#61),#134);
#60=PRESENTATION_STYLE_ASSIGNMENT((#72));
#61=PRESENTATION_STYLE_ASSIGNMENT((#73));
#62=PRESENTATION_STYLE_ASSIGNMENT((#74));
#63=PRESENTATION_STYLE_ASSIGNMENT((#75));
#64=PRESENTATION_STYLE_ASSIGNMENT((#76));
#65=PRESENTATION_STYLE_ASSIGNMENT((#77));
#66=PRESENTATION_STYLE_ASSIGNMENT((#78));
#67=PRESENTATION_STYLE_ASSIGNMENT((#79));
#68=PRESENTATION_STYLE_ASSIGNMENT((#80));
#69=PRESENTATION_STYLE_ASSIGNMENT((#81));
#70=PRESENTATION_STYLE_ASSIGNMENT((#82));
#71=PRESENTATION_STYLE_ASSIGNMENT((#83));
#72=SURFACE_STYLE_USAGE(.BOTH.,#84);
#73=SURFACE_STYLE_USAGE(.BOTH.,#85);
#74=SURFACE_STYLE_USAGE(.BOTH.,#86);
#75=SURFACE_STYLE_USAGE(.BOTH.,#87);
#76=SURFACE_STYLE_USAGE(.BOTH.,#88);
#77=SURFACE_STYLE_USAGE(.BOTH.,#89);
#78=SURFACE_STYLE_USAGE(.BOTH.,#90);
#79=SURFACE_STYLE_USAGE(.BOTH.,#91);
#80=SURFACE_STYLE_USAGE(.BOTH.,#92);
#81=SURFACE_STYLE_USAGE(.BOTH.,#93);
#82=SURFACE_STYLE_USAGE(.BOTH.,#94);
#83=SURFACE_STYLE_USAGE(.BOTH.,#95);
#84=SURFACE_SIDE_STYLE('',(#96));
#85=SURFACE_SIDE_STYLE('',(#97));
#86=SURFACE_SIDE_STYLE('',(#98));
#87=SURFACE_SIDE_STYLE('',(#99));
#88=SURFACE_SIDE_STYLE('',(#100));
#89=SURFACE_SIDE_STYLE('',(#101));
#90=SURFACE_SIDE_STYLE('',(#102));
#91=SURFACE_SIDE_STYLE('',(#103));
#92=SURFACE_SIDE_STYLE('',(#104));
#93=SURFACE_SIDE_STYLE('',(#105));
#94=SURFACE_SIDE_STYLE('',(#106));
#95=SURFACE_SIDE_STYLE('',(#107));
#96=SURFACE_STYLE_FILL_AREA(#108);
#97=SURFACE_STYLE_FILL_AREA(#109);
#98=SURFACE_STYLE_FILL_AREA(#110);
#99=SURFACE_STYLE_FILL_AREA(#111);
#100=SURFACE_STYLE_FILL_AREA(#112);
#101=SURFACE_STYLE_FILL_AREA(#113);
#102=SURFACE_STYLE_FILL_AREA(#114);
#103=SURFACE_STYLE_FILL_AREA(#115);
#104=SURFACE_STYLE_FILL_AREA(#116);
#105=SURFACE_STYLE_FILL_AREA(#117);
#106=SURFACE_STYLE_FILL_AREA(#118);
#107=SURFACE_STYLE_FILL_AREA(#119);
#108=FILL_AREA_STYLE('',(#120));
#109=FILL_AREA_STYLE('',(#121));
#110=FILL_AREA_STYLE('',(#122));
#111=FILL_AREA_STYLE('',(#123));
#112=FILL_AREA_STYLE('',(#124));
#113=FILL_AREA_STYLE('',(#125));
#114=FILL_AREA_STYLE('',(#126));
#115=FILL_AREA_STYLE('',(#127));
#116=FILL_AREA_STYLE('',(#128));
#117=FILL_AREA_STYLE('',(#129));
#118=FILL_AREA_STYLE('',(#130));
#119=FILL_AREA_STYLE('',(#131));
#120=FILL_AREA_STYLE_COLOUR('',#132);
#121=FILL_AREA_STYLE_COLOUR('',#41);
#122=FILL_AREA_STYLE_COLOUR('',#42);
#123=FILL_AREA_STYLE_COLOUR('',#42);
#124=FILL_AREA_STYLE_COLOUR('',#42);
#125=FILL_AREA_STYLE_COLOUR('',#42);
#126=FILL_AREA_STYLE_COLOUR('',#42);
#127=FILL_AREA_STYLE_COLOUR('',#42);
#128=FILL_AREA_STYLE_COLOUR('',#42);
#129=FILL_AREA_STYLE_COLOUR('',#42);
#130=FILL_AREA_STYLE_COLOUR('',#42);
#131=FILL_AREA_STYLE_COLOUR('',#42);
#132=DRAUGHTING_PRE_DEFINED_COLOUR('yellow');
#133=MANIFOLD_SOLID_BREP('',#135);
#134=MANIFOLD_SOLID_BREP('',#136);
#135=CLOSED_SHELL('',(#137,#138));
#136=CLOSED_SHELL('',(#139,#140,#141,#142,#143,#144,#145,#146,#147,#148));
#137=ADVANCED_FACE('',(#151,#152),#149,.F.);
#138=ADVANCED_FACE('',(#153,#154),#150,.F.);
#139=ADVANCED_FACE('',(#155,#156),#54,.T.);
#140=ADVANCED_FACE('',(#53),#52,.F.);
#141=ADVANCED_FACE('',(#157,#158),#49,.T.);
#142=ADVANCED_FACE('',(#159,#160),#47,.T.);
#143=ADVANCED_FACE('',(#161,#162),#55,.T.);
#144=ADVANCED_FACE('',(#163,#164),#50,.F.);
#145=ADVANCED_FACE('',(#165,#166),#51,.T.);
#146=ADVANCED_FACE('',(#167,#168),#56,.T.);
#147=ADVANCED_FACE('',(#169,#170),#44,.T.);
#148=ADVANCED_FACE('',(#171,#172),#48,.F.);
#149=(
BOUNDED_SURFACE()
B_SPLINE_SURFACE(3,3,((#320,#321,#322,#323,#324,#325,#326),(#327,#328,#329,
#330,#331,#332,#333),(#334,#335,#336,#337,#338,#339,#340),(#341,#342,#343,
#344,#345,#346,#347),(#348,#349,#350,#351,#352,#353,#354),(#355,#356,#357,
#358,#359,#360,#361),(#362,#363,#364,#365,#366,#367,#368)),
 .UNSPECIFIED.,.T.,.F.,.F.)
B_SPLINE_SURFACE_WITH_KNOTS((1,3,3,3,1),(4,3,4),(-0.5,0.,0.5,1.,1.5),(0.,
0.5,1.),.UNSPECIFIED.)
GEOMETRIC_REPRESENTATION_ITEM()
RATIONAL_B_SPLINE_SURFACE(((1.,0.593985674707989,0.593985674707989,1.,0.593985674707989,
0.593985674707989,1.),(0.333333333333334,0.197995224902663,0.197995224902663,
0.333333333333334,0.197995224902663,0.197995224902663,0.333333333333334),
(0.333333333333334,0.197995224902663,0.197995224902663,0.333333333333334,
0.197995224902663,0.197995224902663,0.333333333333334),(1.,0.593985674707989,
0.593985674707989,1.,0.593985674707989,0.593985674707989,1.),(0.333333333333334,
0.197995224902663,0.197995224902663,0.333333333333334,0.197995224902663,
0.197995224902663,0.333333333333334),(0.333333333333334,0.197995224902663,
0.197995224902663,0.333333333333334,0.197995224902663,0.197995224902663,
0.333333333333334),(1.,0.593985674707989,0.593985674707989,1.,0.593985674707989,
0.593985674707989,1.)))
REPRESENTATION_ITEM('')
SURFACE()
);
#150=(
BOUNDED_SURFACE()
B_SPLINE_SURFACE(3,3,((#369,#370,#371,#372),(#373,#374,#375,#376),(#377,
#378,#379,#380),(#381,#382,#383,#384),(#385,#386,#387,#388),(#389,#390,
#391,#392),(#393,#394,#395,#396)),.UNSPECIFIED.,.T.,.F.,.F.)
B_SPLINE_SURFACE_WITH_KNOTS((1,3,3,3,1),(4,4),(-0.5,0.,0.5,1.,1.5),(0.,
1.),.UNSPECIFIED.)
GEOMETRIC_REPRESENTATION_ITEM()
RATIONAL_B_SPLINE_SURFACE(((1.,0.79618107080773,0.79618107080773,1.),(0.333333333333334,
0.265393690269244,0.265393690269244,0.333333333333334),(0.333333333333334,
0.265393690269244,0.265393690269244,0.333333333333334),(1.,0.79618107080773,
0.79618107080773,1.),(0.333333333333334,0.265393690269244,0.265393690269244,
0.333333333333334),(0.333333333333334,0.265393690269244,0.265393690269244,
0.333333333333334),(1.,0.79618107080773,0.79618107080773,1.)))
REPRESENTATION_ITEM('')
SURFACE()
);
#151=FACE_BOUND('',#173,.T.);
#152=FACE_BOUND('',#174,.T.);
#153=FACE_BOUND('',#175,.T.);
#154=FACE_BOUND('',#176,.T.);
#155=FACE_BOUND('',#177,.T.);
#156=FACE_BOUND('',#178,.T.);
#157=FACE_BOUND('',#180,.T.);
#158=FACE_BOUND('',#181,.T.);
#159=FACE_BOUND('',#182,.T.);
#160=FACE_BOUND('',#183,.T.);
#161=FACE_BOUND('',#184,.T.);
#162=FACE_BOUND('',#185,.T.);
#163=FACE_BOUND('',#186,.T.);
#164=FACE_BOUND('',#187,.T.);
#165=FACE_BOUND('',#188,.T.);
#166=FACE_BOUND('',#189,.T.);
#167=FACE_BOUND('',#190,.T.);
#168=FACE_BOUND('',#191,.T.);
#169=FACE_BOUND('',#192,.T.);
#170=FACE_BOUND('',#193,.T.);
#171=FACE_BOUND('',#194,.T.);
#172=FACE_BOUND('',#43,.T.);
#173=EDGE_LOOP('',(#195));
#174=EDGE_LOOP('',(#196));
#175=EDGE_LOOP('',(#197));
#176=EDGE_LOOP('',(#198));
#177=EDGE_LOOP('',(#199));
#178=EDGE_LOOP('',(#200));
#179=EDGE_LOOP('',(#201));
#180=EDGE_LOOP('',(#202));
#181=EDGE_LOOP('',(#203));
#182=EDGE_LOOP('',(#204));
#183=EDGE_LOOP('',(#205));
#184=EDGE_LOOP('',(#206));
#185=EDGE_LOOP('',(#207));
#186=EDGE_LOOP('',(#208));
#187=EDGE_LOOP('',(#209));
#188=EDGE_LOOP('',(#210));
#189=EDGE_LOOP('',(#211));
#190=EDGE_LOOP('',(#212));
#191=EDGE_LOOP('',(#213));
#192=EDGE_LOOP('',(#214));
#193=EDGE_LOOP('',(#215));
#194=EDGE_LOOP('',(#216));
#195=ORIENTED_EDGE('',*,*,#229,.T.);
#196=ORIENTED_EDGE('',*,*,#230,.F.);
#197=ORIENTED_EDGE('',*,*,#230,.T.);
#198=ORIENTED_EDGE('',*,*,#229,.F.);
#199=ORIENTED_EDGE('',*,*,#231,.T.);
#200=ORIENTED_EDGE('',*,*,#232,.F.);
#201=ORIENTED_EDGE('',*,*,#233,.F.);
#202=ORIENTED_EDGE('',*,*,#233,.T.);
#203=ORIENTED_EDGE('',*,*,#231,.F.);
#204=ORIENTED_EDGE('',*,*,#234,.F.);
#205=ORIENTED_EDGE('',*,*,#232,.T.);
#206=ORIENTED_EDGE('',*,*,#235,.F.);
#207=ORIENTED_EDGE('',*,*,#234,.T.);
#208=ORIENTED_EDGE('',*,*,#236,.F.);
#209=ORIENTED_EDGE('',*,*,#235,.T.);
#210=ORIENTED_EDGE('',*,*,#237,.F.);
#211=ORIENTED_EDGE('',*,*,#236,.T.);
#212=ORIENTED_EDGE('',*,*,#238,.F.);
#213=ORIENTED_EDGE('',*,*,#237,.T.);
#214=ORIENTED_EDGE('',*,*,#239,.F.);
#215=ORIENTED_EDGE('',*,*,#238,.T.);
#216=ORIENTED_EDGE('',*,*,#239,.T.);
#217=VERTEX_POINT('',#317);
#218=VERTEX_POINT('',#319);
#219=VERTEX_POINT('',#398);
#220=VERTEX_POINT('',#400);
#221=VERTEX_POINT('',#403);
#222=VERTEX_POINT('',#407);
#223=VERTEX_POINT('',#410);
#224=VERTEX_POINT('',#413);
#225=VERTEX_POINT('',#416);
#226=VERTEX_POINT('',#419);
#227=VERTEX_POINT('',#422);
#228=VERTEX_POINT('',#488);
#229=EDGE_CURVE('',#217,#217,#240,.T.);
#230=EDGE_CURVE('',#218,#218,#241,.T.);
#231=EDGE_CURVE('',#219,#219,#242,.T.);
#232=EDGE_CURVE('',#220,#220,#243,.T.);
#233=EDGE_CURVE('',#221,#221,#244,.T.);
#234=EDGE_CURVE('',#222,#222,#245,.T.);
#235=EDGE_CURVE('',#223,#223,#246,.T.);
#236=EDGE_CURVE('',#224,#224,#247,.T.);
#237=EDGE_CURVE('',#225,#225,#248,.T.);
#238=EDGE_CURVE('',#226,#226,#249,.T.);
#239=EDGE_CURVE('',#227,#227,#250,.T.);
#240=CIRCLE('',#252,5.);
#241=CIRCLE('',#253,5.);
#242=CIRCLE('',#254,24.);
#243=CIRCLE('',#255,24.);
#244=CIRCLE('',#257,22.5);
#245=CIRCLE('',#260,23.8);
#246=CIRCLE('',#262,23.8);
#247=CIRCLE('',#264,29.0169491525424);
#248=CIRCLE('',#266,29.5);
#249=CIRCLE('',#268,29.5);
#250=CIRCLE('',#270,23.1235349694198);
#251=AXIS2_PLACEMENT_3D('',#315,#272,#273);
#252=AXIS2_PLACEMENT_3D('',#316,#274,#275);
#253=AXIS2_PLACEMENT_3D('',#318,#276,#277);
#254=AXIS2_PLACEMENT_3D('',#397,#278,#279);
#255=AXIS2_PLACEMENT_3D('',#399,#280,#281);
#256=AXIS2_PLACEMENT_3D('',#401,#282,#283);
#257=AXIS2_PLACEMENT_3D('',#402,#284,#285);
#258=AXIS2_PLACEMENT_3D('',#404,#286,#287);
#259=AXIS2_PLACEMENT_3D('',#405,#288,#289);
#260=AXIS2_PLACEMENT_3D('',#406,#290,#291);
#261=AXIS2_PLACEMENT_3D('',#408,#292,#293);
#262=AXIS2_PLACEMENT_3D('',#409,#294,#295);
#263=AXIS2_PLACEMENT_3D('',#411,#296,#297);
#264=AXIS2_PLACEMENT_3D('',#412,#298,#299);
#265=AXIS2_PLACEMENT_3D('',#414,#300,#301);
#266=AXIS2_PLACEMENT_3D('',#415,#302,#303);
#267=AXIS2_PLACEMENT_3D('',#417,#304,#305);
#268=AXIS2_PLACEMENT_3D('',#418,#306,#307);
#269=AXIS2_PLACEMENT_3D('',#420,#308,#309);
#270=AXIS2_PLACEMENT_3D('',#421,#310,#311);
#271=AXIS2_PLACEMENT_3D('',#489,#313,#314);
#272=DIRECTION('',(0.,0.,1.));
#273=DIRECTION('',(1.,0.,0.));
#274=DIRECTION('',(0.121869343405148,0.991978185245228,0.0335729524406475));
#275=DIRECTION('',(0.992510112580906,-0.122083428042981,0.00439465833841288));
#276=DIRECTION('',(0.121869343405148,-0.0692365195668007,0.990128359101119));
#277=DIRECTION('',(0.992510112580906,0.,-0.122162500075257));
#278=DIRECTION('',(-1.,0.,0.));
#279=DIRECTION('',(0.,0.,1.));
#280=DIRECTION('',(-1.,0.,0.));
#281=DIRECTION('',(0.,0.,1.));
#282=DIRECTION('',(-1.,0.,0.));
#283=DIRECTION('',(0.,0.,1.));
#284=DIRECTION('',(-1.,0.,0.));
#285=DIRECTION('',(0.,0.,1.));
#286=DIRECTION('',(-1.,0.,0.));
#287=DIRECTION('',(0.,0.,1.));
#288=DIRECTION('',(-1.,0.,0.));
#289=DIRECTION('',(0.,0.,1.));
#290=DIRECTION('',(-1.,0.,0.));
#291=DIRECTION('',(0.,0.,1.));
#292=DIRECTION('',(1.,0.,0.));
#293=DIRECTION('',(5.76942778562153E-17,0.,-1.));
#294=DIRECTION('',(-1.,0.,0.));
#295=DIRECTION('',(0.,0.,1.));
#296=DIRECTION('',(-1.,0.,0.));
#297=DIRECTION('',(0.,0.,1.));
#298=DIRECTION('',(-1.,0.,0.));
#299=DIRECTION('',(0.,0.,1.));
#300=DIRECTION('',(-1.,0.,0.));
#301=DIRECTION('',(0.,0.,1.));
#302=DIRECTION('',(-1.,0.,0.));
#303=DIRECTION('',(0.,0.,1.));
#304=DIRECTION('',(-1.,0.,0.));
#305=DIRECTION('',(0.,0.,1.));
#306=DIRECTION('',(-1.,0.,0.));
#307=DIRECTION('',(0.,0.,1.));
#308=DIRECTION('',(-1.,0.,0.));
#309=DIRECTION('',(0.,0.,1.));
#310=DIRECTION('',(-1.,0.,0.));
#311=DIRECTION('',(0.,0.,1.));
#312=DIRECTION('',(-1.,0.,0.));
#313=DIRECTION('',(-1.,0.,0.));
#314=DIRECTION('',(6.92933263973653E-19,0.,1.));
#315=CARTESIAN_POINT('',(0.,0.,0.));
#316=CARTESIAN_POINT('',(4.96273075820661,0.345751270009084,26.5022851039818));
#317=CARTESIAN_POINT('',(9.92528132111114,-0.26466587020582,26.5242583956739));
#318=CARTESIAN_POINT('',(4.96273075820661,-26.4975690017327,-0.607862379048722));
#319=CARTESIAN_POINT('',(9.92528132111114,-26.4975690017327,-1.218674879425));
#320=CARTESIAN_POINT('',(9.92528132111114,-26.4975690017327,-1.218674879425));
#321=CARTESIAN_POINT('',(9.92528132111114,-25.2386518588824,-28.5912288093793));
#322=CARTESIAN_POINT('',(9.92528132111114,0.447251022578671,-38.1346021220485));
#323=CARTESIAN_POINT('',(9.92528132111114,19.2736060588528,-18.2245559877732));
#324=CARTESIAN_POINT('',(9.92528132111114,38.099961095127,1.6854901465021));
#325=CARTESIAN_POINT('',(9.92528132111114,27.1354587729321,26.7976638845002));
#326=CARTESIAN_POINT('',(9.92528132111114,-0.264665870205827,26.5242583956739));
#327=CARTESIAN_POINT('',(10.009862384379,-16.5215662733937,-0.53149542112545));
#328=CARTESIAN_POINT('',(10.009862384379,-15.9725201674159,-17.5986257603732));
#329=CARTESIAN_POINT('',(10.009862384379,-0.049271482578276,-23.7661650560872));
#330=CARTESIAN_POINT('',(10.009862384379,11.8529785674254,-11.5217853906837));
#331=CARTESIAN_POINT('',(10.009862384379,23.755228617429,0.72259427471983));
#332=CARTESIAN_POINT('',(10.009862384379,17.1390279620716,16.4647122558369));
#333=CARTESIAN_POINT('',(10.009862384379,0.0631933365976555,16.529992320356));
#334=CARTESIAN_POINT('',(0.0847612585699773,-16.5215662733937,0.690129579627115));
#335=CARTESIAN_POINT('',(0.0847612585699772,-17.234484848519,-16.3770007596206));
#336=CARTESIAN_POINT('',(0.0847612585699772,-1.80463723697389,-23.7060521031523));
#337=CARTESIAN_POINT('',(0.0847612585699773,10.9737590591615,-12.3699249421444));
#338=CARTESIAN_POINT('',(0.0847612585699772,23.752155355297,-1.03379778113653));
#339=CARTESIAN_POINT('',(0.0847612585699772,18.3144644845546,15.1596178223078));
#340=CARTESIAN_POINT('',(0.0847612585699773,1.28402761702746,16.4860457369718));
#341=CARTESIAN_POINT('',(0.000180195302078127,-26.4975690017327,0.002950121327561));
#342=CARTESIAN_POINT('',(0.000180195302078127,-26.5006165399855,-27.3696038086267));
#343=CARTESIAN_POINT('',(0.000180195302078127,-1.30811473181694,-38.0744891691136));
#344=CARTESIAN_POINT('',(0.000180195302078127,18.394386550589,-19.072695539234));
#345=CARTESIAN_POINT('',(0.000180195302078127,38.0968878329949,-0.0709019093542464));
#346=CARTESIAN_POINT('',(0.000180195302078127,28.3108952954151,25.4925694509711));
#347=CARTESIAN_POINT('',(0.000180195302078127,0.956168410223978,26.4803118122897));
#348=CARTESIAN_POINT('',(-0.0844008679658209,-36.4735717300717,-0.684229336971993));
#349=CARTESIAN_POINT('',(-0.084400867965821,-35.766748231452,-38.3622068576328));
#350=CARTESIAN_POINT('',(-0.084400867965821,-0.811592226659996,-52.4429262350749));
#351=CARTESIAN_POINT('',(-0.0844008679658209,25.8150140420164,-25.7754661363234));
#352=CARTESIAN_POINT('',(-0.084400867965821,52.4416203106929,0.891993962428033));
#353=CARTESIAN_POINT('',(-0.084400867965821,38.3073261062756,35.8255210796345));
#354=CARTESIAN_POINT('',(-0.0844008679658209,0.628309203420493,36.4745778876077));
#355=CARTESIAN_POINT('',(9.84070025784323,-36.4735717300717,-1.90585433772456));
#356=CARTESIAN_POINT('',(9.84070025784323,-34.5047835503489,-39.5838318583854));
#357=CARTESIAN_POINT('',(9.84070025784323,0.943773527735621,-52.5030391880099));
#358=CARTESIAN_POINT('',(9.84070025784323,26.6942335502803,-24.9273265848627));
#359=CARTESIAN_POINT('',(9.84070025784323,52.444693572825,2.64838601828438));
#360=CARTESIAN_POINT('',(9.84070025784323,37.1318895837927,37.1306155131635));
#361=CARTESIAN_POINT('',(9.84070025784323,-0.592525077009312,36.5185244709918));
#362=CARTESIAN_POINT('',(9.92528132111114,-26.4975690017327,-1.218674879425));
#363=CARTESIAN_POINT('',(9.92528132111114,-25.2386518588824,-28.5912288093793));
#364=CARTESIAN_POINT('',(9.92528132111114,0.447251022578671,-38.1346021220485));
#365=CARTESIAN_POINT('',(9.92528132111114,19.2736060588528,-18.2245559877732));
#366=CARTESIAN_POINT('',(9.92528132111114,38.099961095127,1.6854901465021));
#367=CARTESIAN_POINT('',(9.92528132111114,27.1354587729321,26.7976638845002));
#368=CARTESIAN_POINT('',(9.92528132111114,-0.264665870205827,26.5242583956739));
#369=CARTESIAN_POINT('',(9.92528132111114,-0.26466587020582,26.5242583956739));
#370=CARTESIAN_POINT('',(9.92528132111114,-16.2491839318815,26.3647607645053));
#371=CARTESIAN_POINT('',(9.92528132111114,-27.2319884275613,14.7497591472837));
#372=CARTESIAN_POINT('',(9.92528132111114,-26.4975690017327,-1.218674879425));
#373=CARTESIAN_POINT('',(10.009862384379,0.0631933365976608,16.529992320356));
#374=CARTESIAN_POINT('',(10.009862384379,-9.89840320881922,16.5680750073497));
#375=CARTESIAN_POINT('',(10.009862384379,-16.8418654512988,9.42502327073384));
#376=CARTESIAN_POINT('',(10.009862384379,-16.5215662733937,-0.531495421125448));
#377=CARTESIAN_POINT('',(0.0847612585699773,1.28402761702747,16.4860457369718));
#378=CARTESIAN_POINT('',(0.0847612585699772,-8.65108506047599,17.2598491862481));
#379=CARTESIAN_POINT('',(0.0847612585699772,-16.10566817114,10.6466482714864));
#380=CARTESIAN_POINT('',(0.0847612585699773,-16.5215662733937,0.690129579627118));
#381=CARTESIAN_POINT('',(0.000180195302078127,0.956168410223989,26.4803118122897));
#382=CARTESIAN_POINT('',(0.000180195302078128,-15.0018657835382,27.0565349434036));
#383=CARTESIAN_POINT('',(0.000180195302078127,-26.4957911474025,15.9713841480363));
#384=CARTESIAN_POINT('',(0.000180195302078127,-26.4975690017327,0.00295012132756415));
#385=CARTESIAN_POINT('',(-0.0844008679658209,0.628309203420508,36.4745778876077));
#386=CARTESIAN_POINT('',(-0.0844008679658209,-21.3526465066005,36.8532207005592));
#387=CARTESIAN_POINT('',(-0.0844008679658209,-36.8859141236649,21.2961200245862));
#388=CARTESIAN_POINT('',(-0.0844008679658209,-36.4735717300717,-0.68422933697199));
#389=CARTESIAN_POINT('',(9.84070025784323,-0.592525077009301,36.5185244709918));
#390=CARTESIAN_POINT('',(9.84070025784324,-22.5999646549437,36.1614465216608));
#391=CARTESIAN_POINT('',(9.84070025784324,-37.6221114038237,20.0744950238336));
#392=CARTESIAN_POINT('',(9.84070025784323,-36.4735717300717,-1.90585433772456));
#393=CARTESIAN_POINT('',(9.92528132111114,-0.26466587020582,26.5242583956739));
#394=CARTESIAN_POINT('',(9.92528132111114,-16.2491839318815,26.3647607645053));
#395=CARTESIAN_POINT('',(9.92528132111114,-27.2319884275613,14.7497591472837));
#396=CARTESIAN_POINT('',(9.92528132111114,-26.4975690017327,-1.218674879425));
#397=CARTESIAN_POINT('',(48.5,0.,0.));
#398=CARTESIAN_POINT('',(48.5,0.,24.));
#399=CARTESIAN_POINT('',(42.,0.,0.));
#400=CARTESIAN_POINT('',(42.,0.,24.));
#401=CARTESIAN_POINT('',(0.,0.,0.));
#402=CARTESIAN_POINT('',(50.,0.,0.));
#403=CARTESIAN_POINT('',(50.,0.,22.5));
#404=CARTESIAN_POINT('',(50.,12.,0.));
#405=CARTESIAN_POINT('',(48.5,0.,0.));
#406=CARTESIAN_POINT('',(41.6535898384862,0.,0.));
#407=CARTESIAN_POINT('',(41.6535898384862,0.,23.8));
#408=CARTESIAN_POINT('',(42.,0.,0.));
#409=CARTESIAN_POINT('',(41.,0.,0.));
#410=CARTESIAN_POINT('',(41.,0.,23.8));
#411=CARTESIAN_POINT('',(0.,0.,0.));
#412=CARTESIAN_POINT('',(17.8437060388679,0.,0.));
#413=CARTESIAN_POINT('',(17.8437060388679,0.,29.0169491525424));
#414=CARTESIAN_POINT('',(41.,0.,0.));
#415=CARTESIAN_POINT('',(15.6996047461705,0.,0.));
#416=CARTESIAN_POINT('',(15.6996047461705,0.,29.5));
#417=CARTESIAN_POINT('',(15.6996047461705,0.,0.));
#418=CARTESIAN_POINT('',(6.95121753399552,0.,0.));
#419=CARTESIAN_POINT('',(6.95121753399552,0.,29.5));
#420=CARTESIAN_POINT('',(0.,0.,0.));
#421=CARTESIAN_POINT('',(3.,0.,0.));
#422=CARTESIAN_POINT('',(3.,0.,23.1235349694198));
#423=CARTESIAN_POINT('',(0.688011550963788,26.7979741291617,0.));
#424=CARTESIAN_POINT('',(0.694367676562678,26.0495731412619,0.));
#425=CARTESIAN_POINT('',(0.798190247092402,25.5547741612837,0.));
#426=CARTESIAN_POINT('',(1.08786377242569,24.8755409229834,0.));
#427=CARTESIAN_POINT('',(1.20850817669112,24.6557481792775,0.));
#428=CARTESIAN_POINT('',(1.48909619956907,24.247961775836,0.));
#429=CARTESIAN_POINT('',(1.64806266523131,24.0601888980596,0.));
#430=CARTESIAN_POINT('',(2.00329980452509,23.7168486528146,0.));
#431=CARTESIAN_POINT('',(2.20074321934574,23.5612640864923,0.));
#432=CARTESIAN_POINT('',(2.61611577711961,23.2968055193351,0.));
#433=CARTESIAN_POINT('',(2.83592775535606,23.1857799557046,0.));
#434=CARTESIAN_POINT('',(3.30049610560587,23.0073480807999,0.));
#435=CARTESIAN_POINT('',(3.53992746887897,22.9422730566328,0.));
#436=CARTESIAN_POINT('',(4.0248016594066,22.860447963662,0.));
#437=CARTESIAN_POINT('',(4.27376438066297,22.8433425558045,0.));
#438=CARTESIAN_POINT('',(4.76973154611427,22.858609270994,0.));
#439=CARTESIAN_POINT('',(5.01367146384797,22.8903889201363,0.));
#440=CARTESIAN_POINT('',(5.49372118742955,23.0007048525197,0.));
#441=CARTESIAN_POINT('',(5.73208311363075,23.0805570486209,0.));
#442=CARTESIAN_POINT('',(6.18273267230736,23.2819211637231,0.));
#443=CARTESIAN_POINT('',(6.39659343901066,23.4032919742505,0.));
#444=CARTESIAN_POINT('',(6.80136705256103,23.6874470044092,0.));
#445=CARTESIAN_POINT('',(6.99179447224031,23.8507121791777,0.));
#446=CARTESIAN_POINT('',(7.33318007559983,24.2053724457146,0.));
#447=CARTESIAN_POINT('',(7.48647866046309,24.3982262035376,0.));
#448=CARTESIAN_POINT('',(7.75699041374784,24.8161384722142,0.));
#449=CARTESIAN_POINT('',(7.87079313260305,25.036291394738,0.));
#450=CARTESIAN_POINT('',(8.05394777980444,25.4930058352254,0.));
#451=CARTESIAN_POINT('',(8.12423398165489,25.7327651726189,0.));
#452=CARTESIAN_POINT('',(8.21628883801579,26.2200591742047,0.));
#453=CARTESIAN_POINT('',(8.23813655098781,26.4652079862859,0.));
#454=CARTESIAN_POINT('',(8.23385921245985,26.9584852170562,0.));
#455=CARTESIAN_POINT('',(8.20691693224703,27.2085586016038,0.));
#456=CARTESIAN_POINT('',(8.10577197225924,27.6911779663779,0.));
#457=CARTESIAN_POINT('',(8.03192047604556,27.9259863151563,0.));
#458=CARTESIAN_POINT('',(7.83647650252123,28.3822699731212,0.));
#459=CARTESIAN_POINT('',(7.71571464576086,28.6005835363146,0.));
#460=CARTESIAN_POINT('',(7.43615252353054,29.0054102861354,0.));
#461=CARTESIAN_POINT('',(7.27519029626175,29.1952315321428,0.));
#462=CARTESIAN_POINT('',(6.91718968180262,29.5399352248008,0.));
#463=CARTESIAN_POINT('',(6.72361739967172,29.6920133322281,0.));
#464=CARTESIAN_POINT('',(6.30813003501362,29.9567366947161,0.));
#465=CARTESIAN_POINT('',(6.08361209739272,30.0700688700204,0.));
#466=CARTESIAN_POINT('',(5.6230184167049,30.2474641852102,0.));
#467=CARTESIAN_POINT('',(5.38592661268792,30.3127911934933,0.));
#468=CARTESIAN_POINT('',(4.89810583947221,30.3965414412677,0.));
#469=CARTESIAN_POINT('',(4.64807202012013,30.4141630496153,0.));
#470=CARTESIAN_POINT('',(4.15627611912404,30.4005998647188,0.));
#471=CARTESIAN_POINT('',(3.91175738034395,30.3700100627308,0.));
#472=CARTESIAN_POINT('',(3.42557379600255,30.259566022503,0.));
#473=CARTESIAN_POINT('',(3.19133473346747,30.1813253154275,0.));
#474=CARTESIAN_POINT('',(2.74186488819044,29.9815791665642,0.));
#475=CARTESIAN_POINT('',(2.52424817283065,29.8584763788245,0.));
#476=CARTESIAN_POINT('',(2.11870760712609,29.573545408239,0.));
#477=CARTESIAN_POINT('',(1.9320667604874,29.4132982933525,0.));
#478=CARTESIAN_POINT('',(1.59043837293403,29.0579084013661,0.));
#479=CARTESIAN_POINT('',(1.43450982851726,28.8606714849346,0.));
#480=CARTESIAN_POINT('',(1.16740927319127,28.4459872339935,0.));
#481=CARTESIAN_POINT('',(1.05457970418693,28.2273934024555,0.));
#482=CARTESIAN_POINT('',(0.870947261046191,27.7673845113305,0.));
#483=CARTESIAN_POINT('',(0.801194649981972,27.5269912490648,0.));
#484=CARTESIAN_POINT('',(0.710261578324197,27.0434896158115,0.));
#485=CARTESIAN_POINT('',(0.688011550963788,26.7979741291617,0.));
#486=CARTESIAN_POINT('',(0.694367676562678,26.0495731412619,0.));
#487=CARTESIAN_POINT('',(0.,0.,0.));
#488=CARTESIAN_POINT('',(9.1959325212088,0.,0.));
#489=CARTESIAN_POINT('',(3.,0.,0.));
#490=(
GEOMETRIC_REPRESENTATION_CONTEXT(3)
GLOBAL_UNCERTAINTY_ASSIGNED_CONTEXT((#491))
GLOBAL_UNIT_ASSIGNED_CONTEXT((#497,#493,#492))
REPRESENTATION_CONTEXT('model1','TOP_LEVEL_ASSEMBLY_PART')
);
#491=UNCERTAINTY_MEASURE_WITH_UNIT(LENGTH_MEASURE(2.E-5),#497,
'DISTANCE_ACCURACY_VALUE','Maximum Tolerance applied to model');
#492=(
NAMED_UNIT(*)
SI_UNIT($,.STERADIAN.)
SOLID_ANGLE_UNIT()
);
#493=(
CONVERSION_BASED_UNIT('DEGREE',#495)
NAMED_UNIT(#494)
PLANE_ANGLE_UNIT()
);
#494=DIMENSIONAL_EXPONENTS(0.,0.,0.,0.,0.,0.,0.);
#495=PLANE_ANGLE_MEASURE_WITH_UNIT(PLANE_ANGLE_MEASURE(0.0174532925),#496);
#496=(
NAMED_UNIT(*)
PLANE_ANGLE_UNIT()
SI_UNIT($,.RADIAN.)
);
#497=(
LENGTH_UNIT()
NAMED_UNIT(*)
SI_UNIT(.MILLI.,.METRE.)
);
ENDSEC;
END-ISO-10303-21;
