ISO-10303-21;
HEADER;
/* Generated by software containing ST-Developer
 * from STEP Tools, Inc. (www.steptools.com) 
 */
/* OPTION: using custom schema-name function */

FILE_DESCRIPTION(
/* description */ (''),
/* implementation_level */ '2;1');

FILE_NAME(
/* name */ 'model1.stp',
/* time_stamp */ '2023-11-03T14:23:36+03:00',
/* author */ (''),
/* organization */ (''),
/* preprocessor_version */ 'ST-DEVELOPER v19.4',
/* originating_system */ 'SIEMENS PLM Software NX2306.3001',
/* authorisation */ '');

FILE_SCHEMA (('AUTOMOTIVE_DESIGN { 1 0 10303 214 3 1 1 1 }'));
ENDSEC;

DATA;
#10=PROPERTY_DEFINITION_REPRESENTATION(#14,#12);
#11=PROPERTY_DEFINITION_REPRESENTATION(#15,#13);
#12=REPRESENTATION('',(#16),#465);
#13=REPRESENTATION('',(#17),#465);
#14=PROPERTY_DEFINITION('pmi validation property','',#21);
#15=PROPERTY_DEFINITION('pmi validation property','',#21);
#16=VALUE_REPRESENTATION_ITEM('number of annotations',COUNT_MEASURE(0.));
#17=VALUE_REPRESENTATION_ITEM('number of views',COUNT_MEASURE(0.));
#18=SHAPE_REPRESENTATION_RELATIONSHIP('None',
'relationship between model1_objects-None and model1_objects-None',#30,
#19);
#19=ADVANCED_BREP_SHAPE_REPRESENTATION('model1_objects-None',(#125,#126),
#465);
#20=SHAPE_DEFINITION_REPRESENTATION(#21,#30);
#21=PRODUCT_DEFINITION_SHAPE('','',#22);
#22=PRODUCT_DEFINITION(' ','',#24,#23);
#23=PRODUCT_DEFINITION_CONTEXT('part definition',#29,'design');
#24=PRODUCT_DEFINITION_FORMATION_WITH_SPECIFIED_SOURCE(' ',' ',#26,
 .NOT_KNOWN.);
#25=PRODUCT_RELATED_PRODUCT_CATEGORY('part','',(#26));
#26=PRODUCT('model1_objects','model1_objects',' ',(#27));
#27=PRODUCT_CONTEXT(' ',#29,'mechanical');
#28=APPLICATION_PROTOCOL_DEFINITION('international standard',
'automotive_design',2010,#29);
#29=APPLICATION_CONTEXT(
'core data for automotive mechanical design processes');
#30=SHAPE_REPRESENTATION('model1_objects-None',(#233),#465);
#31=OVER_RIDING_STYLED_ITEM('',(#60),#131,#57);
#32=OVER_RIDING_STYLED_ITEM('',(#61),#132,#57);
#33=OVER_RIDING_STYLED_ITEM('',(#62),#133,#57);
#34=OVER_RIDING_STYLED_ITEM('',(#63),#134,#57);
#35=OVER_RIDING_STYLED_ITEM('',(#64),#135,#57);
#36=OVER_RIDING_STYLED_ITEM('',(#65),#136,#57);
#37=OVER_RIDING_STYLED_ITEM('',(#66),#137,#57);
#38=OVER_RIDING_STYLED_ITEM('',(#67),#138,#57);
#39=OVER_RIDING_STYLED_ITEM('',(#68),#139,#57);
#40=COLOUR_RGB('Medium Steel',0.611764705882353,0.658823529411765,0.670588235294118);
#41=COLOUR_RGB('silver gray',0.6,0.6,0.6);
#42=CONICAL_SURFACE('',#251,22.9065183331697,75.0000000000002);
#43=VERTEX_LOOP('',#212);
#44=SURFACE_OF_REVOLUTION('',#46,#45);
#45=AXIS1_PLACEMENT('',#462,#288);
#46=B_SPLINE_CURVE_WITH_KNOTS('',3,(#396,#397,#398,#399,#400,#401,#402,
#403,#404,#405,#406,#407,#408,#409,#410,#411,#412,#413,#414,#415,#416,#417,
#418,#419,#420,#421,#422,#423,#424,#425,#426,#427,#428,#429,#430,#431,#432,
#433,#434,#435,#436,#437,#438,#439,#440,#441,#442,#443,#444,#445,#446,#447,
#448,#449,#450,#451,#452,#453,#454,#455,#456,#457,#458,#459,#460,#461),
 .UNSPECIFIED.,.T.,.F.,(2,2,2,2,2,2,2,2,2,2,2,2,2,2,2,2,2,2,2,2,2,2,2,2,
2,2,2,2,2,2,2,2,2,2,2),(-0.03125,0.,0.03125,0.0625,0.09375,0.125,0.15625,
0.1875,0.21875,0.25,0.28125,0.3125,0.34375,0.375,0.40625,0.4375,0.46875,
0.5,0.53125,0.5625,0.59375,0.625,0.65625,0.6875,0.71875,0.75,0.78125,0.8125,
0.84375,0.875,0.90625,0.9375,0.96875,1.,1.03125),.UNSPECIFIED.);
#47=TOROIDAL_SURFACE('',#241,27.,2.);
#48=TOROIDAL_SURFACE('',#243,24.,5.);
#49=TOROIDAL_SURFACE('',#245,53.,25.);
#50=TOROIDAL_SURFACE('',#247,26.,5.);
#51=PLANE('',#240);
#52=FACE_OUTER_BOUND('',#168,.T.);
#53=CYLINDRICAL_SURFACE('',#238,29.);
#54=CYLINDRICAL_SURFACE('',#249,31.0000000000264);
#55=PRESENTATION_LAYER_ASSIGNMENT('1','Layer 1',(#125,#126));
#56=STYLED_ITEM('',(#58),#125);
#57=STYLED_ITEM('',(#59),#126);
#58=PRESENTATION_STYLE_ASSIGNMENT((#69));
#59=PRESENTATION_STYLE_ASSIGNMENT((#70));
#60=PRESENTATION_STYLE_ASSIGNMENT((#71));
#61=PRESENTATION_STYLE_ASSIGNMENT((#72));
#62=PRESENTATION_STYLE_ASSIGNMENT((#73));
#63=PRESENTATION_STYLE_ASSIGNMENT((#74));
#64=PRESENTATION_STYLE_ASSIGNMENT((#75));
#65=PRESENTATION_STYLE_ASSIGNMENT((#76));
#66=PRESENTATION_STYLE_ASSIGNMENT((#77));
#67=PRESENTATION_STYLE_ASSIGNMENT((#78));
#68=PRESENTATION_STYLE_ASSIGNMENT((#79));
#69=SURFACE_STYLE_USAGE(.BOTH.,#80);
#70=SURFACE_STYLE_USAGE(.BOTH.,#81);
#71=SURFACE_STYLE_USAGE(.BOTH.,#82);
#72=SURFACE_STYLE_USAGE(.BOTH.,#83);
#73=SURFACE_STYLE_USAGE(.BOTH.,#84);
#74=SURFACE_STYLE_USAGE(.BOTH.,#85);
#75=SURFACE_STYLE_USAGE(.BOTH.,#86);
#76=SURFACE_STYLE_USAGE(.BOTH.,#87);
#77=SURFACE_STYLE_USAGE(.BOTH.,#88);
#78=SURFACE_STYLE_USAGE(.BOTH.,#89);
#79=SURFACE_STYLE_USAGE(.BOTH.,#90);
#80=SURFACE_SIDE_STYLE('',(#91));
#81=SURFACE_SIDE_STYLE('',(#92));
#82=SURFACE_SIDE_STYLE('',(#93));
#83=SURFACE_SIDE_STYLE('',(#94));
#84=SURFACE_SIDE_STYLE('',(#95));
#85=SURFACE_SIDE_STYLE('',(#96));
#86=SURFACE_SIDE_STYLE('',(#97));
#87=SURFACE_SIDE_STYLE('',(#98));
#88=SURFACE_SIDE_STYLE('',(#99));
#89=SURFACE_SIDE_STYLE('',(#100));
#90=SURFACE_SIDE_STYLE('',(#101));
#91=SURFACE_STYLE_FILL_AREA(#102);
#92=SURFACE_STYLE_FILL_AREA(#103);
#93=SURFACE_STYLE_FILL_AREA(#104);
#94=SURFACE_STYLE_FILL_AREA(#105);
#95=SURFACE_STYLE_FILL_AREA(#106);
#96=SURFACE_STYLE_FILL_AREA(#107);
#97=SURFACE_STYLE_FILL_AREA(#108);
#98=SURFACE_STYLE_FILL_AREA(#109);
#99=SURFACE_STYLE_FILL_AREA(#110);
#100=SURFACE_STYLE_FILL_AREA(#111);
#101=SURFACE_STYLE_FILL_AREA(#112);
#102=FILL_AREA_STYLE('',(#113));
#103=FILL_AREA_STYLE('',(#114));
#104=FILL_AREA_STYLE('',(#115));
#105=FILL_AREA_STYLE('',(#116));
#106=FILL_AREA_STYLE('',(#117));
#107=FILL_AREA_STYLE('',(#118));
#108=FILL_AREA_STYLE('',(#119));
#109=FILL_AREA_STYLE('',(#120));
#110=FILL_AREA_STYLE('',(#121));
#111=FILL_AREA_STYLE('',(#122));
#112=FILL_AREA_STYLE('',(#123));
#113=FILL_AREA_STYLE_COLOUR('',#124);
#114=FILL_AREA_STYLE_COLOUR('',#40);
#115=FILL_AREA_STYLE_COLOUR('',#41);
#116=FILL_AREA_STYLE_COLOUR('',#41);
#117=FILL_AREA_STYLE_COLOUR('',#41);
#118=FILL_AREA_STYLE_COLOUR('',#41);
#119=FILL_AREA_STYLE_COLOUR('',#41);
#120=FILL_AREA_STYLE_COLOUR('',#41);
#121=FILL_AREA_STYLE_COLOUR('',#41);
#122=FILL_AREA_STYLE_COLOUR('',#41);
#123=FILL_AREA_STYLE_COLOUR('',#41);
#124=DRAUGHTING_PRE_DEFINED_COLOUR('yellow');
#125=MANIFOLD_SOLID_BREP('',#127);
#126=MANIFOLD_SOLID_BREP('',#128);
#127=CLOSED_SHELL('',(#129,#130));
#128=CLOSED_SHELL('',(#131,#132,#133,#134,#135,#136,#137,#138,#139));
#129=ADVANCED_FACE('',(#142,#143),#140,.F.);
#130=ADVANCED_FACE('',(#144,#145),#141,.F.);
#131=ADVANCED_FACE('',(#146,#147),#53,.T.);
#132=ADVANCED_FACE('',(#52),#51,.F.);
#133=ADVANCED_FACE('',(#148,#149),#47,.T.);
#134=ADVANCED_FACE('',(#150,#151),#48,.T.);
#135=ADVANCED_FACE('',(#152,#153),#49,.F.);
#136=ADVANCED_FACE('',(#154,#155),#50,.T.);
#137=ADVANCED_FACE('',(#156,#157),#54,.T.);
#138=ADVANCED_FACE('',(#158,#159),#44,.T.);
#139=ADVANCED_FACE('',(#160,#161),#42,.F.);
#140=(
BOUNDED_SURFACE()
B_SPLINE_SURFACE(3,3,((#296,#297,#298,#299,#300,#301,#302),(#303,#304,#305,
#306,#307,#308,#309),(#310,#311,#312,#313,#314,#315,#316),(#317,#318,#319,
#320,#321,#322,#323),(#324,#325,#326,#327,#328,#329,#330),(#331,#332,#333,
#334,#335,#336,#337),(#338,#339,#340,#341,#342,#343,#344)),
 .UNSPECIFIED.,.T.,.F.,.F.)
B_SPLINE_SURFACE_WITH_KNOTS((1,3,3,3,1),(4,3,4),(-0.5,0.,0.5,1.,1.5),(0.,
0.5,1.),.UNSPECIFIED.)
GEOMETRIC_REPRESENTATION_ITEM()
RATIONAL_B_SPLINE_SURFACE(((1.,0.595207772398459,0.595207772398459,1.,0.595207772398459,
0.595207772398459,1.),(0.333333333333334,0.198402590799486,0.198402590799486,
0.333333333333334,0.198402590799486,0.198402590799486,0.333333333333334),
(0.333333333333334,0.198402590799486,0.198402590799486,0.333333333333334,
0.198402590799486,0.198402590799486,0.333333333333334),(1.,0.595207772398459,
0.595207772398459,1.,0.595207772398459,0.595207772398459,1.),(0.333333333333334,
0.198402590799486,0.198402590799486,0.333333333333334,0.198402590799486,
0.198402590799486,0.333333333333334),(0.333333333333334,0.198402590799486,
0.198402590799486,0.333333333333334,0.198402590799486,0.198402590799486,
0.333333333333334),(1.,0.595207772398459,0.595207772398459,1.,0.595207772398459,
0.595207772398459,1.)))
REPRESENTATION_ITEM('')
SURFACE()
);
#141=(
BOUNDED_SURFACE()
B_SPLINE_SURFACE(3,3,((#345,#346,#347,#348),(#349,#350,#351,#352),(#353,
#354,#355,#356),(#357,#358,#359,#360),(#361,#362,#363,#364),(#365,#366,
#367,#368),(#369,#370,#371,#372)),.UNSPECIFIED.,.T.,.F.,.F.)
B_SPLINE_SURFACE_WITH_KNOTS((1,3,3,3,1),(4,4),(-0.5,0.,0.5,1.,1.5),(0.,
1.),.UNSPECIFIED.)
GEOMETRIC_REPRESENTATION_ITEM()
RATIONAL_B_SPLINE_SURFACE(((1.,0.794265334492977,0.794265334492977,1.),
(0.333333333333334,0.264755111497659,0.264755111497659,0.333333333333334),
(0.333333333333334,0.264755111497659,0.264755111497659,0.333333333333334),
(1.,0.794265334492977,0.794265334492977,1.),(0.333333333333334,0.264755111497659,
0.264755111497659,0.333333333333334),(0.333333333333334,0.264755111497659,
0.264755111497659,0.333333333333334),(1.,0.794265334492977,0.794265334492977,
1.)))
REPRESENTATION_ITEM('')
SURFACE()
);
#142=FACE_BOUND('',#162,.T.);
#143=FACE_BOUND('',#163,.T.);
#144=FACE_BOUND('',#164,.T.);
#145=FACE_BOUND('',#165,.T.);
#146=FACE_BOUND('',#166,.T.);
#147=FACE_BOUND('',#167,.T.);
#148=FACE_BOUND('',#169,.T.);
#149=FACE_BOUND('',#170,.T.);
#150=FACE_BOUND('',#171,.T.);
#151=FACE_BOUND('',#172,.T.);
#152=FACE_BOUND('',#173,.T.);
#153=FACE_BOUND('',#174,.T.);
#154=FACE_BOUND('',#175,.T.);
#155=FACE_BOUND('',#176,.T.);
#156=FACE_BOUND('',#177,.T.);
#157=FACE_BOUND('',#178,.T.);
#158=FACE_BOUND('',#179,.T.);
#159=FACE_BOUND('',#180,.T.);
#160=FACE_BOUND('',#181,.T.);
#161=FACE_BOUND('',#43,.T.);
#162=EDGE_LOOP('',(#182));
#163=EDGE_LOOP('',(#183));
#164=EDGE_LOOP('',(#184));
#165=EDGE_LOOP('',(#185));
#166=EDGE_LOOP('',(#186));
#167=EDGE_LOOP('',(#187));
#168=EDGE_LOOP('',(#188));
#169=EDGE_LOOP('',(#189));
#170=EDGE_LOOP('',(#190));
#171=EDGE_LOOP('',(#191));
#172=EDGE_LOOP('',(#192));
#173=EDGE_LOOP('',(#193));
#174=EDGE_LOOP('',(#194));
#175=EDGE_LOOP('',(#195));
#176=EDGE_LOOP('',(#196));
#177=EDGE_LOOP('',(#197));
#178=EDGE_LOOP('',(#198));
#179=EDGE_LOOP('',(#199));
#180=EDGE_LOOP('',(#200));
#181=EDGE_LOOP('',(#201));
#182=ORIENTED_EDGE('',*,*,#213,.T.);
#183=ORIENTED_EDGE('',*,*,#214,.F.);
#184=ORIENTED_EDGE('',*,*,#214,.T.);
#185=ORIENTED_EDGE('',*,*,#213,.F.);
#186=ORIENTED_EDGE('',*,*,#215,.T.);
#187=ORIENTED_EDGE('',*,*,#216,.F.);
#188=ORIENTED_EDGE('',*,*,#217,.F.);
#189=ORIENTED_EDGE('',*,*,#215,.F.);
#190=ORIENTED_EDGE('',*,*,#217,.T.);
#191=ORIENTED_EDGE('',*,*,#218,.F.);
#192=ORIENTED_EDGE('',*,*,#216,.T.);
#193=ORIENTED_EDGE('',*,*,#219,.F.);
#194=ORIENTED_EDGE('',*,*,#218,.T.);
#195=ORIENTED_EDGE('',*,*,#220,.F.);
#196=ORIENTED_EDGE('',*,*,#219,.T.);
#197=ORIENTED_EDGE('',*,*,#221,.F.);
#198=ORIENTED_EDGE('',*,*,#220,.T.);
#199=ORIENTED_EDGE('',*,*,#222,.F.);
#200=ORIENTED_EDGE('',*,*,#221,.T.);
#201=ORIENTED_EDGE('',*,*,#222,.T.);
#202=VERTEX_POINT('',#293);
#203=VERTEX_POINT('',#295);
#204=VERTEX_POINT('',#374);
#205=VERTEX_POINT('',#376);
#206=VERTEX_POINT('',#379);
#207=VERTEX_POINT('',#383);
#208=VERTEX_POINT('',#386);
#209=VERTEX_POINT('',#389);
#210=VERTEX_POINT('',#392);
#211=VERTEX_POINT('',#395);
#212=VERTEX_POINT('',#463);
#213=EDGE_CURVE('',#202,#202,#223,.T.);
#214=EDGE_CURVE('',#203,#203,#224,.T.);
#215=EDGE_CURVE('',#204,#204,#225,.T.);
#216=EDGE_CURVE('',#205,#205,#226,.T.);
#217=EDGE_CURVE('',#206,#206,#227,.T.);
#218=EDGE_CURVE('',#207,#207,#228,.T.);
#219=EDGE_CURVE('',#208,#208,#229,.T.);
#220=EDGE_CURVE('',#209,#209,#230,.T.);
#221=EDGE_CURVE('',#210,#210,#231,.T.);
#222=EDGE_CURVE('',#211,#211,#232,.T.);
#223=CIRCLE('',#234,6.);
#224=CIRCLE('',#235,6.);
#225=CIRCLE('',#236,29.);
#226=CIRCLE('',#237,29.);
#227=CIRCLE('',#239,27.);
#228=CIRCLE('',#242,28.8333333333333);
#229=CIRCLE('',#244,30.5);
#230=CIRCLE('',#246,31.);
#231=CIRCLE('',#248,31.0000000000528);
#232=CIRCLE('',#250,22.9065183331697);
#233=AXIS2_PLACEMENT_3D('',#291,#252,#253);
#234=AXIS2_PLACEMENT_3D('',#292,#254,#255);
#235=AXIS2_PLACEMENT_3D('',#294,#256,#257);
#236=AXIS2_PLACEMENT_3D('',#373,#258,#259);
#237=AXIS2_PLACEMENT_3D('',#375,#260,#261);
#238=AXIS2_PLACEMENT_3D('',#377,#262,#263);
#239=AXIS2_PLACEMENT_3D('',#378,#264,#265);
#240=AXIS2_PLACEMENT_3D('',#380,#266,#267);
#241=AXIS2_PLACEMENT_3D('',#381,#268,#269);
#242=AXIS2_PLACEMENT_3D('',#382,#270,#271);
#243=AXIS2_PLACEMENT_3D('',#384,#272,#273);
#244=AXIS2_PLACEMENT_3D('',#385,#274,#275);
#245=AXIS2_PLACEMENT_3D('',#387,#276,#277);
#246=AXIS2_PLACEMENT_3D('',#388,#278,#279);
#247=AXIS2_PLACEMENT_3D('',#390,#280,#281);
#248=AXIS2_PLACEMENT_3D('',#391,#282,#283);
#249=AXIS2_PLACEMENT_3D('',#393,#284,#285);
#250=AXIS2_PLACEMENT_3D('',#394,#286,#287);
#251=AXIS2_PLACEMENT_3D('',#464,#289,#290);
#252=DIRECTION('',(0.,0.,1.));
#253=DIRECTION('',(1.,0.,0.));
#254=DIRECTION('',(0.121869343405147,0.991615207608666,0.0429784036141561));
#255=DIRECTION('',(0.992489739031157,-0.122209776572428,0.00537479562240951));
#256=DIRECTION('',(0.121869343405147,-0.0865060970576294,0.988769213876451));
#257=DIRECTION('',(0.992489739031157,0.,-0.122327911442424));
#258=DIRECTION('',(-1.,0.,0.));
#259=DIRECTION('',(0.,0.,1.));
#260=DIRECTION('',(-1.,0.,0.));
#261=DIRECTION('',(0.,0.,1.));
#262=DIRECTION('',(-1.,0.,0.));
#263=DIRECTION('',(0.,0.,1.));
#264=DIRECTION('',(-1.,0.,0.));
#265=DIRECTION('',(0.,0.,1.));
#266=DIRECTION('',(-1.,0.,0.));
#267=DIRECTION('',(0.,0.,1.));
#268=DIRECTION('',(-1.,0.,0.));
#269=DIRECTION('',(0.,0.,1.));
#270=DIRECTION('',(-1.,0.,0.));
#271=DIRECTION('',(0.,0.,1.));
#272=DIRECTION('',(-1.,0.,0.));
#273=DIRECTION('',(0.,0.,1.));
#274=DIRECTION('',(-1.,0.,0.));
#275=DIRECTION('',(0.,0.,1.));
#276=DIRECTION('',(-1.,0.,0.));
#277=DIRECTION('',(0.,0.,1.));
#278=DIRECTION('',(-1.,0.,0.));
#279=DIRECTION('',(0.,0.,1.));
#280=DIRECTION('',(-1.,0.,0.));
#281=DIRECTION('',(0.,0.,1.));
#282=DIRECTION('',(-1.,0.,0.));
#283=DIRECTION('',(0.,0.,1.));
#284=DIRECTION('',(-1.,0.,0.));
#285=DIRECTION('',(0.,0.,1.));
#286=DIRECTION('',(-1.,0.,0.));
#287=DIRECTION('',(0.,0.,1.));
#288=DIRECTION('',(-1.,0.,0.));
#289=DIRECTION('',(-1.,0.,0.));
#290=DIRECTION('',(6.92973311844519E-19,0.,1.));
#291=CARTESIAN_POINT('',(0.,0.,0.));
#292=CARTESIAN_POINT('',(5.95527690984794,0.458739073983161,27.0094281285564));
#293=CARTESIAN_POINT('',(11.9102153440349,-0.274519585451407,27.0416769022909));
#294=CARTESIAN_POINT('',(5.95527690984794,-27.0035004011442,-0.728433562560782));
#295=CARTESIAN_POINT('',(11.9102153440349,-27.0035004011442,-1.46240103121532));
#296=CARTESIAN_POINT('',(11.9102153440349,-27.0035004011442,-1.46240103121532));
#297=CARTESIAN_POINT('',(11.9102153440349,-25.4971897721877,-29.2767001222583));
#298=CARTESIAN_POINT('',(11.9102153440349,0.673062942973115,-38.8172492920658));
#299=CARTESIAN_POINT('',(11.9102153440349,19.7267130639427,-18.4982280876728));
#300=CARTESIAN_POINT('',(11.9102153440349,38.7803631849122,1.82079311672033));
#301=CARTESIAN_POINT('',(11.9102153440349,27.5791022824676,27.3244391272864));
#302=CARTESIAN_POINT('',(11.9102153440349,-0.274519585451397,27.0416769022909));
#303=CARTESIAN_POINT('',(12.037200666196,-15.0484845456654,-0.432124066895358));
#304=CARTESIAN_POINT('',(12.037200666196,-14.603385656169,-15.9324497210591));
#305=CARTESIAN_POINT('',(12.037200666196,-0.174152524312564,-21.6118369796543));
#306=CARTESIAN_POINT('',(12.037200666196,10.7166905838255,-10.5733703832253));
#307=CARTESIAN_POINT('',(12.037200666196,21.6075336919636,0.465096213203659));
#308=CARTESIAN_POINT('',(12.037200666196,15.734400849777,14.8165602160358));
#309=CARTESIAN_POINT('',(12.037200666196,0.229487635831194,15.0529383761218));
#310=CARTESIAN_POINT('',(0.127323797822134,-15.0484845456654,1.03581087041373));
#311=CARTESIAN_POINT('',(0.127323797822134,-16.1153963505594,-14.46451478375));
#312=CARTESIAN_POINT('',(0.127323797822134,-2.28009864738394,-21.5343757193735));
#313=CARTESIAN_POINT('',(0.127323797822134,9.65614563346438,-11.5882976655644));
#314=CARTESIAN_POINT('',(0.127323797822134,21.5923899143127,-1.64221961175522));
#315=CARTESIAN_POINT('',(0.127323797822134,17.1344840379116,13.241512157586));
#316=CARTESIAN_POINT('',(0.127323797822134,1.69600495470033,14.9884408286529));
#317=CARTESIAN_POINT('',(0.000338475660987929,-27.0035004011442,0.00553390609376063));
#318=CARTESIAN_POINT('',(0.000338475660987929,-27.0092004665781,-27.8087651849491));
#319=CARTESIAN_POINT('',(0.000338475660987929,-1.43288318009827,-38.739788031785));
#320=CARTESIAN_POINT('',(0.000338475660987929,18.6661681135815,-19.5131553700118));
#321=CARTESIAN_POINT('',(0.000338475660987929,38.7652194072613,-0.286522708238552));
#322=CARTESIAN_POINT('',(0.000338475660987929,28.9791854706022,25.7493910688367));
#323=CARTESIAN_POINT('',(0.000338475660987929,1.19199773341774,26.977179354822));
#324=CARTESIAN_POINT('',(-0.126646846500158,-38.9585162566228,-1.02474305822621));
#325=CARTESIAN_POINT('',(-0.126646846500158,-37.9030045825968,-41.1530155861483));
#326=CARTESIAN_POINT('',(-0.126646846500158,-0.585667712812592,-55.9452003441966));
#327=CARTESIAN_POINT('',(-0.126646846500158,27.6761905936986,-27.4380130744592));
#328=CARTESIAN_POINT('',(-0.126646846500158,55.9380489002099,1.06917419527811));
#329=CARTESIAN_POINT('',(-0.126646846500158,40.8238869032927,38.2572699800872));
#330=CARTESIAN_POINT('',(-0.126646846500158,0.687990512135154,38.9659178809911));
#331=CARTESIAN_POINT('',(11.7832300218737,-38.9585162566228,-2.49267799553529));
#332=CARTESIAN_POINT('',(11.7832300218737,-36.3909938882064,-42.6209505234574));
#333=CARTESIAN_POINT('',(11.7832300218737,1.52027841025879,-56.0226616044773));
#334=CARTESIAN_POINT('',(11.7832300218737,28.7367355440598,-26.4230857921202));
#335=CARTESIAN_POINT('',(11.7832300218737,55.9531926778607,3.17649002023699));
#336=CARTESIAN_POINT('',(11.7832300218737,39.4238037151581,39.832318038537));
#337=CARTESIAN_POINT('',(11.7832300218737,-0.778526806733986,39.03041542846));
#338=CARTESIAN_POINT('',(11.9102153440349,-27.0035004011442,-1.46240103121532));
#339=CARTESIAN_POINT('',(11.9102153440349,-25.4971897721877,-29.2767001222583));
#340=CARTESIAN_POINT('',(11.9102153440349,0.673062942973115,-38.8172492920658));
#341=CARTESIAN_POINT('',(11.9102153440349,19.7267130639427,-18.4982280876728));
#342=CARTESIAN_POINT('',(11.9102153440349,38.7803631849122,1.82079311672033));
#343=CARTESIAN_POINT('',(11.9102153440349,27.5791022824676,27.3244391272864));
#344=CARTESIAN_POINT('',(11.9102153440349,-0.274519585451397,27.0416769022909));
#345=CARTESIAN_POINT('',(11.9102153440349,-0.274519585451408,27.0416769022909));
#346=CARTESIAN_POINT('',(11.9102153440349,-16.6728270717817,26.8752058439495));
#347=CARTESIAN_POINT('',(11.9102153440349,-27.8903130742208,14.9127558936014));
#348=CARTESIAN_POINT('',(11.9102153440349,-27.0035004011442,-1.46240103121532));
#349=CARTESIAN_POINT('',(12.037200666196,0.229487635831188,15.0529383761218));
#350=CARTESIAN_POINT('',(12.037200666196,-8.89874479429281,15.1921016695178));
#351=CARTESIAN_POINT('',(12.037200666196,-15.3105283289263,8.69340752179856));
#352=CARTESIAN_POINT('',(12.037200666196,-15.0484845456654,-0.432124066895356));
#353=CARTESIAN_POINT('',(0.127323797822134,1.69600495470033,14.9884408286529));
#354=CARTESIAN_POINT('',(0.127323797822134,-7.39311560305972,16.0169129476715));
#355=CARTESIAN_POINT('',(0.127323797822134,-14.4203598471824,10.1613424591077));
#356=CARTESIAN_POINT('',(0.127323797822134,-15.0484845456654,1.03581087041373));
#357=CARTESIAN_POINT('',(0.000338475660987929,1.19199773341773,26.977179354822));
#358=CARTESIAN_POINT('',(0.000338475660987929,-15.1671978805486,27.7000171221033));
#359=CARTESIAN_POINT('',(0.000338475660987929,-27.0001445924769,16.3806908309104));
#360=CARTESIAN_POINT('',(0.000338475660987929,-27.0035004011442,0.00553390609376301));
#361=CARTESIAN_POINT('',(-0.126646846500158,0.687990512135134,38.9659178809911));
#362=CARTESIAN_POINT('',(-0.126646846500158,-22.9412801580375,39.3831212965349));
#363=CARTESIAN_POINT('',(-0.126646846500158,-39.5799293377714,22.6000392027132));
#364=CARTESIAN_POINT('',(-0.126646846500158,-38.9585162566228,-1.0247430582262));
#365=CARTESIAN_POINT('',(11.7832300218737,-0.778526806734003,39.03041542846));
#366=CARTESIAN_POINT('',(11.7832300218737,-24.4469093492706,38.5583100183812));
#367=CARTESIAN_POINT('',(11.7832300218737,-40.4700978195152,21.1321042654041));
#368=CARTESIAN_POINT('',(11.7832300218737,-38.9585162566228,-2.49267799553529));
#369=CARTESIAN_POINT('',(11.9102153440349,-0.274519585451408,27.0416769022909));
#370=CARTESIAN_POINT('',(11.9102153440349,-16.6728270717817,26.8752058439495));
#371=CARTESIAN_POINT('',(11.9102153440349,-27.8903130742208,14.9127558936014));
#372=CARTESIAN_POINT('',(11.9102153440349,-27.0035004011442,-1.46240103121532));
#373=CARTESIAN_POINT('',(48.,0.,0.));
#374=CARTESIAN_POINT('',(48.,0.,29.));
#375=CARTESIAN_POINT('',(40.,0.,0.));
#376=CARTESIAN_POINT('',(40.,0.,29.));
#377=CARTESIAN_POINT('',(0.,0.,0.));
#378=CARTESIAN_POINT('',(50.,0.,0.));
#379=CARTESIAN_POINT('',(50.,0.,27.));
#380=CARTESIAN_POINT('',(50.,14.5,0.));
#381=CARTESIAN_POINT('',(48.,0.,0.));
#382=CARTESIAN_POINT('',(38.7198090420219,0.,0.));
#383=CARTESIAN_POINT('',(38.7198090420219,0.,28.8333333333333));
#384=CARTESIAN_POINT('',(40.,0.,0.));
#385=CARTESIAN_POINT('',(21.4216068932797,0.,0.));
#386=CARTESIAN_POINT('',(21.4216068932797,0.,30.5));
#387=CARTESIAN_POINT('',(32.3188542521313,0.,0.));
#388=CARTESIAN_POINT('',(19.2421574215094,0.,0.));
#389=CARTESIAN_POINT('',(19.2421574215094,0.,31.));
#390=CARTESIAN_POINT('',(19.2421574215094,0.,0.));
#391=CARTESIAN_POINT('',(8.2805888022691,0.,0.));
#392=CARTESIAN_POINT('',(8.2805888022691,0.,31.0000000000528));
#393=CARTESIAN_POINT('',(0.,0.,0.));
#394=CARTESIAN_POINT('',(3.,0.,0.));
#395=CARTESIAN_POINT('',(3.,0.,22.9065183331697));
#396=CARTESIAN_POINT('',(0.668166344670197,27.2854532812309,0.));
#397=CARTESIAN_POINT('',(0.674904350933562,26.6501078983672,0.));
#398=CARTESIAN_POINT('',(0.709143855078111,26.3358865649071,0.));
#399=CARTESIAN_POINT('',(0.839595666873769,25.7144889975844,0.));
#400=CARTESIAN_POINT('',(0.934466498729603,25.4142812189502,0.));
#401=CARTESIAN_POINT('',(1.18053775112093,24.8377803134305,0.));
#402=CARTESIAN_POINT('',(1.33393740901448,24.5580834739415,0.));
#403=CARTESIAN_POINT('',(1.69099202864684,24.0381930666248,0.));
#404=CARTESIAN_POINT('',(1.89312986405745,23.7987744165592,0.));
#405=CARTESIAN_POINT('',(2.34449763882423,23.3608781192682,0.));
#406=CARTESIAN_POINT('',(2.59554050303116,23.1620799563604,0.));
#407=CARTESIAN_POINT('',(3.12381868602183,22.8238402375514,0.));
#408=CARTESIAN_POINT('',(3.40332024955012,22.6817186614624,0.));
#409=CARTESIAN_POINT('',(3.99391336129059,22.4529923137804,0.));
#410=CARTESIAN_POINT('',(4.29903506865944,22.3691452505895,0.));
#411=CARTESIAN_POINT('',(4.91628668434011,22.2634305435263,0.));
#412=CARTESIAN_POINT('',(5.23307554940792,22.2409579244252,0.));
#413=CARTESIAN_POINT('',(5.86494665766238,22.2592856158967,0.));
#414=CARTESIAN_POINT('',(6.17568257073931,22.2993576558788,0.));
#415=CARTESIAN_POINT('',(6.78709189243195,22.4393162190895,0.));
#416=CARTESIAN_POINT('',(7.09068414028104,22.5408950802126,0.));
#417=CARTESIAN_POINT('',(7.664584234306,22.797408859378,0.));
#418=CARTESIAN_POINT('',(7.93683132194431,22.9521271346121,0.));
#419=CARTESIAN_POINT('',(8.45192589938874,23.3144750804282,0.));
#420=CARTESIAN_POINT('',(8.6941679578739,23.5227382357021,0.));
#421=CARTESIAN_POINT('',(9.12815090086164,23.9750808065778,0.));
#422=CARTESIAN_POINT('',(9.32289060700897,24.221032562869,0.));
#423=CARTESIAN_POINT('',(9.66627278126327,24.7539137264055,0.));
#424=CARTESIAN_POINT('',(9.8105914651039,25.0346072814816,0.));
#425=CARTESIAN_POINT('',(10.0425463452315,25.6166785346993,0.));
#426=CARTESIAN_POINT('',(10.1313744132844,25.9221120772416,0.));
#427=CARTESIAN_POINT('',(10.2473741344267,26.5429717583922,0.));
#428=CARTESIAN_POINT('',(10.2746102983599,26.8552052521984,0.));
#429=CARTESIAN_POINT('',(10.2681827611227,27.483242754751,0.));
#430=CARTESIAN_POINT('',(10.2334779842575,27.8016470548005,0.));
#431=CARTESIAN_POINT('',(10.1040996480855,28.4162222470479,0.));
#432=CARTESIAN_POINT('',(10.0098909832024,28.7151476996547,0.));
#433=CARTESIAN_POINT('',(9.76107966918202,29.2958904824853,0.));
#434=CARTESIAN_POINT('',(9.60725863891929,29.5742163912176,0.));
#435=CARTESIAN_POINT('',(9.25159881647435,30.0900177999688,0.));
#436=CARTESIAN_POINT('',(9.04720313028681,30.3316440020366,0.));
#437=CARTESIAN_POINT('',(8.59165352532544,30.7715837415798,0.));
#438=CARTESIAN_POINT('',(8.3454165433014,30.9657201948696,0.));
#439=CARTESIAN_POINT('',(7.81708479933412,31.3038186916189,0.));
#440=CARTESIAN_POINT('',(7.53159316430012,31.4487414617443,0.));
#441=CARTESIAN_POINT('',(6.94530424075562,31.6760797492426,0.));
#442=CARTESIAN_POINT('',(6.64355525714998,31.7599547152757,0.));
#443=CARTESIAN_POINT('',(6.02280257258161,31.8679581413382,0.));
#444=CARTESIAN_POINT('',(5.70425030063879,31.8911071322267,0.));
#445=CARTESIAN_POINT('',(5.07782727610335,31.8750050657611,0.));
#446=CARTESIAN_POINT('',(4.76640891430642,31.8365498814865,0.));
#447=CARTESIAN_POINT('',(4.14728184190247,31.6967397190117,0.));
#448=CARTESIAN_POINT('',(3.84864809856362,31.5972977590717,0.));
#449=CARTESIAN_POINT('',(3.276140103737,31.343178658202,0.));
#450=CARTESIAN_POINT('',(2.99902468099345,31.1864237587556,0.));
#451=CARTESIAN_POINT('',(2.48270760342183,30.8233153600517,0.));
#452=CARTESIAN_POINT('',(2.2452159474795,30.6190314181892,0.));
#453=CARTESIAN_POINT('',(1.81076073316613,30.1658901351169,0.));
#454=CARTESIAN_POINT('',(1.61260582949001,29.9143529144743,0.));
#455=CARTESIAN_POINT('',(1.27354253809554,29.3856112650994,0.));
#456=CARTESIAN_POINT('',(1.13050386358625,29.1069240655961,0.));
#457=CARTESIAN_POINT('',(0.898076022161828,28.5205583370041,0.));
#458=CARTESIAN_POINT('',(0.810027545408928,28.2141975445817,0.));
#459=CARTESIAN_POINT('',(0.695749820646748,27.5981819476888,0.));
#460=CARTESIAN_POINT('',(0.668166344670197,27.2854532812309,0.));
#461=CARTESIAN_POINT('',(0.674904350933562,26.6501078983672,0.));
#462=CARTESIAN_POINT('',(0.,0.,0.));
#463=CARTESIAN_POINT('',(9.13778308878143,0.,0.));
#464=CARTESIAN_POINT('',(3.,0.,0.));
#465=(
GEOMETRIC_REPRESENTATION_CONTEXT(3)
GLOBAL_UNCERTAINTY_ASSIGNED_CONTEXT((#466))
GLOBAL_UNIT_ASSIGNED_CONTEXT((#472,#468,#467))
REPRESENTATION_CONTEXT('model1','TOP_LEVEL_ASSEMBLY_PART')
);
#466=UNCERTAINTY_MEASURE_WITH_UNIT(LENGTH_MEASURE(2.E-5),#472,
'DISTANCE_ACCURACY_VALUE','Maximum Tolerance applied to model');
#467=(
NAMED_UNIT(*)
SI_UNIT($,.STERADIAN.)
SOLID_ANGLE_UNIT()
);
#468=(
CONVERSION_BASED_UNIT('DEGREE',#470)
NAMED_UNIT(#469)
PLANE_ANGLE_UNIT()
);
#469=DIMENSIONAL_EXPONENTS(0.,0.,0.,0.,0.,0.,0.);
#470=PLANE_ANGLE_MEASURE_WITH_UNIT(PLANE_ANGLE_MEASURE(0.0174532925),#471);
#471=(
NAMED_UNIT(*)
PLANE_ANGLE_UNIT()
SI_UNIT($,.RADIAN.)
);
#472=(
LENGTH_UNIT()
NAMED_UNIT(*)
SI_UNIT(.MILLI.,.METRE.)
);
ENDSEC;
END-ISO-10303-21;
