ISO-10303-21;
HEADER;
/* Generated by software containing ST-Developer
 * from STEP Tools, Inc. (www.steptools.com) 
 */
/* OPTION: using custom schema-name function */

FILE_DESCRIPTION(
/* description */ (''),
/* implementation_level */ '2;1');

FILE_NAME(
/* name */ 'model1.stp',
/* time_stamp */ '2023-11-03T13:41:41+03:00',
/* author */ (''),
/* organization */ (''),
/* preprocessor_version */ 'ST-DEVELOPER v19.4',
/* originating_system */ 'SIEMENS PLM Software NX2306.3001',
/* authorisation */ '');

FILE_SCHEMA (('AUTOMOTIVE_DESIGN { 1 0 10303 214 3 1 1 1 }'));
ENDSEC;

DATA;
#10=PROPERTY_DEFINITION_REPRESENTATION(#14,#12);
#11=PROPERTY_DEFINITION_REPRESENTATION(#15,#13);
#12=REPRESENTATION('',(#16),#471);
#13=REPRESENTATION('',(#17),#471);
#14=PROPERTY_DEFINITION('pmi validation property','',#21);
#15=PROPERTY_DEFINITION('pmi validation property','',#21);
#16=VALUE_REPRESENTATION_ITEM('number of annotations',COUNT_MEASURE(0.));
#17=VALUE_REPRESENTATION_ITEM('number of views',COUNT_MEASURE(0.));
#18=SHAPE_REPRESENTATION_RELATIONSHIP('None',
'relationship between model1_objects-None and model1_objects-None',#30,
#19);
#19=ADVANCED_BREP_SHAPE_REPRESENTATION('model1_objects-None',(#125,#126),
#471);
#20=SHAPE_DEFINITION_REPRESENTATION(#21,#30);
#21=PRODUCT_DEFINITION_SHAPE('','',#22);
#22=PRODUCT_DEFINITION(' ','',#24,#23);
#23=PRODUCT_DEFINITION_CONTEXT('part definition',#29,'design');
#24=PRODUCT_DEFINITION_FORMATION_WITH_SPECIFIED_SOURCE(' ',' ',#26,
 .NOT_KNOWN.);
#25=PRODUCT_RELATED_PRODUCT_CATEGORY('part','',(#26));
#26=PRODUCT('model1_objects','model1_objects',' ',(#27));
#27=PRODUCT_CONTEXT(' ',#29,'mechanical');
#28=APPLICATION_PROTOCOL_DEFINITION('international standard',
'automotive_design',2010,#29);
#29=APPLICATION_CONTEXT(
'core data for automotive mechanical design processes');
#30=SHAPE_REPRESENTATION('model1_objects-None',(#233),#471);
#31=OVER_RIDING_STYLED_ITEM('',(#60),#131,#57);
#32=OVER_RIDING_STYLED_ITEM('',(#61),#132,#57);
#33=OVER_RIDING_STYLED_ITEM('',(#62),#133,#57);
#34=OVER_RIDING_STYLED_ITEM('',(#63),#134,#57);
#35=OVER_RIDING_STYLED_ITEM('',(#64),#135,#57);
#36=OVER_RIDING_STYLED_ITEM('',(#65),#136,#57);
#37=OVER_RIDING_STYLED_ITEM('',(#66),#137,#57);
#38=OVER_RIDING_STYLED_ITEM('',(#67),#138,#57);
#39=OVER_RIDING_STYLED_ITEM('',(#68),#139,#57);
#40=COLOUR_RGB('Medium Steel',0.611764705882353,0.658823529411765,0.670588235294118);
#41=COLOUR_RGB('silver gray',0.6,0.6,0.6);
#42=SURFACE_OF_REVOLUTION('',#44,#43);
#43=AXIS1_PLACEMENT('',#463,#280);
#44=B_SPLINE_CURVE_WITH_KNOTS('',3,(#391,#392,#393,#394,#395,#396,#397,
#398,#399,#400,#401,#402,#403,#404,#405,#406,#407,#408,#409,#410,#411,#412,
#413,#414,#415,#416,#417,#418,#419,#420,#421,#422,#423,#424,#425,#426,#427,
#428,#429,#430,#431,#432,#433,#434,#435,#436,#437,#438,#439,#440,#441,#442,
#443,#444,#445,#446,#447,#448,#449,#450,#451,#452,#453,#454,#455,#456,#457,
#458,#459,#460,#461,#462),.UNSPECIFIED.,.T.,.F.,(2,2,2,2,2,2,2,2,2,2,2,
2,2,2,2,2,2,2,2,2,2,2,2,2,2,2,2,2,2,2,2,2,2,2,2,2,2,2),(-0.03125,0.,0.0312499999999996,
0.0624999999999993,0.09375,0.125,0.15625,0.1875,0.203125,0.21875,0.249999999999998,
0.28125,0.3125,0.34375,0.375,0.40625,0.4375,0.46875,0.5,0.53125,0.5625,
0.59375,0.625,0.65625,0.6875,0.71875,0.75,0.78125,0.8125,0.828125,0.84375,
0.875,0.90625,0.9375,0.953125,0.96875,1.,1.03125),.UNSPECIFIED.);
#45=CONICAL_SURFACE('',#245,9.8421458122147,70.000000000468);
#46=VERTEX_LOOP('',#209);
#47=PLANE('',#241);
#48=FACE_OUTER_BOUND('',#170,.T.);
#49=TOROIDAL_SURFACE('',#240,17.,1.);
#50=TOROIDAL_SURFACE('',#243,13.,5.);
#51=TOROIDAL_SURFACE('',#250,13.,5.);
#52=TOROIDAL_SURFACE('',#251,57.,40.);
#53=CYLINDRICAL_SURFACE('',#238,18.);
#54=CYLINDRICAL_SURFACE('',#248,18.);
#55=PRESENTATION_LAYER_ASSIGNMENT('1','Layer 1',(#125,#126));
#56=STYLED_ITEM('',(#58),#125);
#57=STYLED_ITEM('',(#59),#126);
#58=PRESENTATION_STYLE_ASSIGNMENT((#69));
#59=PRESENTATION_STYLE_ASSIGNMENT((#70));
#60=PRESENTATION_STYLE_ASSIGNMENT((#71));
#61=PRESENTATION_STYLE_ASSIGNMENT((#72));
#62=PRESENTATION_STYLE_ASSIGNMENT((#73));
#63=PRESENTATION_STYLE_ASSIGNMENT((#74));
#64=PRESENTATION_STYLE_ASSIGNMENT((#75));
#65=PRESENTATION_STYLE_ASSIGNMENT((#76));
#66=PRESENTATION_STYLE_ASSIGNMENT((#77));
#67=PRESENTATION_STYLE_ASSIGNMENT((#78));
#68=PRESENTATION_STYLE_ASSIGNMENT((#79));
#69=SURFACE_STYLE_USAGE(.BOTH.,#80);
#70=SURFACE_STYLE_USAGE(.BOTH.,#81);
#71=SURFACE_STYLE_USAGE(.BOTH.,#82);
#72=SURFACE_STYLE_USAGE(.BOTH.,#83);
#73=SURFACE_STYLE_USAGE(.BOTH.,#84);
#74=SURFACE_STYLE_USAGE(.BOTH.,#85);
#75=SURFACE_STYLE_USAGE(.BOTH.,#86);
#76=SURFACE_STYLE_USAGE(.BOTH.,#87);
#77=SURFACE_STYLE_USAGE(.BOTH.,#88);
#78=SURFACE_STYLE_USAGE(.BOTH.,#89);
#79=SURFACE_STYLE_USAGE(.BOTH.,#90);
#80=SURFACE_SIDE_STYLE('',(#91));
#81=SURFACE_SIDE_STYLE('',(#92));
#82=SURFACE_SIDE_STYLE('',(#93));
#83=SURFACE_SIDE_STYLE('',(#94));
#84=SURFACE_SIDE_STYLE('',(#95));
#85=SURFACE_SIDE_STYLE('',(#96));
#86=SURFACE_SIDE_STYLE('',(#97));
#87=SURFACE_SIDE_STYLE('',(#98));
#88=SURFACE_SIDE_STYLE('',(#99));
#89=SURFACE_SIDE_STYLE('',(#100));
#90=SURFACE_SIDE_STYLE('',(#101));
#91=SURFACE_STYLE_FILL_AREA(#102);
#92=SURFACE_STYLE_FILL_AREA(#103);
#93=SURFACE_STYLE_FILL_AREA(#104);
#94=SURFACE_STYLE_FILL_AREA(#105);
#95=SURFACE_STYLE_FILL_AREA(#106);
#96=SURFACE_STYLE_FILL_AREA(#107);
#97=SURFACE_STYLE_FILL_AREA(#108);
#98=SURFACE_STYLE_FILL_AREA(#109);
#99=SURFACE_STYLE_FILL_AREA(#110);
#100=SURFACE_STYLE_FILL_AREA(#111);
#101=SURFACE_STYLE_FILL_AREA(#112);
#102=FILL_AREA_STYLE('',(#113));
#103=FILL_AREA_STYLE('',(#114));
#104=FILL_AREA_STYLE('',(#115));
#105=FILL_AREA_STYLE('',(#116));
#106=FILL_AREA_STYLE('',(#117));
#107=FILL_AREA_STYLE('',(#118));
#108=FILL_AREA_STYLE('',(#119));
#109=FILL_AREA_STYLE('',(#120));
#110=FILL_AREA_STYLE('',(#121));
#111=FILL_AREA_STYLE('',(#122));
#112=FILL_AREA_STYLE('',(#123));
#113=FILL_AREA_STYLE_COLOUR('',#124);
#114=FILL_AREA_STYLE_COLOUR('',#40);
#115=FILL_AREA_STYLE_COLOUR('',#41);
#116=FILL_AREA_STYLE_COLOUR('',#41);
#117=FILL_AREA_STYLE_COLOUR('',#41);
#118=FILL_AREA_STYLE_COLOUR('',#41);
#119=FILL_AREA_STYLE_COLOUR('',#41);
#120=FILL_AREA_STYLE_COLOUR('',#41);
#121=FILL_AREA_STYLE_COLOUR('',#41);
#122=FILL_AREA_STYLE_COLOUR('',#41);
#123=FILL_AREA_STYLE_COLOUR('',#41);
#124=DRAUGHTING_PRE_DEFINED_COLOUR('yellow');
#125=MANIFOLD_SOLID_BREP('',#127);
#126=MANIFOLD_SOLID_BREP('',#128);
#127=CLOSED_SHELL('',(#129,#130));
#128=CLOSED_SHELL('',(#131,#132,#133,#134,#135,#136,#137,#138,#139));
#129=ADVANCED_FACE('',(#142,#143),#140,.F.);
#130=ADVANCED_FACE('',(#144,#145),#141,.F.);
#131=ADVANCED_FACE('',(#146,#147),#53,.T.);
#132=ADVANCED_FACE('',(#148,#149),#49,.T.);
#133=ADVANCED_FACE('',(#48),#47,.F.);
#134=ADVANCED_FACE('',(#150,#151),#50,.T.);
#135=ADVANCED_FACE('',(#152,#153),#45,.F.);
#136=ADVANCED_FACE('',(#154,#155),#42,.T.);
#137=ADVANCED_FACE('',(#156,#157),#54,.T.);
#138=ADVANCED_FACE('',(#158,#159),#51,.T.);
#139=ADVANCED_FACE('',(#160,#161),#52,.F.);
#140=(
BOUNDED_SURFACE()
B_SPLINE_SURFACE(3,3,((#296,#297,#298,#299,#300,#301,#302),(#303,#304,#305,
#306,#307,#308,#309),(#310,#311,#312,#313,#314,#315,#316),(#317,#318,#319,
#320,#321,#322,#323),(#324,#325,#326,#327,#328,#329,#330),(#331,#332,#333,
#334,#335,#336,#337),(#338,#339,#340,#341,#342,#343,#344)),
 .UNSPECIFIED.,.T.,.F.,.F.)
B_SPLINE_SURFACE_WITH_KNOTS((1,3,3,3,1),(4,3,4),(-0.5,0.,0.5,1.,1.5),(0.,
0.5,1.),.UNSPECIFIED.)
GEOMETRIC_REPRESENTATION_ITEM()
RATIONAL_B_SPLINE_SURFACE(((1.,0.588168198891659,0.588168198891659,1.,0.588168198891659,
0.588168198891659,1.),(0.333333333333334,0.19605606629722,0.19605606629722,
0.333333333333334,0.19605606629722,0.19605606629722,0.333333333333334),
(0.333333333333334,0.19605606629722,0.19605606629722,0.333333333333334,
0.19605606629722,0.19605606629722,0.333333333333334),(1.,0.588168198891659,
0.588168198891659,1.,0.588168198891659,0.588168198891659,1.),(0.333333333333334,
0.19605606629722,0.19605606629722,0.333333333333334,0.19605606629722,0.19605606629722,
0.333333333333334),(0.333333333333334,0.19605606629722,0.19605606629722,
0.333333333333334,0.19605606629722,0.19605606629722,0.333333333333334),
(1.,0.588168198891659,0.588168198891659,1.,0.588168198891659,0.588168198891659,
1.)))
REPRESENTATION_ITEM('')
SURFACE()
);
#141=(
BOUNDED_SURFACE()
B_SPLINE_SURFACE(3,3,((#345,#346,#347,#348),(#349,#350,#351,#352),(#353,
#354,#355,#356),(#357,#358,#359,#360),(#361,#362,#363,#364),(#365,#366,
#367,#368),(#369,#370,#371,#372)),.UNSPECIFIED.,.T.,.F.,.F.)
B_SPLINE_SURFACE_WITH_KNOTS((1,3,3,3,1),(4,4),(-0.5,0.,0.5,1.,1.5),(0.,
1.),.UNSPECIFIED.)
GEOMETRIC_REPRESENTATION_ITEM()
RATIONAL_B_SPLINE_SURFACE(((1.,0.805177573887611,0.805177573887611,1.),
(0.333333333333334,0.268392524629204,0.268392524629204,0.333333333333334),
(0.333333333333334,0.268392524629204,0.268392524629204,0.333333333333334),
(1.,0.805177573887611,0.805177573887611,1.),(0.333333333333334,0.268392524629204,
0.268392524629204,0.333333333333334),(0.333333333333334,0.268392524629204,
0.268392524629204,0.333333333333334),(1.,0.805177573887611,0.805177573887611,
1.)))
REPRESENTATION_ITEM('')
SURFACE()
);
#142=FACE_BOUND('',#162,.T.);
#143=FACE_BOUND('',#163,.T.);
#144=FACE_BOUND('',#164,.T.);
#145=FACE_BOUND('',#165,.T.);
#146=FACE_BOUND('',#166,.T.);
#147=FACE_BOUND('',#167,.T.);
#148=FACE_BOUND('',#168,.T.);
#149=FACE_BOUND('',#169,.T.);
#150=FACE_BOUND('',#171,.T.);
#151=FACE_BOUND('',#172,.T.);
#152=FACE_BOUND('',#173,.T.);
#153=FACE_BOUND('',#46,.T.);
#154=FACE_BOUND('',#174,.T.);
#155=FACE_BOUND('',#175,.T.);
#156=FACE_BOUND('',#176,.T.);
#157=FACE_BOUND('',#177,.T.);
#158=FACE_BOUND('',#178,.T.);
#159=FACE_BOUND('',#179,.T.);
#160=FACE_BOUND('',#180,.T.);
#161=FACE_BOUND('',#181,.T.);
#162=EDGE_LOOP('',(#182));
#163=EDGE_LOOP('',(#183));
#164=EDGE_LOOP('',(#184));
#165=EDGE_LOOP('',(#185));
#166=EDGE_LOOP('',(#186));
#167=EDGE_LOOP('',(#187));
#168=EDGE_LOOP('',(#188));
#169=EDGE_LOOP('',(#189));
#170=EDGE_LOOP('',(#190));
#171=EDGE_LOOP('',(#191));
#172=EDGE_LOOP('',(#192));
#173=EDGE_LOOP('',(#193));
#174=EDGE_LOOP('',(#194));
#175=EDGE_LOOP('',(#195));
#176=EDGE_LOOP('',(#196));
#177=EDGE_LOOP('',(#197));
#178=EDGE_LOOP('',(#198));
#179=EDGE_LOOP('',(#199));
#180=EDGE_LOOP('',(#200));
#181=EDGE_LOOP('',(#201));
#182=ORIENTED_EDGE('',*,*,#213,.T.);
#183=ORIENTED_EDGE('',*,*,#214,.F.);
#184=ORIENTED_EDGE('',*,*,#214,.T.);
#185=ORIENTED_EDGE('',*,*,#213,.F.);
#186=ORIENTED_EDGE('',*,*,#215,.T.);
#187=ORIENTED_EDGE('',*,*,#216,.F.);
#188=ORIENTED_EDGE('',*,*,#215,.F.);
#189=ORIENTED_EDGE('',*,*,#217,.T.);
#190=ORIENTED_EDGE('',*,*,#217,.F.);
#191=ORIENTED_EDGE('',*,*,#218,.F.);
#192=ORIENTED_EDGE('',*,*,#216,.T.);
#193=ORIENTED_EDGE('',*,*,#219,.T.);
#194=ORIENTED_EDGE('',*,*,#219,.F.);
#195=ORIENTED_EDGE('',*,*,#220,.T.);
#196=ORIENTED_EDGE('',*,*,#220,.F.);
#197=ORIENTED_EDGE('',*,*,#221,.T.);
#198=ORIENTED_EDGE('',*,*,#221,.F.);
#199=ORIENTED_EDGE('',*,*,#222,.T.);
#200=ORIENTED_EDGE('',*,*,#222,.F.);
#201=ORIENTED_EDGE('',*,*,#218,.T.);
#202=VERTEX_POINT('',#293);
#203=VERTEX_POINT('',#295);
#204=VERTEX_POINT('',#374);
#205=VERTEX_POINT('',#376);
#206=VERTEX_POINT('',#379);
#207=VERTEX_POINT('',#383);
#208=VERTEX_POINT('',#386);
#209=VERTEX_POINT('',#387);
#210=VERTEX_POINT('',#390);
#211=VERTEX_POINT('',#465);
#212=VERTEX_POINT('',#468);
#213=EDGE_CURVE('',#202,#202,#223,.T.);
#214=EDGE_CURVE('',#203,#203,#224,.T.);
#215=EDGE_CURVE('',#204,#204,#225,.T.);
#216=EDGE_CURVE('',#205,#205,#226,.T.);
#217=EDGE_CURVE('',#206,#206,#227,.T.);
#218=EDGE_CURVE('',#207,#207,#228,.T.);
#219=EDGE_CURVE('',#208,#208,#229,.T.);
#220=EDGE_CURVE('',#210,#210,#230,.T.);
#221=EDGE_CURVE('',#211,#211,#231,.T.);
#222=EDGE_CURVE('',#212,#212,#232,.T.);
#223=CIRCLE('',#234,6.);
#224=CIRCLE('',#235,6.);
#225=CIRCLE('',#236,18.);
#226=CIRCLE('',#237,18.);
#227=CIRCLE('',#239,17.);
#228=CIRCLE('',#242,17.8888888888889);
#229=CIRCLE('',#244,9.8421458122147);
#230=CIRCLE('',#246,18.);
#231=CIRCLE('',#247,18.);
#232=CIRCLE('',#249,17.8888888888889);
#233=AXIS2_PLACEMENT_3D('',#291,#252,#253);
#234=AXIS2_PLACEMENT_3D('',#292,#254,#255);
#235=AXIS2_PLACEMENT_3D('',#294,#256,#257);
#236=AXIS2_PLACEMENT_3D('',#373,#258,#259);
#237=AXIS2_PLACEMENT_3D('',#375,#260,#261);
#238=AXIS2_PLACEMENT_3D('',#377,#262,#263);
#239=AXIS2_PLACEMENT_3D('',#378,#264,#265);
#240=AXIS2_PLACEMENT_3D('',#380,#266,#267);
#241=AXIS2_PLACEMENT_3D('',#381,#268,#269);
#242=AXIS2_PLACEMENT_3D('',#382,#270,#271);
#243=AXIS2_PLACEMENT_3D('',#384,#272,#273);
#244=AXIS2_PLACEMENT_3D('',#385,#274,#275);
#245=AXIS2_PLACEMENT_3D('',#388,#276,#277);
#246=AXIS2_PLACEMENT_3D('',#389,#278,#279);
#247=AXIS2_PLACEMENT_3D('',#464,#281,#282);
#248=AXIS2_PLACEMENT_3D('',#466,#283,#284);
#249=AXIS2_PLACEMENT_3D('',#467,#285,#286);
#250=AXIS2_PLACEMENT_3D('',#469,#287,#288);
#251=AXIS2_PLACEMENT_3D('',#470,#289,#290);
#252=DIRECTION('',(0.,0.,1.));
#253=DIRECTION('',(1.,0.,0.));
#254=DIRECTION('',(0.0697564737441253,0.993604011953027,0.0887980957095045));
#255=DIRECTION('',(0.,-0.0890149316090293,0.99603029168326));
#256=DIRECTION('',(0.0697564737441253,-0.0869434357387574,0.993768017875765));
#257=DIRECTION('',(0.,-0.996194698091745,-0.0871557427476584));
#258=DIRECTION('',(-1.,0.,0.));
#259=DIRECTION('',(0.,0.,1.));
#260=DIRECTION('',(-1.,0.,0.));
#261=DIRECTION('',(0.,0.,1.));
#262=DIRECTION('',(-1.,0.,0.));
#263=DIRECTION('',(0.,0.,1.));
#264=DIRECTION('',(-1.,0.,0.));
#265=DIRECTION('',(0.,0.,1.));
#266=DIRECTION('',(-1.,0.,0.));
#267=DIRECTION('',(0.,0.,1.));
#268=DIRECTION('',(-1.,0.,0.));
#269=DIRECTION('',(0.,0.,1.));
#270=DIRECTION('',(-1.,0.,0.));
#271=DIRECTION('',(0.,0.,1.));
#272=DIRECTION('',(-1.,0.,0.));
#273=DIRECTION('',(0.,0.,1.));
#274=DIRECTION('',(-1.,0.,0.));
#275=DIRECTION('',(0.,0.,1.));
#276=DIRECTION('',(-1.,0.,0.));
#277=DIRECTION('',(-2.6738194823643E-18,0.,1.));
#278=DIRECTION('',(-1.,0.,0.));
#279=DIRECTION('',(0.,0.,1.));
#280=DIRECTION('',(-1.,0.,0.));
#281=DIRECTION('',(-1.,0.,0.));
#282=DIRECTION('',(0.,0.,1.));
#283=DIRECTION('',(-1.,0.,0.));
#284=DIRECTION('',(0.,0.,1.));
#285=DIRECTION('',(-1.,0.,0.));
#286=DIRECTION('',(0.,0.,1.));
#287=DIRECTION('',(-1.,0.,0.));
#288=DIRECTION('',(0.,0.,1.));
#289=DIRECTION('',(-1.,0.,0.));
#290=DIRECTION('',(0.,0.,1.));
#291=CARTESIAN_POINT('',(0.,0.,0.));
#292=CARTESIAN_POINT('',(5.98538430155895,0.55687920765274,14.0243156772846));
#293=CARTESIAN_POINT('',(5.98538430155895,0.0227896179985642,20.0004974273841));
#294=CARTESIAN_POINT('',(5.98538430155895,-14.0232518663162,0.583053824191157));
#295=CARTESIAN_POINT('',(5.98538430155895,-20.0004200548667,0.0601193677052065));
#296=CARTESIAN_POINT('',(5.98538430155895,-20.0004200548667,0.0601193677052065));
#297=CARTESIAN_POINT('',(5.98538430155895,-20.0633881905821,-20.8880245075692));
#298=CARTESIAN_POINT('',(5.98538430155895,-0.730158050840948,-28.9536868591133));
#299=CARTESIAN_POINT('',(5.98538430155895,14.1131533952817,-14.1717789268227));
#300=CARTESIAN_POINT('',(5.98538430155895,28.9564648414044,0.610129005467884));
#301=CARTESIAN_POINT('',(5.98538430155895,20.9710145321023,19.9766279188745));
#302=CARTESIAN_POINT('',(5.98538430155895,0.0227896179985626,20.0004974273841));
#303=CARTESIAN_POINT('',(17.9561529046768,-19.9274639274992,-0.773772983912479));
#304=CARTESIAN_POINT('',(17.9561529046769,-19.1170255592383,-21.6455036914392));
#305=CARTESIAN_POINT('',(17.9561529046769,0.479456025355346,-28.8748786700209));
#306=CARTESIAN_POINT('',(17.9561529046768,14.6506179071728,-13.530038364707));
#307=CARTESIAN_POINT('',(17.9561529046769,28.8217797889902,1.81480194060689));
#308=CARTESIAN_POINT('',(17.9561529046769,20.0592166032712,20.7753778678445));
#309=CARTESIAN_POINT('',(17.9561529046768,-0.810965112683317,19.9259850145087));
#310=CARTESIAN_POINT('',(17.9561529046768,-7.97312755039824,0.272095929059422));
#311=CARTESIAN_POINT('',(17.9561529046769,-8.25811679833289,-8.07883983146301));
#312=CARTESIAN_POINT('',(17.9561529046769,-0.650305627757223,-11.5343508125879));
#313=CARTESIAN_POINT('',(17.9561529046768,5.45089023071773,-5.82516908099638));
#314=CARTESIAN_POINT('',(17.9561529046769,11.5520860891927,-0.115987349404819));
#315=CARTESIAN_POINT('',(17.9561529046769,8.60866719763545,7.70421930877467));
#316=CARTESIAN_POINT('',(17.9561529046768,0.257214066625033,7.97362151430957));
#317=CARTESIAN_POINT('',(5.98538430155895,-8.04608367776576,1.10598828067711));
#318=CARTESIAN_POINT('',(5.98538430155895,-9.20447942967667,-7.32136064759305));
#319=CARTESIAN_POINT('',(5.98538430155895,-1.85991970395351,-11.6131590016804));
#320=CARTESIAN_POINT('',(5.98538430155895,4.91342571882665,-6.46690964311212));
#321=CARTESIAN_POINT('',(5.98538430155895,11.6867711416068,-1.32066028454383));
#322=CARTESIAN_POINT('',(5.98538430155895,9.5204651264665,6.90546935980461));
#323=CARTESIAN_POINT('',(5.98538430155895,1.09096879730692,8.04813392718501));
#324=CARTESIAN_POINT('',(-5.98538430155895,-8.11903980513328,1.93988063229479));
#325=CARTESIAN_POINT('',(-5.98538430155896,-10.1508420610205,-6.56388146372311));
#326=CARTESIAN_POINT('',(-5.98538430155896,-3.06953378014981,-11.6919671907729));
#327=CARTESIAN_POINT('',(-5.98538430155895,4.37596120693557,-7.10865020522785));
#328=CARTESIAN_POINT('',(-5.98538430155896,11.821456194021,-2.52533321968285));
#329=CARTESIAN_POINT('',(-5.98538430155896,10.4322630552975,6.10671941083457));
#330=CARTESIAN_POINT('',(-5.98538430155895,1.9247235279888,8.12264634006045));
#331=CARTESIAN_POINT('',(-5.98538430155895,-20.0733761822342,0.894011719322891));
#332=CARTESIAN_POINT('',(-5.98538430155896,-21.0097508219259,-20.1305453236992));
#333=CARTESIAN_POINT('',(-5.98538430155896,-1.93977212703724,-29.0324950482058));
#334=CARTESIAN_POINT('',(-5.98538430155895,13.5756888833906,-14.8135194889385));
#335=CARTESIAN_POINT('',(-5.98538430155896,29.0911498938185,-0.59454392967113));
#336=CARTESIAN_POINT('',(-5.98538430155896,21.8828124609333,19.1778779699044));
#337=CARTESIAN_POINT('',(-5.98538430155895,0.856544348680444,20.0750098402596));
#338=CARTESIAN_POINT('',(5.98538430155895,-20.0004200548667,0.0601193677052065));
#339=CARTESIAN_POINT('',(5.98538430155895,-20.0633881905821,-20.8880245075692));
#340=CARTESIAN_POINT('',(5.98538430155895,-0.730158050840948,-28.9536868591133));
#341=CARTESIAN_POINT('',(5.98538430155895,14.1131533952817,-14.1717789268227));
#342=CARTESIAN_POINT('',(5.98538430155895,28.9564648414044,0.610129005467884));
#343=CARTESIAN_POINT('',(5.98538430155895,20.9710145321023,19.9766279188745));
#344=CARTESIAN_POINT('',(5.98538430155895,0.0227896179985626,20.0004974273841));
#345=CARTESIAN_POINT('',(5.98538430155895,0.0227896179985638,20.0004974273841));
#346=CARTESIAN_POINT('',(5.98538430155895,-11.6758994484454,20.0138275285917));
#347=CARTESIAN_POINT('',(5.98538430155895,-19.965255039986,11.7587631774236));
#348=CARTESIAN_POINT('',(5.98538430155895,-20.0004200548667,0.0601193677052073));
#349=CARTESIAN_POINT('',(17.9561529046768,-0.810965112683319,19.9259850145087));
#350=CARTESIAN_POINT('',(17.9561529046769,-12.4660703856249,19.4516353773829));
#351=CARTESIAN_POINT('',(17.9561529046769,-20.3800591481767,10.8821973346758));
#352=CARTESIAN_POINT('',(17.9561529046768,-19.9274639274992,-0.773772983912478));
#353=CARTESIAN_POINT('',(17.9561529046768,0.257214066625034,7.97362151430957));
#354=CARTESIAN_POINT('',(17.9561529046769,-4.40671587652218,8.12407114186942));
#355=CARTESIAN_POINT('',(17.9561529046769,-7.81397322526866,4.93573694288227));
#356=CARTESIAN_POINT('',(17.9561529046768,-7.97312755039824,0.272095929059423));
#357=CARTESIAN_POINT('',(5.98538430155895,1.09096879730692,8.04813392718501));
#358=CARTESIAN_POINT('',(5.98538430155895,-3.61654493934268,8.68626329307824));
#359=CARTESIAN_POINT('',(5.98538430155895,-7.39916911707802,5.81230278563002));
#360=CARTESIAN_POINT('',(5.98538430155895,-8.04608367776576,1.10598828067711));
#361=CARTESIAN_POINT('',(-5.98538430155895,1.9247235279888,8.12264634006045));
#362=CARTESIAN_POINT('',(-5.98538430155896,-2.8263740021632,9.24845544428707));
#363=CARTESIAN_POINT('',(-5.98538430155896,-6.9843650088874,6.68886862837778));
#364=CARTESIAN_POINT('',(-5.98538430155895,-8.11903980513328,1.93988063229479));
#365=CARTESIAN_POINT('',(-5.98538430155895,0.856544348680446,20.0750098402596));
#366=CARTESIAN_POINT('',(-5.98538430155896,-10.8857285112659,20.5760196798005));
#367=CARTESIAN_POINT('',(-5.98538430155896,-19.5504509317954,12.6353290201713));
#368=CARTESIAN_POINT('',(-5.98538430155895,-20.0733761822342,0.894011719322893));
#369=CARTESIAN_POINT('',(5.98538430155895,0.0227896179985638,20.0004974273841));
#370=CARTESIAN_POINT('',(5.98538430155895,-11.6758994484454,20.0138275285917));
#371=CARTESIAN_POINT('',(5.98538430155895,-19.965255039986,11.7587631774236));
#372=CARTESIAN_POINT('',(5.98538430155895,-20.0004200548667,0.0601193677052073));
#373=CARTESIAN_POINT('',(39.,0.,0.));
#374=CARTESIAN_POINT('',(39.,0.,18.));
#375=CARTESIAN_POINT('',(33.,0.,0.));
#376=CARTESIAN_POINT('',(33.,0.,18.));
#377=CARTESIAN_POINT('',(0.,0.,0.));
#378=CARTESIAN_POINT('',(40.,0.,0.));
#379=CARTESIAN_POINT('',(40.,0.,17.));
#380=CARTESIAN_POINT('',(39.,0.,0.));
#381=CARTESIAN_POINT('',(40.,9.,0.));
#382=CARTESIAN_POINT('',(31.951779874216,0.,0.));
#383=CARTESIAN_POINT('',(31.951779874216,0.,17.8888888888889));
#384=CARTESIAN_POINT('',(33.,0.,0.));
#385=CARTESIAN_POINT('',(3.50000000003038,0.,0.));
#386=CARTESIAN_POINT('',(3.50000000003038,0.,9.8421458122147));
#387=CARTESIAN_POINT('',(7.08224811689324,0.,0.));
#388=CARTESIAN_POINT('',(3.50000000003038,0.,0.));
#389=CARTESIAN_POINT('',(8.85657613720691,0.,0.));
#390=CARTESIAN_POINT('',(8.85657613720691,0.,18.));
#391=CARTESIAN_POINT('',(5.32927125130911,9.40970953487985,0.));
#392=CARTESIAN_POINT('',(5.97741572176471,9.42388545045049,0.));
#393=CARTESIAN_POINT('',(6.2975008016728,9.46088604330717,0.));
#394=CARTESIAN_POINT('',(6.92969112553749,9.59343908203257,0.));
#395=CARTESIAN_POINT('',(7.23951919831672,9.68903046240528,0.));
#396=CARTESIAN_POINT('',(7.8312617981224,9.93286630316538,0.));
#397=CARTESIAN_POINT('',(8.11613143137821,10.0819121829339,0.));
#398=CARTESIAN_POINT('',(8.65890491699234,10.4355238531603,0.));
#399=CARTESIAN_POINT('',(8.90965930069441,10.6353048287814,0.));
#400=CARTESIAN_POINT('',(9.37021463980499,11.0804704244994,0.));
#401=CARTESIAN_POINT('',(9.58188395303692,11.3289352975584,0.));
#402=CARTESIAN_POINT('',(9.94791084835908,11.8574007996956,0.));
#403=CARTESIAN_POINT('',(10.1032350179098,12.1371549998797,0.));
#404=CARTESIAN_POINT('',(10.293829382621,12.5805494172347,0.));
#405=CARTESIAN_POINT('',(10.3504778791355,12.7332142604727,0.));
#406=CARTESIAN_POINT('',(10.4470576985666,13.0409166429367,0.));
#407=CARTESIAN_POINT('',(10.4872116997623,13.196213000408,0.));
#408=CARTESIAN_POINT('',(10.5837528578826,13.6663510879384,0.));
#409=CARTESIAN_POINT('',(10.6164588044512,13.9862551564479,0.));
#410=CARTESIAN_POINT('',(10.6154803803337,14.6343242616641,0.));
#411=CARTESIAN_POINT('',(10.5819894039702,14.9528791645191,0.));
#412=CARTESIAN_POINT('',(10.4516909824018,15.5794758331237,0.));
#413=CARTESIAN_POINT('',(10.3531052485137,15.8909303069964,0.));
#414=CARTESIAN_POINT('',(10.0981239799481,16.48065114869,0.));
#415=CARTESIAN_POINT('',(9.94245304477168,16.7598488391269,0.));
#416=CARTESIAN_POINT('',(9.575239020744,17.287190240708,0.));
#417=CARTESIAN_POINT('',(9.3626819106269,17.5350476974752,0.));
#418=CARTESIAN_POINT('',(8.90028852372602,17.9772852147171,0.));
#419=CARTESIAN_POINT('',(8.6484739988182,18.1749204473439,0.));
#420=CARTESIAN_POINT('',(8.10262111367521,18.5220983410519,0.));
#421=CARTESIAN_POINT('',(7.81468824559239,18.6673690598988,0.));
#422=CARTESIAN_POINT('',(7.21897108555362,18.899227942631,0.));
#423=CARTESIAN_POINT('',(6.90718906033693,18.9871229855097,0.));
#424=CARTESIAN_POINT('',(6.27181112372404,19.1009077081033,0.));
#425=CARTESIAN_POINT('',(5.95292417538933,19.126511854306,0.));
#426=CARTESIAN_POINT('',(5.31282561105058,19.1170056937625,0.));
#427=CARTESIAN_POINT('',(4.98825707858148,19.080887773016,0.));
#428=CARTESIAN_POINT('',(4.35984850655016,18.9488972129368,0.));
#429=CARTESIAN_POINT('',(4.05466710099344,18.8537140874756,0.));
#430=CARTESIAN_POINT('',(3.46234789208865,18.6049791288535,0.));
#431=CARTESIAN_POINT('',(3.17492364249689,18.4503148247907,0.));
#432=CARTESIAN_POINT('',(2.64266608011728,18.094577619791,0.));
#433=CARTESIAN_POINT('',(2.39448133561861,17.8923717773861,0.));
#434=CARTESIAN_POINT('',(1.93515458694409,17.4377195545358,0.));
#435=CARTESIAN_POINT('',(1.72856507204044,17.1892111567324,0.));
#436=CARTESIAN_POINT('',(1.36842927240577,16.6604896973005,0.));
#437=CARTESIAN_POINT('',(1.21242355365494,16.3764102978975,0.));
#438=CARTESIAN_POINT('',(0.958771214640746,15.7828510037606,0.));
#439=CARTESIAN_POINT('',(0.862317130914714,15.477584379776,0.));
#440=CARTESIAN_POINT('',(0.729669127745231,14.850212425802,0.));
#441=CARTESIAN_POINT('',(0.693913162086194,14.5251893481255,0.));
#442=CARTESIAN_POINT('',(0.687930273518518,13.8837739453065,0.));
#443=CARTESIAN_POINT('',(0.71662677137601,13.5648777016719,0.));
#444=CARTESIAN_POINT('',(0.839678444208024,12.930838626998,0.));
#445=CARTESIAN_POINT('',(0.933632712889515,12.6207902900644,0.));
#446=CARTESIAN_POINT('',(1.11881142026224,12.1780775180012,0.));
#447=CARTESIAN_POINT('',(1.18808351965172,12.0336103332543,0.));
#448=CARTESIAN_POINT('',(1.34205390222602,11.7510210098735,0.));
#449=CARTESIAN_POINT('',(1.427310372824,11.6121803324773,0.));
#450=CARTESIAN_POINT('',(1.70140264713896,11.2139113561621,0.));
#451=CARTESIAN_POINT('',(1.90893935785525,10.9707355327132,0.));
#452=CARTESIAN_POINT('',(2.37257891548377,10.5281113254304,0.));
#453=CARTESIAN_POINT('',(2.63137290854649,10.3277326271154,0.));
#454=CARTESIAN_POINT('',(3.17475323725442,9.98893921403535,0.));
#455=CARTESIAN_POINT('',(3.46141557433473,9.84786235325796,0.));
#456=CARTESIAN_POINT('',(3.91359487032062,9.67821145648901,0.));
#457=CARTESIAN_POINT('',(4.06868099549479,9.62860635358256,0.));
#458=CARTESIAN_POINT('',(4.37973343493964,9.54551936739324,0.));
#459=CARTESIAN_POINT('',(4.53637756787315,9.51171852732167,0.));
#460=CARTESIAN_POINT('',(5.00954459296627,9.43271898865698,0.));
#461=CARTESIAN_POINT('',(5.32927125130911,9.40970953487985,0.));
#462=CARTESIAN_POINT('',(5.97741572176471,9.42388545045049,0.));
#463=CARTESIAN_POINT('',(0.,0.,0.));
#464=CARTESIAN_POINT('',(14.1320377358868,0.,0.));
#465=CARTESIAN_POINT('',(14.1320377358868,0.,18.));
#466=CARTESIAN_POINT('',(0.,0.,0.));
#467=CARTESIAN_POINT('',(15.180257861671,0.,0.));
#468=CARTESIAN_POINT('',(15.180257861671,0.,17.8888888888889));
#469=CARTESIAN_POINT('',(14.1320377358868,0.,0.));
#470=CARTESIAN_POINT('',(23.5660188679434,0.,0.));
#471=(
GEOMETRIC_REPRESENTATION_CONTEXT(3)
GLOBAL_UNCERTAINTY_ASSIGNED_CONTEXT((#472))
GLOBAL_UNIT_ASSIGNED_CONTEXT((#478,#474,#473))
REPRESENTATION_CONTEXT('model1','TOP_LEVEL_ASSEMBLY_PART')
);
#472=UNCERTAINTY_MEASURE_WITH_UNIT(LENGTH_MEASURE(2.E-5),#478,
'DISTANCE_ACCURACY_VALUE','Maximum Tolerance applied to model');
#473=(
NAMED_UNIT(*)
SI_UNIT($,.STERADIAN.)
SOLID_ANGLE_UNIT()
);
#474=(
CONVERSION_BASED_UNIT('DEGREE',#476)
NAMED_UNIT(#475)
PLANE_ANGLE_UNIT()
);
#475=DIMENSIONAL_EXPONENTS(0.,0.,0.,0.,0.,0.,0.);
#476=PLANE_ANGLE_MEASURE_WITH_UNIT(PLANE_ANGLE_MEASURE(0.0174532925),#477);
#477=(
NAMED_UNIT(*)
PLANE_ANGLE_UNIT()
SI_UNIT($,.RADIAN.)
);
#478=(
LENGTH_UNIT()
NAMED_UNIT(*)
SI_UNIT(.MILLI.,.METRE.)
);
ENDSEC;
END-ISO-10303-21;
