ISO-10303-21;
HEADER;
/* Generated by software containing ST-Developer
 * from STEP Tools, Inc. (www.steptools.com) 
 */
/* OPTION: using custom schema-name function */

FILE_DESCRIPTION(
/* description */ (''),
/* implementation_level */ '2;1');

FILE_NAME(
/* name */ 'model1.stp',
/* time_stamp */ '2023-11-06T15:22:20+03:00',
/* author */ (''),
/* organization */ (''),
/* preprocessor_version */ 'ST-DEVELOPER v19.4',
/* originating_system */ 'SIEMENS PLM Software NX2306.3001',
/* authorisation */ '');

FILE_SCHEMA (('AUTOMOTIVE_DESIGN { 1 0 10303 214 3 1 1 1 }'));
ENDSEC;

DATA;
#10=PROPERTY_DEFINITION_REPRESENTATION(#14,#12);
#11=PROPERTY_DEFINITION_REPRESENTATION(#15,#13);
#12=REPRESENTATION('',(#16),#500);
#13=REPRESENTATION('',(#17),#500);
#14=PROPERTY_DEFINITION('pmi validation property','',#21);
#15=PROPERTY_DEFINITION('pmi validation property','',#21);
#16=VALUE_REPRESENTATION_ITEM('number of annotations',COUNT_MEASURE(0.));
#17=VALUE_REPRESENTATION_ITEM('number of views',COUNT_MEASURE(0.));
#18=SHAPE_REPRESENTATION_RELATIONSHIP('None',
'relationship between model1_objects-None and model1_objects-None',#30,
#19);
#19=ADVANCED_BREP_SHAPE_REPRESENTATION('model1_objects-None',(#133,#134),
#500);
#20=SHAPE_DEFINITION_REPRESENTATION(#21,#30);
#21=PRODUCT_DEFINITION_SHAPE('','',#22);
#22=PRODUCT_DEFINITION(' ','',#24,#23);
#23=PRODUCT_DEFINITION_CONTEXT('part definition',#29,'design');
#24=PRODUCT_DEFINITION_FORMATION_WITH_SPECIFIED_SOURCE(' ',' ',#26,
 .NOT_KNOWN.);
#25=PRODUCT_RELATED_PRODUCT_CATEGORY('part','',(#26));
#26=PRODUCT('model1_objects','model1_objects',' ',(#27));
#27=PRODUCT_CONTEXT(' ',#29,'mechanical');
#28=APPLICATION_PROTOCOL_DEFINITION('international standard',
'automotive_design',2010,#29);
#29=APPLICATION_CONTEXT(
'core data for automotive mechanical design processes');
#30=SHAPE_REPRESENTATION('model1_objects-None',(#251),#500);
#31=OVER_RIDING_STYLED_ITEM('',(#62),#139,#59);
#32=OVER_RIDING_STYLED_ITEM('',(#63),#140,#59);
#33=OVER_RIDING_STYLED_ITEM('',(#64),#141,#59);
#34=OVER_RIDING_STYLED_ITEM('',(#65),#142,#59);
#35=OVER_RIDING_STYLED_ITEM('',(#66),#143,#59);
#36=OVER_RIDING_STYLED_ITEM('',(#67),#144,#59);
#37=OVER_RIDING_STYLED_ITEM('',(#68),#145,#59);
#38=OVER_RIDING_STYLED_ITEM('',(#69),#146,#59);
#39=OVER_RIDING_STYLED_ITEM('',(#70),#147,#59);
#40=OVER_RIDING_STYLED_ITEM('',(#71),#148,#59);
#41=COLOUR_RGB('Medium Steel',0.611764705882353,0.658823529411765,0.670588235294118);
#42=COLOUR_RGB('silver gray',0.6,0.6,0.6);
#43=VERTEX_LOOP('',#228);
#44=SURFACE_OF_REVOLUTION('',#46,#45);
#45=AXIS1_PLACEMENT('',#497,#312);
#46=B_SPLINE_CURVE_WITH_KNOTS('',3,(#423,#424,#425,#426,#427,#428,#429,
#430,#431,#432,#433,#434,#435,#436,#437,#438,#439,#440,#441,#442,#443,#444,
#445,#446,#447,#448,#449,#450,#451,#452,#453,#454,#455,#456,#457,#458,#459,
#460,#461,#462,#463,#464,#465,#466,#467,#468,#469,#470,#471,#472,#473,#474,
#475,#476,#477,#478,#479,#480,#481,#482,#483,#484,#485,#486,#487,#488,#489,
#490,#491,#492,#493,#494,#495,#496),.UNSPECIFIED.,.T.,.F.,(2,2,2,2,2,2,
2,2,2,2,2,2,2,2,2,2,2,2,2,2,2,2,2,2,2,2,2,2,2,2,2,2,2,2,2,2,2,2,2),(-0.03125,
0.,0.03125,0.0625000000000007,0.093750000000001,0.125000000000001,0.15625,
0.1875,0.203125000000002,0.218750000000002,0.25,0.28125,0.3125,0.34375,
0.375,0.40625,0.4375,0.46875,0.5,0.53125,0.5625,0.578125,0.59375,0.625,
0.65625,0.671875,0.6875,0.71875,0.75,0.78125,0.8125,0.84375,0.875,0.90625,
0.9375,0.953125,0.96875,1.,1.03125),.UNSPECIFIED.);
#47=CONICAL_SURFACE('',#261,29.,29.9999999999996);
#48=CONICAL_SURFACE('',#271,29.3257981248078,75.0000000000002);
#49=CYLINDRICAL_SURFACE('',#259,29.);
#50=CYLINDRICAL_SURFACE('',#263,28.8);
#51=CYLINDRICAL_SURFACE('',#269,37.);
#52=TOROIDAL_SURFACE('',#257,27.,2.);
#53=TOROIDAL_SURFACE('',#265,64.8,36.);
#54=TOROIDAL_SURFACE('',#267,32.,5.);
#55=PLANE('',#255);
#56=FACE_OUTER_BOUND('',#177,.T.);
#57=PRESENTATION_LAYER_ASSIGNMENT('1','Layer 1',(#133,#134));
#58=STYLED_ITEM('',(#60),#133);
#59=STYLED_ITEM('',(#61),#134);
#60=PRESENTATION_STYLE_ASSIGNMENT((#72));
#61=PRESENTATION_STYLE_ASSIGNMENT((#73));
#62=PRESENTATION_STYLE_ASSIGNMENT((#74));
#63=PRESENTATION_STYLE_ASSIGNMENT((#75));
#64=PRESENTATION_STYLE_ASSIGNMENT((#76));
#65=PRESENTATION_STYLE_ASSIGNMENT((#77));
#66=PRESENTATION_STYLE_ASSIGNMENT((#78));
#67=PRESENTATION_STYLE_ASSIGNMENT((#79));
#68=PRESENTATION_STYLE_ASSIGNMENT((#80));
#69=PRESENTATION_STYLE_ASSIGNMENT((#81));
#70=PRESENTATION_STYLE_ASSIGNMENT((#82));
#71=PRESENTATION_STYLE_ASSIGNMENT((#83));
#72=SURFACE_STYLE_USAGE(.BOTH.,#84);
#73=SURFACE_STYLE_USAGE(.BOTH.,#85);
#74=SURFACE_STYLE_USAGE(.BOTH.,#86);
#75=SURFACE_STYLE_USAGE(.BOTH.,#87);
#76=SURFACE_STYLE_USAGE(.BOTH.,#88);
#77=SURFACE_STYLE_USAGE(.BOTH.,#89);
#78=SURFACE_STYLE_USAGE(.BOTH.,#90);
#79=SURFACE_STYLE_USAGE(.BOTH.,#91);
#80=SURFACE_STYLE_USAGE(.BOTH.,#92);
#81=SURFACE_STYLE_USAGE(.BOTH.,#93);
#82=SURFACE_STYLE_USAGE(.BOTH.,#94);
#83=SURFACE_STYLE_USAGE(.BOTH.,#95);
#84=SURFACE_SIDE_STYLE('',(#96));
#85=SURFACE_SIDE_STYLE('',(#97));
#86=SURFACE_SIDE_STYLE('',(#98));
#87=SURFACE_SIDE_STYLE('',(#99));
#88=SURFACE_SIDE_STYLE('',(#100));
#89=SURFACE_SIDE_STYLE('',(#101));
#90=SURFACE_SIDE_STYLE('',(#102));
#91=SURFACE_SIDE_STYLE('',(#103));
#92=SURFACE_SIDE_STYLE('',(#104));
#93=SURFACE_SIDE_STYLE('',(#105));
#94=SURFACE_SIDE_STYLE('',(#106));
#95=SURFACE_SIDE_STYLE('',(#107));
#96=SURFACE_STYLE_FILL_AREA(#108);
#97=SURFACE_STYLE_FILL_AREA(#109);
#98=SURFACE_STYLE_FILL_AREA(#110);
#99=SURFACE_STYLE_FILL_AREA(#111);
#100=SURFACE_STYLE_FILL_AREA(#112);
#101=SURFACE_STYLE_FILL_AREA(#113);
#102=SURFACE_STYLE_FILL_AREA(#114);
#103=SURFACE_STYLE_FILL_AREA(#115);
#104=SURFACE_STYLE_FILL_AREA(#116);
#105=SURFACE_STYLE_FILL_AREA(#117);
#106=SURFACE_STYLE_FILL_AREA(#118);
#107=SURFACE_STYLE_FILL_AREA(#119);
#108=FILL_AREA_STYLE('',(#120));
#109=FILL_AREA_STYLE('',(#121));
#110=FILL_AREA_STYLE('',(#122));
#111=FILL_AREA_STYLE('',(#123));
#112=FILL_AREA_STYLE('',(#124));
#113=FILL_AREA_STYLE('',(#125));
#114=FILL_AREA_STYLE('',(#126));
#115=FILL_AREA_STYLE('',(#127));
#116=FILL_AREA_STYLE('',(#128));
#117=FILL_AREA_STYLE('',(#129));
#118=FILL_AREA_STYLE('',(#130));
#119=FILL_AREA_STYLE('',(#131));
#120=FILL_AREA_STYLE_COLOUR('',#132);
#121=FILL_AREA_STYLE_COLOUR('',#41);
#122=FILL_AREA_STYLE_COLOUR('',#42);
#123=FILL_AREA_STYLE_COLOUR('',#42);
#124=FILL_AREA_STYLE_COLOUR('',#42);
#125=FILL_AREA_STYLE_COLOUR('',#42);
#126=FILL_AREA_STYLE_COLOUR('',#42);
#127=FILL_AREA_STYLE_COLOUR('',#42);
#128=FILL_AREA_STYLE_COLOUR('',#42);
#129=FILL_AREA_STYLE_COLOUR('',#42);
#130=FILL_AREA_STYLE_COLOUR('',#42);
#131=FILL_AREA_STYLE_COLOUR('',#42);
#132=DRAUGHTING_PRE_DEFINED_COLOUR('yellow');
#133=MANIFOLD_SOLID_BREP('',#135);
#134=MANIFOLD_SOLID_BREP('',#136);
#135=CLOSED_SHELL('',(#137,#138));
#136=CLOSED_SHELL('',(#139,#140,#141,#142,#143,#144,#145,#146,#147,#148));
#137=ADVANCED_FACE('',(#151,#152),#149,.F.);
#138=ADVANCED_FACE('',(#153,#154),#150,.F.);
#139=ADVANCED_FACE('',(#56),#55,.F.);
#140=ADVANCED_FACE('',(#155,#156),#52,.T.);
#141=ADVANCED_FACE('',(#157,#158),#49,.T.);
#142=ADVANCED_FACE('',(#159,#160),#47,.T.);
#143=ADVANCED_FACE('',(#161,#162),#50,.T.);
#144=ADVANCED_FACE('',(#163,#164),#53,.F.);
#145=ADVANCED_FACE('',(#165,#166),#54,.T.);
#146=ADVANCED_FACE('',(#167,#168),#51,.T.);
#147=ADVANCED_FACE('',(#169,#170),#44,.T.);
#148=ADVANCED_FACE('',(#171,#172),#48,.F.);
#149=(
BOUNDED_SURFACE()
B_SPLINE_SURFACE(3,3,((#320,#321,#322,#323,#324,#325,#326),(#327,#328,#329,
#330,#331,#332,#333),(#334,#335,#336,#337,#338,#339,#340),(#341,#342,#343,
#344,#345,#346,#347),(#348,#349,#350,#351,#352,#353,#354),(#355,#356,#357,
#358,#359,#360,#361),(#362,#363,#364,#365,#366,#367,#368)),
 .UNSPECIFIED.,.T.,.F.,.F.)
B_SPLINE_SURFACE_WITH_KNOTS((1,3,3,3,1),(4,3,4),(-0.5,0.,0.5,1.,1.5),(0.,
0.5,1.),.UNSPECIFIED.)
GEOMETRIC_REPRESENTATION_ITEM()
RATIONAL_B_SPLINE_SURFACE(((1.,0.593377433909448,0.593377433909448,1.,0.593377433909448,
0.593377433909448,1.),(0.333333333333334,0.197792477969816,0.197792477969816,
0.333333333333334,0.197792477969816,0.197792477969816,0.333333333333334),
(0.333333333333334,0.197792477969816,0.197792477969816,0.333333333333334,
0.197792477969816,0.197792477969816,0.333333333333334),(1.,0.593377433909448,
0.593377433909448,1.,0.593377433909448,0.593377433909448,1.),(0.333333333333334,
0.197792477969816,0.197792477969816,0.333333333333334,0.197792477969816,
0.197792477969816,0.333333333333334),(0.333333333333334,0.197792477969816,
0.197792477969816,0.333333333333334,0.197792477969816,0.197792477969816,
0.333333333333334),(1.,0.593377433909448,0.593377433909448,1.,0.593377433909448,
0.593377433909448,1.)))
REPRESENTATION_ITEM('')
SURFACE()
);
#150=(
BOUNDED_SURFACE()
B_SPLINE_SURFACE(3,3,((#369,#370,#371,#372),(#373,#374,#375,#376),(#377,
#378,#379,#380),(#381,#382,#383,#384),(#385,#386,#387,#388),(#389,#390,
#391,#392),(#393,#394,#395,#396)),.UNSPECIFIED.,.T.,.F.,.F.)
B_SPLINE_SURFACE_WITH_KNOTS((1,3,3,3,1),(4,4),(-0.5,0.,0.5,1.,1.5),(0.,
1.),.UNSPECIFIED.)
GEOMETRIC_REPRESENTATION_ITEM()
RATIONAL_B_SPLINE_SURFACE(((1.,0.797131197266679,0.797131197266679,1.),
(0.333333333333334,0.265710399088893,0.265710399088893,0.333333333333334),
(0.333333333333334,0.265710399088893,0.265710399088893,0.333333333333334),
(1.,0.797131197266679,0.797131197266679,1.),(0.333333333333334,0.265710399088893,
0.265710399088893,0.333333333333334),(0.333333333333334,0.265710399088893,
0.265710399088893,0.333333333333334),(1.,0.797131197266679,0.797131197266679,
1.)))
REPRESENTATION_ITEM('')
SURFACE()
);
#151=FACE_BOUND('',#173,.T.);
#152=FACE_BOUND('',#174,.T.);
#153=FACE_BOUND('',#175,.T.);
#154=FACE_BOUND('',#176,.T.);
#155=FACE_BOUND('',#178,.T.);
#156=FACE_BOUND('',#179,.T.);
#157=FACE_BOUND('',#180,.T.);
#158=FACE_BOUND('',#181,.T.);
#159=FACE_BOUND('',#182,.T.);
#160=FACE_BOUND('',#183,.T.);
#161=FACE_BOUND('',#184,.T.);
#162=FACE_BOUND('',#185,.T.);
#163=FACE_BOUND('',#186,.T.);
#164=FACE_BOUND('',#187,.T.);
#165=FACE_BOUND('',#188,.T.);
#166=FACE_BOUND('',#189,.T.);
#167=FACE_BOUND('',#190,.T.);
#168=FACE_BOUND('',#191,.T.);
#169=FACE_BOUND('',#192,.T.);
#170=FACE_BOUND('',#193,.T.);
#171=FACE_BOUND('',#194,.T.);
#172=FACE_BOUND('',#43,.T.);
#173=EDGE_LOOP('',(#195));
#174=EDGE_LOOP('',(#196));
#175=EDGE_LOOP('',(#197));
#176=EDGE_LOOP('',(#198));
#177=EDGE_LOOP('',(#199));
#178=EDGE_LOOP('',(#200));
#179=EDGE_LOOP('',(#201));
#180=EDGE_LOOP('',(#202));
#181=EDGE_LOOP('',(#203));
#182=EDGE_LOOP('',(#204));
#183=EDGE_LOOP('',(#205));
#184=EDGE_LOOP('',(#206));
#185=EDGE_LOOP('',(#207));
#186=EDGE_LOOP('',(#208));
#187=EDGE_LOOP('',(#209));
#188=EDGE_LOOP('',(#210));
#189=EDGE_LOOP('',(#211));
#190=EDGE_LOOP('',(#212));
#191=EDGE_LOOP('',(#213));
#192=EDGE_LOOP('',(#214));
#193=EDGE_LOOP('',(#215));
#194=EDGE_LOOP('',(#216));
#195=ORIENTED_EDGE('',*,*,#229,.T.);
#196=ORIENTED_EDGE('',*,*,#230,.F.);
#197=ORIENTED_EDGE('',*,*,#230,.T.);
#198=ORIENTED_EDGE('',*,*,#229,.F.);
#199=ORIENTED_EDGE('',*,*,#231,.F.);
#200=ORIENTED_EDGE('',*,*,#232,.F.);
#201=ORIENTED_EDGE('',*,*,#231,.T.);
#202=ORIENTED_EDGE('',*,*,#232,.T.);
#203=ORIENTED_EDGE('',*,*,#233,.F.);
#204=ORIENTED_EDGE('',*,*,#234,.F.);
#205=ORIENTED_EDGE('',*,*,#233,.T.);
#206=ORIENTED_EDGE('',*,*,#235,.F.);
#207=ORIENTED_EDGE('',*,*,#234,.T.);
#208=ORIENTED_EDGE('',*,*,#236,.F.);
#209=ORIENTED_EDGE('',*,*,#235,.T.);
#210=ORIENTED_EDGE('',*,*,#237,.F.);
#211=ORIENTED_EDGE('',*,*,#236,.T.);
#212=ORIENTED_EDGE('',*,*,#238,.F.);
#213=ORIENTED_EDGE('',*,*,#237,.T.);
#214=ORIENTED_EDGE('',*,*,#239,.F.);
#215=ORIENTED_EDGE('',*,*,#238,.T.);
#216=ORIENTED_EDGE('',*,*,#239,.T.);
#217=VERTEX_POINT('',#317);
#218=VERTEX_POINT('',#319);
#219=VERTEX_POINT('',#398);
#220=VERTEX_POINT('',#401);
#221=VERTEX_POINT('',#404);
#222=VERTEX_POINT('',#407);
#223=VERTEX_POINT('',#410);
#224=VERTEX_POINT('',#413);
#225=VERTEX_POINT('',#416);
#226=VERTEX_POINT('',#419);
#227=VERTEX_POINT('',#422);
#228=VERTEX_POINT('',#498);
#229=EDGE_CURVE('',#217,#217,#240,.T.);
#230=EDGE_CURVE('',#218,#218,#241,.T.);
#231=EDGE_CURVE('',#219,#219,#242,.T.);
#232=EDGE_CURVE('',#220,#220,#243,.T.);
#233=EDGE_CURVE('',#221,#221,#244,.T.);
#234=EDGE_CURVE('',#222,#222,#245,.T.);
#235=EDGE_CURVE('',#223,#223,#246,.T.);
#236=EDGE_CURVE('',#224,#224,#247,.T.);
#237=EDGE_CURVE('',#225,#225,#248,.T.);
#238=EDGE_CURVE('',#226,#226,#249,.T.);
#239=EDGE_CURVE('',#227,#227,#250,.T.);
#240=CIRCLE('',#252,6.);
#241=CIRCLE('',#253,6.);
#242=CIRCLE('',#254,27.);
#243=CIRCLE('',#256,29.);
#244=CIRCLE('',#258,29.);
#245=CIRCLE('',#260,28.8);
#246=CIRCLE('',#262,28.8);
#247=CIRCLE('',#264,36.);
#248=CIRCLE('',#266,37.);
#249=CIRCLE('',#268,37.);
#250=CIRCLE('',#270,29.3257981248078);
#251=AXIS2_PLACEMENT_3D('',#315,#272,#273);
#252=AXIS2_PLACEMENT_3D('',#316,#274,#275);
#253=AXIS2_PLACEMENT_3D('',#318,#276,#277);
#254=AXIS2_PLACEMENT_3D('',#397,#278,#279);
#255=AXIS2_PLACEMENT_3D('',#399,#280,#281);
#256=AXIS2_PLACEMENT_3D('',#400,#282,#283);
#257=AXIS2_PLACEMENT_3D('',#402,#284,#285);
#258=AXIS2_PLACEMENT_3D('',#403,#286,#287);
#259=AXIS2_PLACEMENT_3D('',#405,#288,#289);
#260=AXIS2_PLACEMENT_3D('',#406,#290,#291);
#261=AXIS2_PLACEMENT_3D('',#408,#292,#293);
#262=AXIS2_PLACEMENT_3D('',#409,#294,#295);
#263=AXIS2_PLACEMENT_3D('',#411,#296,#297);
#264=AXIS2_PLACEMENT_3D('',#412,#298,#299);
#265=AXIS2_PLACEMENT_3D('',#414,#300,#301);
#266=AXIS2_PLACEMENT_3D('',#415,#302,#303);
#267=AXIS2_PLACEMENT_3D('',#417,#304,#305);
#268=AXIS2_PLACEMENT_3D('',#418,#306,#307);
#269=AXIS2_PLACEMENT_3D('',#420,#308,#309);
#270=AXIS2_PLACEMENT_3D('',#421,#310,#311);
#271=AXIS2_PLACEMENT_3D('',#499,#313,#314);
#272=DIRECTION('',(0.,0.,1.));
#273=DIRECTION('',(1.,0.,0.));
#274=DIRECTION('',(0.0871557427476584,0.992148884574957,0.0896909546318488));
#275=DIRECTION('',(0.,-0.0900335595076502,0.995938732132847));
#276=DIRECTION('',(0.0871557427476584,-0.12140559376013,0.988769213876451));
#277=DIRECTION('',(0.,-0.992546151641321,-0.121869343405148));
#278=DIRECTION('',(-1.,0.,0.));
#279=DIRECTION('',(0.,0.,1.));
#280=DIRECTION('',(-1.,0.,0.));
#281=DIRECTION('',(0.,0.,1.));
#282=DIRECTION('',(-1.,0.,0.));
#283=DIRECTION('',(0.,0.,1.));
#284=DIRECTION('',(-1.,0.,0.));
#285=DIRECTION('',(0.,0.,1.));
#286=DIRECTION('',(-1.,0.,0.));
#287=DIRECTION('',(0.,0.,1.));
#288=DIRECTION('',(-1.,0.,0.));
#289=DIRECTION('',(0.,0.,1.));
#290=DIRECTION('',(-1.,0.,0.));
#291=DIRECTION('',(0.,0.,1.));
#292=DIRECTION('',(1.,0.,0.));
#293=DIRECTION('',(5.72185274460339E-17,0.,-1.));
#294=DIRECTION('',(-1.,0.,0.));
#295=DIRECTION('',(0.,0.,1.));
#296=DIRECTION('',(-1.,0.,0.));
#297=DIRECTION('',(0.,0.,1.));
#298=DIRECTION('',(-1.,0.,0.));
#299=DIRECTION('',(0.,0.,1.));
#300=DIRECTION('',(-1.,0.,0.));
#301=DIRECTION('',(0.,0.,1.));
#302=DIRECTION('',(-1.,0.,0.));
#303=DIRECTION('',(0.,0.,1.));
#304=DIRECTION('',(-1.,0.,0.));
#305=DIRECTION('',(0.,0.,1.));
#306=DIRECTION('',(-1.,0.,0.));
#307=DIRECTION('',(0.,0.,1.));
#308=DIRECTION('',(-1.,0.,0.));
#309=DIRECTION('',(0.,0.,1.));
#310=DIRECTION('',(-1.,0.,0.));
#311=DIRECTION('',(0.,0.,1.));
#312=DIRECTION('',(-1.,0.,0.));
#313=DIRECTION('',(-1.,0.,0.));
#314=DIRECTION('',(-1.39511116937518E-17,0.,1.));
#315=CARTESIAN_POINT('',(0.,0.,0.));
#316=CARTESIAN_POINT('',(5.97716818855048,0.570434864728557,34.024155231001));
#317=CARTESIAN_POINT('',(5.97716818855048,0.0302335076826557,39.9997876237981));
#318=CARTESIAN_POINT('',(5.97716818855048,-34.0249781211441,-0.519036582345775));
#319=CARTESIAN_POINT('',(5.97716818855048,-39.9802550309921,-1.25025264277666));
#320=CARTESIAN_POINT('',(5.97716818855048,-39.980255030992,-1.25025264277666));
#321=CARTESIAN_POINT('',(5.97716818855048,-38.686849844836,-42.6104285237768));
#322=CARTESIAN_POINT('',(5.97716818855048,-0.0984307630389411,-57.5526826592963));
#323=CARTESIAN_POINT('',(5.97716818855048,28.7122362491453,-27.8494418900488));
#324=CARTESIAN_POINT('',(5.97716818855048,57.5229032613295,1.85379887919871));
#325=CARTESIAN_POINT('',(5.97716818855048,41.4106161500765,39.9685106048224));
#326=CARTESIAN_POINT('',(5.97716818855048,0.0302335076826609,39.999787623798));
#327=CARTESIAN_POINT('',(17.9315045656514,-39.8527956732803,-2.28832580746821));
#328=CARTESIAN_POINT('',(17.9315045656514,-37.4854881661984,-43.516643063541));
#329=CARTESIAN_POINT('',(17.9315045656514,1.40041017423709,-57.418628492169));
#330=CARTESIAN_POINT('',(17.9315045656514,29.3692480442535,-27.0356991271257));
#331=CARTESIAN_POINT('',(17.9315045656514,57.3380859142699,3.34723023791748));
#332=CARTESIAN_POINT('',(17.9315045656514,40.2715814380372,40.9519202853464));
#333=CARTESIAN_POINT('',(17.9315045656514,-1.01138785147974,39.9056243227848));
#334=CARTESIAN_POINT('',(17.9315045656514,-27.9422418535844,-0.825893686606441));
#335=CARTESIAN_POINT('',(17.9315045656514,-27.0878423978889,-29.7325636585169));
#336=CARTESIAN_POINT('',(17.9315045656514,-0.137688898769472,-40.2213573769929));
#337=CARTESIAN_POINT('',(17.9315045656514,20.0325969267351,-19.4973341910309));
#338=CARTESIAN_POINT('',(17.9315045656514,40.2028827522398,1.22668899493097));
#339=CARTESIAN_POINT('',(17.9315045656514,28.9882207606899,27.882962622543));
#340=CARTESIAN_POINT('',(17.9315045656514,0.0690148626120643,27.9543595371906));
#341=CARTESIAN_POINT('',(5.97716818855048,-28.0697012112962,0.212179478085111));
#342=CARTESIAN_POINT('',(5.97716818855048,-28.2892040765264,-28.8263491187528));
#343=CARTESIAN_POINT('',(5.97716818855048,-1.6365298360455,-40.3554115441203));
#344=CARTESIAN_POINT('',(5.97716818855048,19.3755851316269,-20.311076953954));
#345=CARTESIAN_POINT('',(5.97716818855048,40.3877000992993,-0.266742363787795));
#346=CARTESIAN_POINT('',(5.97716818855048,30.1272554727292,26.8995529420191));
#347=CARTESIAN_POINT('',(5.97716818855048,1.11063622177446,28.0485228382039));
#348=CARTESIAN_POINT('',(-5.97716818855048,-28.1971605690079,1.25025264277666));
#349=CARTESIAN_POINT('',(-5.97716818855047,-29.490565755164,-27.9201345789887));
#350=CARTESIAN_POINT('',(-5.97716818855047,-3.13537077332152,-40.4894657112476));
#351=CARTESIAN_POINT('',(-5.97716818855048,18.7185733365186,-21.1248197168771));
#352=CARTESIAN_POINT('',(-5.97716818855047,40.5725174463588,-1.76017372250656));
#353=CARTESIAN_POINT('',(-5.97716818855047,31.2662901847685,25.9161432614952));
#354=CARTESIAN_POINT('',(-5.97716818855048,2.15225758093685,28.1426861392171));
#355=CARTESIAN_POINT('',(-5.97716818855048,-40.1077143887038,-0.212179478085108));
#356=CARTESIAN_POINT('',(-5.97716818855048,-39.8882115234735,-41.7042139840128));
#357=CARTESIAN_POINT('',(-5.97716818855048,-1.59727170031497,-57.6867368264238));
#358=CARTESIAN_POINT('',(-5.97716818855048,28.055224454037,-28.6631846529719));
#359=CARTESIAN_POINT('',(-5.97716818855048,57.7077206083889,0.360367520479958));
#360=CARTESIAN_POINT('',(-5.97716818855048,42.5496508621158,38.9851009242985));
#361=CARTESIAN_POINT('',(-5.97716818855048,1.07185486684505,40.0939509248113));
#362=CARTESIAN_POINT('',(5.97716818855048,-39.980255030992,-1.25025264277666));
#363=CARTESIAN_POINT('',(5.97716818855048,-38.686849844836,-42.6104285237768));
#364=CARTESIAN_POINT('',(5.97716818855048,-0.0984307630389411,-57.5526826592963));
#365=CARTESIAN_POINT('',(5.97716818855048,28.7122362491453,-27.8494418900488));
#366=CARTESIAN_POINT('',(5.97716818855048,57.5229032613295,1.85379887919871));
#367=CARTESIAN_POINT('',(5.97716818855048,41.4106161500765,39.9685106048224));
#368=CARTESIAN_POINT('',(5.97716818855048,0.0302335076826609,39.999787623798));
#369=CARTESIAN_POINT('',(5.97716818855048,0.0302335076826558,39.999787623798));
#370=CARTESIAN_POINT('',(5.97716818855048,-24.000331516907,40.0179509270416));
#371=CARTESIAN_POINT('',(5.97716818855048,-40.7313659546794,22.7685778384714));
#372=CARTESIAN_POINT('',(5.97716818855048,-39.980255030992,-1.25025264277666));
#373=CARTESIAN_POINT('',(17.9315045656514,-1.01138785147974,39.9056243227848));
#374=CARTESIAN_POINT('',(17.9315045656514,-24.9853826425169,39.2980155584922));
#375=CARTESIAN_POINT('',(17.9315045656514,-41.2275470252373,21.6539312576335));
#376=CARTESIAN_POINT('',(17.9315045656514,-39.8527956732803,-2.28832580746822));
#377=CARTESIAN_POINT('',(17.9315045656514,0.0690148626120643,27.9543595371906));
#378=CARTESIAN_POINT('',(17.9315045656514,-16.7250506683647,27.9958214109201));
#379=CARTESIAN_POINT('',(17.9315045656514,-28.4384117864365,15.9608919361222));
#380=CARTESIAN_POINT('',(17.9315045656514,-27.9422418535844,-0.825893686606444));
#381=CARTESIAN_POINT('',(5.97716818855048,1.11063622177446,28.0485228382039));
#382=CARTESIAN_POINT('',(5.97716818855048,-15.7399995427548,28.7157567794695));
#383=CARTESIAN_POINT('',(5.97716818855048,-27.9422307158785,17.0755385169601));
#384=CARTESIAN_POINT('',(5.97716818855048,-28.0697012112962,0.212179478085109));
#385=CARTESIAN_POINT('',(-5.97716818855048,2.15225758093685,28.1426861392171));
#386=CARTESIAN_POINT('',(-5.97716818855049,-14.7549484171449,29.435692148019));
#387=CARTESIAN_POINT('',(-5.97716818855049,-27.4460496453206,18.1901850977981));
#388=CARTESIAN_POINT('',(-5.97716818855048,-28.1971605690079,1.25025264277666));
#389=CARTESIAN_POINT('',(-5.97716818855048,1.07185486684505,40.0939509248113));
#390=CARTESIAN_POINT('',(-5.97716818855049,-23.0152803912971,40.7378862955911));
#391=CARTESIAN_POINT('',(-5.97716818855049,-40.2351848841215,23.8832244193094));
#392=CARTESIAN_POINT('',(-5.97716818855048,-40.1077143887038,-0.212179478085111));
#393=CARTESIAN_POINT('',(5.97716818855048,0.0302335076826558,39.999787623798));
#394=CARTESIAN_POINT('',(5.97716818855048,-24.000331516907,40.0179509270416));
#395=CARTESIAN_POINT('',(5.97716818855048,-40.7313659546794,22.7685778384714));
#396=CARTESIAN_POINT('',(5.97716818855048,-39.980255030992,-1.25025264277666));
#397=CARTESIAN_POINT('',(50.,0.,0.));
#398=CARTESIAN_POINT('',(50.,0.,27.));
#399=CARTESIAN_POINT('',(50.,14.5,0.));
#400=CARTESIAN_POINT('',(48.,0.,0.));
#401=CARTESIAN_POINT('',(48.,0.,29.));
#402=CARTESIAN_POINT('',(48.,0.,0.));
#403=CARTESIAN_POINT('',(40.,0.,0.));
#404=CARTESIAN_POINT('',(40.,0.,29.));
#405=CARTESIAN_POINT('',(0.,0.,0.));
#406=CARTESIAN_POINT('',(39.6535898384862,0.,0.));
#407=CARTESIAN_POINT('',(39.6535898384862,0.,28.8));
#408=CARTESIAN_POINT('',(40.,0.,0.));
#409=CARTESIAN_POINT('',(39.,0.,0.));
#410=CARTESIAN_POINT('',(39.,0.,28.8));
#411=CARTESIAN_POINT('',(0.,0.,0.));
#412=CARTESIAN_POINT('',(17.4,0.,0.));
#413=CARTESIAN_POINT('',(17.4,0.,36.));
#414=CARTESIAN_POINT('',(39.,0.,0.));
#415=CARTESIAN_POINT('',(14.4,0.,0.));
#416=CARTESIAN_POINT('',(14.4,0.,37.));
#417=CARTESIAN_POINT('',(14.4,0.,0.));
#418=CARTESIAN_POINT('',(9.40838163665625,0.,0.));
#419=CARTESIAN_POINT('',(9.40838163665625,0.,37.));
#420=CARTESIAN_POINT('',(0.,0.,0.));
#421=CARTESIAN_POINT('',(3.5,0.,0.));
#422=CARTESIAN_POINT('',(3.5,0.,29.3257981248078));
#423=CARTESIAN_POINT('',(5.23435370736168,28.8801185982419,0.));
#424=CARTESIAN_POINT('',(5.89025999878158,28.8823249670746,0.));
#425=CARTESIAN_POINT('',(6.21462857566577,28.9157934176936,0.));
#426=CARTESIAN_POINT('',(6.85627843825671,29.0469892819348,0.));
#427=CARTESIAN_POINT('',(7.16718476619436,29.1436571154714,0.));
#428=CARTESIAN_POINT('',(7.76308195598175,29.3944339563047,0.));
#429=CARTESIAN_POINT('',(8.05176845566855,29.5505710743879,0.));
#430=CARTESIAN_POINT('',(8.59188837202156,29.9158036879282,0.));
#431=CARTESIAN_POINT('',(8.8407531068362,30.1223541374113,0.));
#432=CARTESIAN_POINT('',(9.29699784618961,30.5823005655745,0.));
#433=CARTESIAN_POINT('',(9.50575957700817,30.8385641746942,0.));
#434=CARTESIAN_POINT('',(9.86426926377218,31.3789295071748,0.));
#435=CARTESIAN_POINT('',(10.0161518101695,31.6643747640143,0.));
#436=CARTESIAN_POINT('',(10.2024310904709,32.1157075774939,0.));
#437=CARTESIAN_POINT('',(10.2577101779563,32.2707731329922,0.));
#438=CARTESIAN_POINT('',(10.3518948830871,32.5825434228631,0.));
#439=CARTESIAN_POINT('',(10.3911051669048,32.7397997738946,0.));
#440=CARTESIAN_POINT('',(10.4855705234667,33.2155988182043,0.));
#441=CARTESIAN_POINT('',(10.5178886365348,33.538497841259,0.));
#442=CARTESIAN_POINT('',(10.5183610883816,34.1939744768298,0.));
#443=CARTESIAN_POINT('',(10.48657734977,34.5164203454339,0.));
#444=CARTESIAN_POINT('',(10.3612993251132,35.1511121982581,0.));
#445=CARTESIAN_POINT('',(10.2662420981148,35.4666828162139,0.));
#446=CARTESIAN_POINT('',(10.0180147651643,36.0679066106808,0.));
#447=CARTESIAN_POINT('',(9.8659362826184,36.3532395936985,0.));
#448=CARTESIAN_POINT('',(9.50607999713542,36.8934735649021,0.));
#449=CARTESIAN_POINT('',(9.29664693297047,37.1490127347602,0.));
#450=CARTESIAN_POINT('',(8.83892021682623,37.6069494761036,0.));
#451=CARTESIAN_POINT('',(8.58893082973797,37.8124985151596,0.));
#452=CARTESIAN_POINT('',(8.04547128783081,38.1753958397078,0.));
#453=CARTESIAN_POINT('',(7.75696834838742,38.3288938454908,0.));
#454=CARTESIAN_POINT('',(7.15923580206367,38.5754461326188,0.));
#455=CARTESIAN_POINT('',(6.84542611746561,38.6702109054557,0.));
#456=CARTESIAN_POINT('',(6.20512480506409,38.7957417791938,0.));
#457=CARTESIAN_POINT('',(5.88308709534301,38.8262538479541,0.));
#458=CARTESIAN_POINT('',(5.23532271252499,38.8242265179781,0.));
#459=CARTESIAN_POINT('',(4.9064591674291,38.7906183177167,0.));
#460=CARTESIAN_POINT('',(4.27091819942514,38.6613649086084,0.));
#461=CARTESIAN_POINT('',(3.96189466284215,38.5663197908457,0.));
#462=CARTESIAN_POINT('',(3.51160064866402,38.3777041579803,0.));
#463=CARTESIAN_POINT('',(3.36306763733702,38.3066811848694,0.));
#464=CARTESIAN_POINT('',(3.07651436818629,38.1518409808792,0.));
#465=CARTESIAN_POINT('',(2.9379070072874,38.0678594739436,0.));
#466=CARTESIAN_POINT('',(2.53577662951275,37.796674954254,0.));
#467=CARTESIAN_POINT('',(2.28569741530624,37.5903057178104,0.));
#468=CARTESIAN_POINT('',(1.82375645946545,37.1249673862706,0.));
#469=CARTESIAN_POINT('',(1.61935755896152,36.873561161944,0.));
#470=CARTESIAN_POINT('',(1.3509482796793,36.4695226425456,0.));
#471=CARTESIAN_POINT('',(1.26789058736056,36.3303216399994,0.));
#472=CARTESIAN_POINT('',(1.11488256423369,36.0426769243109,0.));
#473=CARTESIAN_POINT('',(1.0448117314053,35.8937267349817,0.));
#474=CARTESIAN_POINT('',(0.858931392924495,35.4424347600323,0.));
#475=CARTESIAN_POINT('',(0.76551339715775,35.1329089813552,0.));
#476=CARTESIAN_POINT('',(0.639070016190658,34.4967023017711,0.));
#477=CARTESIAN_POINT('',(0.60665231496014,34.1678030638845,0.));
#478=CARTESIAN_POINT('',(0.606324065223215,33.5200271948509,0.));
#479=CARTESIAN_POINT('',(0.637380763316349,33.198006567285,0.));
#480=CARTESIAN_POINT('',(0.763410293429577,32.5577881146878,0.));
#481=CARTESIAN_POINT('',(0.858114963960722,32.2440079887201,0.));
#482=CARTESIAN_POINT('',(1.10418366920697,31.6459986533561,0.));
#483=CARTESIAN_POINT('',(1.2572324348799,31.3572610619531,0.));
#484=CARTESIAN_POINT('',(1.61905198705352,30.8130910426849,0.));
#485=CARTESIAN_POINT('',(1.82401732722508,30.5625950722812,0.));
#486=CARTESIAN_POINT('',(2.28089372148817,30.1037352908339,0.));
#487=CARTESIAN_POINT('',(2.53595114320452,29.8936737960003,0.));
#488=CARTESIAN_POINT('',(3.07541125599746,29.5327455025795,0.));
#489=CARTESIAN_POINT('',(3.36048411552841,29.3801894055035,0.));
#490=CARTESIAN_POINT('',(3.81129671793104,29.1935613162518,0.));
#491=CARTESIAN_POINT('',(3.96632060791081,29.1382248812927,0.));
#492=CARTESIAN_POINT('',(4.27838936846849,29.0440790378069,0.));
#493=CARTESIAN_POINT('',(4.43576222596869,29.0050321525132,0.));
#494=CARTESIAN_POINT('',(4.91180270125985,28.9114087700262,0.));
#495=CARTESIAN_POINT('',(5.23435370736168,28.8801185982419,0.));
#496=CARTESIAN_POINT('',(5.89025999878158,28.8823249670746,0.));
#497=CARTESIAN_POINT('',(0.,0.,0.));
#498=CARTESIAN_POINT('',(11.3578239249403,0.,0.));
#499=CARTESIAN_POINT('',(3.5,0.,0.));
#500=(
GEOMETRIC_REPRESENTATION_CONTEXT(3)
GLOBAL_UNCERTAINTY_ASSIGNED_CONTEXT((#501))
GLOBAL_UNIT_ASSIGNED_CONTEXT((#507,#503,#502))
REPRESENTATION_CONTEXT('model1','TOP_LEVEL_ASSEMBLY_PART')
);
#501=UNCERTAINTY_MEASURE_WITH_UNIT(LENGTH_MEASURE(2.E-5),#507,
'DISTANCE_ACCURACY_VALUE','Maximum Tolerance applied to model');
#502=(
NAMED_UNIT(*)
SI_UNIT($,.STERADIAN.)
SOLID_ANGLE_UNIT()
);
#503=(
CONVERSION_BASED_UNIT('DEGREE',#505)
NAMED_UNIT(#504)
PLANE_ANGLE_UNIT()
);
#504=DIMENSIONAL_EXPONENTS(0.,0.,0.,0.,0.,0.,0.);
#505=PLANE_ANGLE_MEASURE_WITH_UNIT(PLANE_ANGLE_MEASURE(0.0174532925),#506);
#506=(
NAMED_UNIT(*)
PLANE_ANGLE_UNIT()
SI_UNIT($,.RADIAN.)
);
#507=(
LENGTH_UNIT()
NAMED_UNIT(*)
SI_UNIT(.MILLI.,.METRE.)
);
ENDSEC;
END-ISO-10303-21;
