ISO-10303-21;
HEADER;
/* Generated by software containing ST-Developer
 * from STEP Tools, Inc. (www.steptools.com) 
 */
/* OPTION: using custom schema-name function */

FILE_DESCRIPTION(
/* description */ (''),
/* implementation_level */ '2;1');

FILE_NAME(
/* name */ 'model1.stp',
/* time_stamp */ '2023-11-02T16:41:00+03:00',
/* author */ (''),
/* organization */ (''),
/* preprocessor_version */ 'ST-DEVELOPER v19.4',
/* originating_system */ 'SIEMENS PLM Software NX2306.3001',
/* authorisation */ '');

FILE_SCHEMA (('AUTOMOTIVE_DESIGN { 1 0 10303 214 3 1 1 1 }'));
ENDSEC;

DATA;
#10=PROPERTY_DEFINITION_REPRESENTATION(#14,#12);
#11=PROPERTY_DEFINITION_REPRESENTATION(#15,#13);
#12=REPRESENTATION('',(#16),#492);
#13=REPRESENTATION('',(#17),#492);
#14=PROPERTY_DEFINITION('pmi validation property','',#21);
#15=PROPERTY_DEFINITION('pmi validation property','',#21);
#16=VALUE_REPRESENTATION_ITEM('number of annotations',COUNT_MEASURE(0.));
#17=VALUE_REPRESENTATION_ITEM('number of views',COUNT_MEASURE(0.));
#18=SHAPE_REPRESENTATION_RELATIONSHIP('None',
'relationship between model1_objects-None and model1_objects-None',#30,
#19);
#19=ADVANCED_BREP_SHAPE_REPRESENTATION('model1_objects-None',(#133,#134),
#492);
#20=SHAPE_DEFINITION_REPRESENTATION(#21,#30);
#21=PRODUCT_DEFINITION_SHAPE('','',#22);
#22=PRODUCT_DEFINITION(' ','',#24,#23);
#23=PRODUCT_DEFINITION_CONTEXT('part definition',#29,'design');
#24=PRODUCT_DEFINITION_FORMATION_WITH_SPECIFIED_SOURCE(' ',' ',#26,
 .NOT_KNOWN.);
#25=PRODUCT_RELATED_PRODUCT_CATEGORY('part','',(#26));
#26=PRODUCT('model1_objects','model1_objects',' ',(#27));
#27=PRODUCT_CONTEXT(' ',#29,'mechanical');
#28=APPLICATION_PROTOCOL_DEFINITION('international standard',
'automotive_design',2010,#29);
#29=APPLICATION_CONTEXT(
'core data for automotive mechanical design processes');
#30=SHAPE_REPRESENTATION('model1_objects-None',(#251),#492);
#31=OVER_RIDING_STYLED_ITEM('',(#62),#139,#59);
#32=OVER_RIDING_STYLED_ITEM('',(#63),#140,#59);
#33=OVER_RIDING_STYLED_ITEM('',(#64),#141,#59);
#34=OVER_RIDING_STYLED_ITEM('',(#65),#142,#59);
#35=OVER_RIDING_STYLED_ITEM('',(#66),#143,#59);
#36=OVER_RIDING_STYLED_ITEM('',(#67),#144,#59);
#37=OVER_RIDING_STYLED_ITEM('',(#68),#145,#59);
#38=OVER_RIDING_STYLED_ITEM('',(#69),#146,#59);
#39=OVER_RIDING_STYLED_ITEM('',(#70),#147,#59);
#40=OVER_RIDING_STYLED_ITEM('',(#71),#148,#59);
#41=COLOUR_RGB('Medium Steel',0.611764705882353,0.658823529411765,0.670588235294118);
#42=COLOUR_RGB('silver gray',0.6,0.6,0.6);
#43=CONICAL_SURFACE('',#271,11.2845036077369,75.0000000000002);
#44=VERTEX_LOOP('',#228);
#45=SURFACE_OF_REVOLUTION('',#47,#46);
#46=AXIS1_PLACEMENT('',#489,#312);
#47=B_SPLINE_CURVE_WITH_KNOTS('',3,(#423,#424,#425,#426,#427,#428,#429,
#430,#431,#432,#433,#434,#435,#436,#437,#438,#439,#440,#441,#442,#443,#444,
#445,#446,#447,#448,#449,#450,#451,#452,#453,#454,#455,#456,#457,#458,#459,
#460,#461,#462,#463,#464,#465,#466,#467,#468,#469,#470,#471,#472,#473,#474,
#475,#476,#477,#478,#479,#480,#481,#482,#483,#484,#485,#486,#487,#488),
 .UNSPECIFIED.,.T.,.F.,(2,2,2,2,2,2,2,2,2,2,2,2,2,2,2,2,2,2,2,2,2,2,2,2,
2,2,2,2,2,2,2,2,2,2,2),(-0.03125,0.,0.03125,0.0625,0.09375,0.125,0.15625,
0.1875,0.21875,0.25,0.28125,0.3125,0.34375,0.375,0.40625,0.4375,0.46875,
0.5,0.53125,0.5625,0.59375,0.625,0.65625,0.6875,0.71875,0.75,0.78125,0.8125,
0.84375,0.875,0.90625,0.9375,0.96875,1.,1.03125),.UNSPECIFIED.);
#48=PLANE('',#259);
#49=FACE_OUTER_BOUND('',#181,.T.);
#50=TOROIDAL_SURFACE('',#258,16.5,1.5);
#51=TOROIDAL_SURFACE('',#261,13.,5.);
#52=TOROIDAL_SURFACE('',#263,57.,40.);
#53=TOROIDAL_SURFACE('',#265,13.5,5.);
#54=TOROIDAL_SURFACE('',#269,19.5,0.999999999999931);
#55=CYLINDRICAL_SURFACE('',#256,18.);
#56=CYLINDRICAL_SURFACE('',#267,18.5);
#57=PRESENTATION_LAYER_ASSIGNMENT('1','Layer 1',(#133,#134));
#58=STYLED_ITEM('',(#60),#133);
#59=STYLED_ITEM('',(#61),#134);
#60=PRESENTATION_STYLE_ASSIGNMENT((#72));
#61=PRESENTATION_STYLE_ASSIGNMENT((#73));
#62=PRESENTATION_STYLE_ASSIGNMENT((#74));
#63=PRESENTATION_STYLE_ASSIGNMENT((#75));
#64=PRESENTATION_STYLE_ASSIGNMENT((#76));
#65=PRESENTATION_STYLE_ASSIGNMENT((#77));
#66=PRESENTATION_STYLE_ASSIGNMENT((#78));
#67=PRESENTATION_STYLE_ASSIGNMENT((#79));
#68=PRESENTATION_STYLE_ASSIGNMENT((#80));
#69=PRESENTATION_STYLE_ASSIGNMENT((#81));
#70=PRESENTATION_STYLE_ASSIGNMENT((#82));
#71=PRESENTATION_STYLE_ASSIGNMENT((#83));
#72=SURFACE_STYLE_USAGE(.BOTH.,#84);
#73=SURFACE_STYLE_USAGE(.BOTH.,#85);
#74=SURFACE_STYLE_USAGE(.BOTH.,#86);
#75=SURFACE_STYLE_USAGE(.BOTH.,#87);
#76=SURFACE_STYLE_USAGE(.BOTH.,#88);
#77=SURFACE_STYLE_USAGE(.BOTH.,#89);
#78=SURFACE_STYLE_USAGE(.BOTH.,#90);
#79=SURFACE_STYLE_USAGE(.BOTH.,#91);
#80=SURFACE_STYLE_USAGE(.BOTH.,#92);
#81=SURFACE_STYLE_USAGE(.BOTH.,#93);
#82=SURFACE_STYLE_USAGE(.BOTH.,#94);
#83=SURFACE_STYLE_USAGE(.BOTH.,#95);
#84=SURFACE_SIDE_STYLE('',(#96));
#85=SURFACE_SIDE_STYLE('',(#97));
#86=SURFACE_SIDE_STYLE('',(#98));
#87=SURFACE_SIDE_STYLE('',(#99));
#88=SURFACE_SIDE_STYLE('',(#100));
#89=SURFACE_SIDE_STYLE('',(#101));
#90=SURFACE_SIDE_STYLE('',(#102));
#91=SURFACE_SIDE_STYLE('',(#103));
#92=SURFACE_SIDE_STYLE('',(#104));
#93=SURFACE_SIDE_STYLE('',(#105));
#94=SURFACE_SIDE_STYLE('',(#106));
#95=SURFACE_SIDE_STYLE('',(#107));
#96=SURFACE_STYLE_FILL_AREA(#108);
#97=SURFACE_STYLE_FILL_AREA(#109);
#98=SURFACE_STYLE_FILL_AREA(#110);
#99=SURFACE_STYLE_FILL_AREA(#111);
#100=SURFACE_STYLE_FILL_AREA(#112);
#101=SURFACE_STYLE_FILL_AREA(#113);
#102=SURFACE_STYLE_FILL_AREA(#114);
#103=SURFACE_STYLE_FILL_AREA(#115);
#104=SURFACE_STYLE_FILL_AREA(#116);
#105=SURFACE_STYLE_FILL_AREA(#117);
#106=SURFACE_STYLE_FILL_AREA(#118);
#107=SURFACE_STYLE_FILL_AREA(#119);
#108=FILL_AREA_STYLE('',(#120));
#109=FILL_AREA_STYLE('',(#121));
#110=FILL_AREA_STYLE('',(#122));
#111=FILL_AREA_STYLE('',(#123));
#112=FILL_AREA_STYLE('',(#124));
#113=FILL_AREA_STYLE('',(#125));
#114=FILL_AREA_STYLE('',(#126));
#115=FILL_AREA_STYLE('',(#127));
#116=FILL_AREA_STYLE('',(#128));
#117=FILL_AREA_STYLE('',(#129));
#118=FILL_AREA_STYLE('',(#130));
#119=FILL_AREA_STYLE('',(#131));
#120=FILL_AREA_STYLE_COLOUR('',#132);
#121=FILL_AREA_STYLE_COLOUR('',#41);
#122=FILL_AREA_STYLE_COLOUR('',#42);
#123=FILL_AREA_STYLE_COLOUR('',#42);
#124=FILL_AREA_STYLE_COLOUR('',#42);
#125=FILL_AREA_STYLE_COLOUR('',#42);
#126=FILL_AREA_STYLE_COLOUR('',#42);
#127=FILL_AREA_STYLE_COLOUR('',#42);
#128=FILL_AREA_STYLE_COLOUR('',#42);
#129=FILL_AREA_STYLE_COLOUR('',#42);
#130=FILL_AREA_STYLE_COLOUR('',#42);
#131=FILL_AREA_STYLE_COLOUR('',#42);
#132=DRAUGHTING_PRE_DEFINED_COLOUR('yellow');
#133=MANIFOLD_SOLID_BREP('',#135);
#134=MANIFOLD_SOLID_BREP('',#136);
#135=CLOSED_SHELL('',(#137,#138));
#136=CLOSED_SHELL('',(#139,#140,#141,#142,#143,#144,#145,#146,#147,#148));
#137=ADVANCED_FACE('',(#151,#152),#149,.F.);
#138=ADVANCED_FACE('',(#153,#154),#150,.F.);
#139=ADVANCED_FACE('',(#155,#156),#55,.T.);
#140=ADVANCED_FACE('',(#157,#158),#50,.T.);
#141=ADVANCED_FACE('',(#49),#48,.F.);
#142=ADVANCED_FACE('',(#159,#160),#51,.T.);
#143=ADVANCED_FACE('',(#161,#162),#52,.F.);
#144=ADVANCED_FACE('',(#163,#164),#53,.T.);
#145=ADVANCED_FACE('',(#165,#166),#56,.T.);
#146=ADVANCED_FACE('',(#167,#168),#54,.F.);
#147=ADVANCED_FACE('',(#169,#170),#45,.T.);
#148=ADVANCED_FACE('',(#171,#172),#43,.F.);
#149=(
BOUNDED_SURFACE()
B_SPLINE_SURFACE(3,3,((#320,#321,#322,#323,#324,#325,#326),(#327,#328,#329,
#330,#331,#332,#333),(#334,#335,#336,#337,#338,#339,#340),(#341,#342,#343,
#344,#345,#346,#347),(#348,#349,#350,#351,#352,#353,#354),(#355,#356,#357,
#358,#359,#360,#361),(#362,#363,#364,#365,#366,#367,#368)),
 .UNSPECIFIED.,.T.,.F.,.F.)
B_SPLINE_SURFACE_WITH_KNOTS((1,3,3,3,1),(4,3,4),(-0.5,0.,0.5,1.,1.5),(0.,
0.5,1.),.UNSPECIFIED.)
GEOMETRIC_REPRESENTATION_ITEM()
RATIONAL_B_SPLINE_SURFACE(((1.,0.587142183595906,0.587142183595906,1.,0.587142183595906,
0.587142183595906,1.),(0.333333333333334,0.195714061198635,0.195714061198635,
0.333333333333334,0.195714061198635,0.195714061198635,0.333333333333334),
(0.333333333333334,0.195714061198635,0.195714061198635,0.333333333333334,
0.195714061198635,0.195714061198635,0.333333333333334),(1.,0.587142183595906,
0.587142183595906,1.,0.587142183595906,0.587142183595906,1.),(0.333333333333334,
0.195714061198635,0.195714061198635,0.333333333333334,0.195714061198635,
0.195714061198635,0.333333333333334),(0.333333333333334,0.195714061198635,
0.195714061198635,0.333333333333334,0.195714061198635,0.195714061198635,
0.333333333333334),(1.,0.587142183595906,0.587142183595906,1.,0.587142183595906,
0.587142183595906,1.)))
REPRESENTATION_ITEM('')
SURFACE()
);
#150=(
BOUNDED_SURFACE()
B_SPLINE_SURFACE(3,3,((#369,#370,#371,#372),(#373,#374,#375,#376),(#377,
#378,#379,#380),(#381,#382,#383,#384),(#385,#386,#387,#388),(#389,#390,
#391,#392),(#393,#394,#395,#396)),.UNSPECIFIED.,.T.,.F.,.F.)
B_SPLINE_SURFACE_WITH_KNOTS((1,3,3,3,1),(4,4),(-0.5,0.,0.5,1.,1.5),(0.,
1.),.UNSPECIFIED.)
GEOMETRIC_REPRESENTATION_ITEM()
RATIONAL_B_SPLINE_SURFACE(((1.,0.806743202585173,0.806743202585173,1.),
(0.333333333333334,0.268914400861725,0.268914400861725,0.333333333333334),
(0.333333333333334,0.268914400861725,0.268914400861725,0.333333333333334),
(1.,0.806743202585173,0.806743202585173,1.),(0.333333333333334,0.268914400861725,
0.268914400861725,0.333333333333334),(0.333333333333334,0.268914400861725,
0.268914400861725,0.333333333333334),(1.,0.806743202585173,0.806743202585173,
1.)))
REPRESENTATION_ITEM('')
SURFACE()
);
#151=FACE_BOUND('',#173,.T.);
#152=FACE_BOUND('',#174,.T.);
#153=FACE_BOUND('',#175,.T.);
#154=FACE_BOUND('',#176,.T.);
#155=FACE_BOUND('',#177,.T.);
#156=FACE_BOUND('',#178,.T.);
#157=FACE_BOUND('',#179,.T.);
#158=FACE_BOUND('',#180,.T.);
#159=FACE_BOUND('',#182,.T.);
#160=FACE_BOUND('',#183,.T.);
#161=FACE_BOUND('',#184,.T.);
#162=FACE_BOUND('',#185,.T.);
#163=FACE_BOUND('',#186,.T.);
#164=FACE_BOUND('',#187,.T.);
#165=FACE_BOUND('',#188,.T.);
#166=FACE_BOUND('',#189,.T.);
#167=FACE_BOUND('',#190,.T.);
#168=FACE_BOUND('',#191,.T.);
#169=FACE_BOUND('',#192,.T.);
#170=FACE_BOUND('',#193,.T.);
#171=FACE_BOUND('',#194,.T.);
#172=FACE_BOUND('',#44,.T.);
#173=EDGE_LOOP('',(#195));
#174=EDGE_LOOP('',(#196));
#175=EDGE_LOOP('',(#197));
#176=EDGE_LOOP('',(#198));
#177=EDGE_LOOP('',(#199));
#178=EDGE_LOOP('',(#200));
#179=EDGE_LOOP('',(#201));
#180=EDGE_LOOP('',(#202));
#181=EDGE_LOOP('',(#203));
#182=EDGE_LOOP('',(#204));
#183=EDGE_LOOP('',(#205));
#184=EDGE_LOOP('',(#206));
#185=EDGE_LOOP('',(#207));
#186=EDGE_LOOP('',(#208));
#187=EDGE_LOOP('',(#209));
#188=EDGE_LOOP('',(#210));
#189=EDGE_LOOP('',(#211));
#190=EDGE_LOOP('',(#212));
#191=EDGE_LOOP('',(#213));
#192=EDGE_LOOP('',(#214));
#193=EDGE_LOOP('',(#215));
#194=EDGE_LOOP('',(#216));
#195=ORIENTED_EDGE('',*,*,#229,.T.);
#196=ORIENTED_EDGE('',*,*,#230,.F.);
#197=ORIENTED_EDGE('',*,*,#230,.T.);
#198=ORIENTED_EDGE('',*,*,#229,.F.);
#199=ORIENTED_EDGE('',*,*,#231,.T.);
#200=ORIENTED_EDGE('',*,*,#232,.F.);
#201=ORIENTED_EDGE('',*,*,#231,.F.);
#202=ORIENTED_EDGE('',*,*,#233,.T.);
#203=ORIENTED_EDGE('',*,*,#233,.F.);
#204=ORIENTED_EDGE('',*,*,#234,.F.);
#205=ORIENTED_EDGE('',*,*,#232,.T.);
#206=ORIENTED_EDGE('',*,*,#235,.F.);
#207=ORIENTED_EDGE('',*,*,#234,.T.);
#208=ORIENTED_EDGE('',*,*,#236,.F.);
#209=ORIENTED_EDGE('',*,*,#235,.T.);
#210=ORIENTED_EDGE('',*,*,#237,.F.);
#211=ORIENTED_EDGE('',*,*,#236,.T.);
#212=ORIENTED_EDGE('',*,*,#238,.F.);
#213=ORIENTED_EDGE('',*,*,#237,.T.);
#214=ORIENTED_EDGE('',*,*,#239,.F.);
#215=ORIENTED_EDGE('',*,*,#238,.T.);
#216=ORIENTED_EDGE('',*,*,#239,.T.);
#217=VERTEX_POINT('',#317);
#218=VERTEX_POINT('',#319);
#219=VERTEX_POINT('',#398);
#220=VERTEX_POINT('',#400);
#221=VERTEX_POINT('',#403);
#222=VERTEX_POINT('',#407);
#223=VERTEX_POINT('',#410);
#224=VERTEX_POINT('',#413);
#225=VERTEX_POINT('',#416);
#226=VERTEX_POINT('',#419);
#227=VERTEX_POINT('',#422);
#228=VERTEX_POINT('',#490);
#229=EDGE_CURVE('',#217,#217,#240,.T.);
#230=EDGE_CURVE('',#218,#218,#241,.T.);
#231=EDGE_CURVE('',#219,#219,#242,.T.);
#232=EDGE_CURVE('',#220,#220,#243,.T.);
#233=EDGE_CURVE('',#221,#221,#244,.T.);
#234=EDGE_CURVE('',#222,#222,#245,.T.);
#235=EDGE_CURVE('',#223,#223,#246,.T.);
#236=EDGE_CURVE('',#224,#224,#247,.T.);
#237=EDGE_CURVE('',#225,#225,#248,.T.);
#238=EDGE_CURVE('',#226,#226,#249,.T.);
#239=EDGE_CURVE('',#227,#227,#250,.T.);
#240=CIRCLE('',#252,5.);
#241=CIRCLE('',#253,5.);
#242=CIRCLE('',#254,18.);
#243=CIRCLE('',#255,18.);
#244=CIRCLE('',#257,16.5);
#245=CIRCLE('',#260,17.8888888888889);
#246=CIRCLE('',#262,18.3333333333333);
#247=CIRCLE('',#264,18.5);
#248=CIRCLE('',#266,18.5);
#249=CIRCLE('',#268,18.5599576817942);
#250=CIRCLE('',#270,11.2845036077369);
#251=AXIS2_PLACEMENT_3D('',#315,#272,#273);
#252=AXIS2_PLACEMENT_3D('',#316,#274,#275);
#253=AXIS2_PLACEMENT_3D('',#318,#276,#277);
#254=AXIS2_PLACEMENT_3D('',#397,#278,#279);
#255=AXIS2_PLACEMENT_3D('',#399,#280,#281);
#256=AXIS2_PLACEMENT_3D('',#401,#282,#283);
#257=AXIS2_PLACEMENT_3D('',#402,#284,#285);
#258=AXIS2_PLACEMENT_3D('',#404,#286,#287);
#259=AXIS2_PLACEMENT_3D('',#405,#288,#289);
#260=AXIS2_PLACEMENT_3D('',#406,#290,#291);
#261=AXIS2_PLACEMENT_3D('',#408,#292,#293);
#262=AXIS2_PLACEMENT_3D('',#409,#294,#295);
#263=AXIS2_PLACEMENT_3D('',#411,#296,#297);
#264=AXIS2_PLACEMENT_3D('',#412,#298,#299);
#265=AXIS2_PLACEMENT_3D('',#414,#300,#301);
#266=AXIS2_PLACEMENT_3D('',#415,#302,#303);
#267=AXIS2_PLACEMENT_3D('',#417,#304,#305);
#268=AXIS2_PLACEMENT_3D('',#418,#306,#307);
#269=AXIS2_PLACEMENT_3D('',#420,#308,#309);
#270=AXIS2_PLACEMENT_3D('',#421,#310,#311);
#271=AXIS2_PLACEMENT_3D('',#491,#313,#314);
#272=DIRECTION('',(0.,0.,1.));
#273=DIRECTION('',(1.,0.,0.));
#274=DIRECTION('',(0.,0.993594529964886,0.113004026582499));
#275=DIRECTION('',(0.,-0.113004026582499,0.993594529964886));
#276=DIRECTION('',(0.,-0.104528463267654,0.994521895368273));
#277=DIRECTION('',(0.,-0.994521895368273,-0.104528463267654));
#278=DIRECTION('',(-1.,0.,0.));
#279=DIRECTION('',(0.,0.,1.));
#280=DIRECTION('',(-1.,0.,0.));
#281=DIRECTION('',(0.,0.,1.));
#282=DIRECTION('',(-1.,0.,0.));
#283=DIRECTION('',(0.,0.,1.));
#284=DIRECTION('',(-1.,0.,0.));
#285=DIRECTION('',(0.,0.,1.));
#286=DIRECTION('',(-1.,0.,0.));
#287=DIRECTION('',(0.,0.,1.));
#288=DIRECTION('',(-1.,0.,0.));
#289=DIRECTION('',(0.,0.,1.));
#290=DIRECTION('',(-1.,0.,0.));
#291=DIRECTION('',(0.,0.,1.));
#292=DIRECTION('',(-1.,0.,0.));
#293=DIRECTION('',(0.,0.,1.));
#294=DIRECTION('',(-1.,0.,0.));
#295=DIRECTION('',(0.,0.,1.));
#296=DIRECTION('',(-1.,0.,0.));
#297=DIRECTION('',(0.,0.,1.));
#298=DIRECTION('',(-1.,0.,0.));
#299=DIRECTION('',(0.,0.,1.));
#300=DIRECTION('',(-1.,0.,0.));
#301=DIRECTION('',(0.,0.,1.));
#302=DIRECTION('',(-1.,0.,0.));
#303=DIRECTION('',(0.,0.,1.));
#304=DIRECTION('',(-1.,0.,0.));
#305=DIRECTION('',(0.,0.,1.));
#306=DIRECTION('',(-1.,0.,0.));
#307=DIRECTION('',(0.,0.,1.));
#308=DIRECTION('',(-1.,0.,0.));
#309=DIRECTION('',(0.,0.,1.));
#310=DIRECTION('',(-1.,0.,0.));
#311=DIRECTION('',(0.,0.,1.));
#312=DIRECTION('',(-1.,0.,0.));
#313=DIRECTION('',(-1.,0.,0.));
#314=DIRECTION('',(6.95124801188939E-19,0.,1.));
#315=CARTESIAN_POINT('',(0.,0.,0.));
#316=CARTESIAN_POINT('',(5.,0.394498319155079,15.0313503965572));
#317=CARTESIAN_POINT('',(5.,-0.170521813757416,19.9993230463817));
#318=CARTESIAN_POINT('',(5.,-15.0274405231586,0.522642316338269));
#319=CARTESIAN_POINT('',(5.,-20.00005,8.67361737988404E-16));
#320=CARTESIAN_POINT('',(5.,-20.00005,0.));
#321=CARTESIAN_POINT('',(5.,-20.00005,-20.9987853460567));
#322=CARTESIAN_POINT('',(5.,-0.582617256068717,-28.9933016944466));
#323=CARTESIAN_POINT('',(5.,14.2023315832954,-14.0817533567603));
#324=CARTESIAN_POINT('',(5.,28.9872804226595,0.829794980925929));
#325=CARTESIAN_POINT('',(5.,20.827500277058,20.1783601469845));
#326=CARTESIAN_POINT('',(5.,-0.170521813757412,19.9993230463816));
#327=CARTESIAN_POINT('',(15.,-20.00005,0.));
#328=CARTESIAN_POINT('',(15.,-20.00005,-20.9987853460567));
#329=CARTESIAN_POINT('',(15.,-0.582617256068717,-28.9933016944466));
#330=CARTESIAN_POINT('',(15.,14.2023315832954,-14.0817533567603));
#331=CARTESIAN_POINT('',(15.,28.9872804226594,0.82979498092593));
#332=CARTESIAN_POINT('',(15.,20.8275002770581,20.1783601469845));
#333=CARTESIAN_POINT('',(15.,-0.170521813757412,19.9993230463817));
#334=CARTESIAN_POINT('',(15.,-10.0548310463173,1.04528463267654));
#335=CARTESIAN_POINT('',(15.,-11.152313683966,-9.51165091660877));
#336=CARTESIAN_POINT('',(15.,-1.80821401877493,-14.5456510932754));
#337=CARTESIAN_POINT('',(15.,6.4041141971569,-7.82173693517422));
#338=CARTESIAN_POINT('',(15.,14.6164424130887,-1.09782277707301));
#339=CARTESIAN_POINT('',(15.,11.5254274952913,9.05594416478938));
#340=CARTESIAN_POINT('',(15.,0.959518452067574,10.0633777467328));
#341=CARTESIAN_POINT('',(5.,-10.0548310463173,1.04528463267654));
#342=CARTESIAN_POINT('',(5.,-11.152313683966,-9.51165091660876));
#343=CARTESIAN_POINT('',(5.,-1.80821401877493,-14.5456510932754));
#344=CARTESIAN_POINT('',(5.,6.4041141971569,-7.82173693517423));
#345=CARTESIAN_POINT('',(5.,14.6164424130887,-1.09782277707301));
#346=CARTESIAN_POINT('',(5.,11.5254274952913,9.05594416478938));
#347=CARTESIAN_POINT('',(5.,0.959518452067574,10.0633777467328));
#348=CARTESIAN_POINT('',(-4.99999999999999,-10.0548310463173,1.04528463267654));
#349=CARTESIAN_POINT('',(-5.,-11.152313683966,-9.51165091660877));
#350=CARTESIAN_POINT('',(-5.,-1.80821401877493,-14.5456510932754));
#351=CARTESIAN_POINT('',(-4.99999999999999,6.4041141971569,-7.82173693517422));
#352=CARTESIAN_POINT('',(-5.,14.6164424130887,-1.09782277707301));
#353=CARTESIAN_POINT('',(-5.,11.5254274952913,9.05594416478938));
#354=CARTESIAN_POINT('',(-4.99999999999999,0.959518452067574,10.0633777467328));
#355=CARTESIAN_POINT('',(-4.99999999999999,-20.00005,0.));
#356=CARTESIAN_POINT('',(-5.,-20.00005,-20.9987853460567));
#357=CARTESIAN_POINT('',(-5.,-0.582617256068717,-28.9933016944466));
#358=CARTESIAN_POINT('',(-4.99999999999999,14.2023315832954,-14.0817533567603));
#359=CARTESIAN_POINT('',(-5.,28.9872804226594,0.82979498092593));
#360=CARTESIAN_POINT('',(-5.,20.8275002770581,20.1783601469845));
#361=CARTESIAN_POINT('',(-4.99999999999999,-0.170521813757412,19.9993230463817));
#362=CARTESIAN_POINT('',(5.,-20.00005,0.));
#363=CARTESIAN_POINT('',(5.,-20.00005,-20.9987853460567));
#364=CARTESIAN_POINT('',(5.,-0.582617256068717,-28.9933016944466));
#365=CARTESIAN_POINT('',(5.,14.2023315832954,-14.0817533567603));
#366=CARTESIAN_POINT('',(5.,28.9872804226595,0.829794980925929));
#367=CARTESIAN_POINT('',(5.,20.827500277058,20.1783601469845));
#368=CARTESIAN_POINT('',(5.,-0.170521813757412,19.9993230463816));
#369=CARTESIAN_POINT('',(5.,-0.170521813757416,19.9993230463816));
#370=CARTESIAN_POINT('',(5.,-11.8068074569373,19.9001076615073));
#371=CARTESIAN_POINT('',(5.,-20.00005,11.6367086094939));
#372=CARTESIAN_POINT('',(5.,-20.00005,1.00288700954909E-15));
#373=CARTESIAN_POINT('',(15.,-0.170521813757416,19.9993230463817));
#374=CARTESIAN_POINT('',(15.,-11.8068074569372,19.9001076615073));
#375=CARTESIAN_POINT('',(15.,-20.00005,11.6367086094939));
#376=CARTESIAN_POINT('',(15.,-20.00005,9.75781955236954E-16));
#377=CARTESIAN_POINT('',(15.,0.959518452067573,10.0633777467328));
#378=CARTESIAN_POINT('',(15.,-4.89569663319445,10.6216581826389));
#379=CARTESIAN_POINT('',(15.,-9.44664893255062,6.89552695725504));
#380=CARTESIAN_POINT('',(15.,-10.0548310463173,1.04528463267654));
#381=CARTESIAN_POINT('',(5.,0.959518452067573,10.0633777467328));
#382=CARTESIAN_POINT('',(5.,-4.89569663319446,10.6216581826389));
#383=CARTESIAN_POINT('',(5.,-9.44664893255061,6.89552695725505));
#384=CARTESIAN_POINT('',(5.,-10.0548310463173,1.04528463267654));
#385=CARTESIAN_POINT('',(-4.99999999999999,0.959518452067573,10.0633777467328));
#386=CARTESIAN_POINT('',(-5.,-4.89569663319445,10.6216581826389));
#387=CARTESIAN_POINT('',(-5.,-9.4466489325506,6.89552695725504));
#388=CARTESIAN_POINT('',(-4.99999999999999,-10.0548310463173,1.04528463267654));
#389=CARTESIAN_POINT('',(-4.99999999999999,-0.170521813757416,19.9993230463817));
#390=CARTESIAN_POINT('',(-5.,-11.8068074569372,19.9001076615073));
#391=CARTESIAN_POINT('',(-5.,-20.00005,11.6367086094939));
#392=CARTESIAN_POINT('',(-4.99999999999999,-20.00005,9.75781955236954E-16));
#393=CARTESIAN_POINT('',(5.,-0.170521813757416,19.9993230463816));
#394=CARTESIAN_POINT('',(5.,-11.8068074569373,19.9001076615073));
#395=CARTESIAN_POINT('',(5.,-20.00005,11.6367086094939));
#396=CARTESIAN_POINT('',(5.,-20.00005,1.00288700954909E-15));
#397=CARTESIAN_POINT('',(38.5,0.,0.));
#398=CARTESIAN_POINT('',(38.5,0.,18.));
#399=CARTESIAN_POINT('',(33.,0.,0.));
#400=CARTESIAN_POINT('',(33.,0.,18.));
#401=CARTESIAN_POINT('',(0.,0.,0.));
#402=CARTESIAN_POINT('',(40.,0.,0.));
#403=CARTESIAN_POINT('',(40.,0.,16.5));
#404=CARTESIAN_POINT('',(38.5,0.,0.));
#405=CARTESIAN_POINT('',(40.,9.,0.));
#406=CARTESIAN_POINT('',(31.951779874216,0.,0.));
#407=CARTESIAN_POINT('',(31.951779874216,0.,17.8888888888889));
#408=CARTESIAN_POINT('',(33.,0.,0.));
#409=CARTESIAN_POINT('',(13.3244912041185,0.,0.));
#410=CARTESIAN_POINT('',(13.3244912041185,0.,18.3333333333333));
#411=CARTESIAN_POINT('',(23.5660188679434,0.,0.));
#412=CARTESIAN_POINT('',(12.0443002461404,0.,0.));
#413=CARTESIAN_POINT('',(12.0443002461404,0.,18.5));
#414=CARTESIAN_POINT('',(12.0443002461404,0.,0.));
#415=CARTESIAN_POINT('',(7.67573952189893,0.,0.));
#416=CARTESIAN_POINT('',(7.67573952189893,0.,18.5));
#417=CARTESIAN_POINT('',(0.,0.,0.));
#418=CARTESIAN_POINT('',(7.33468169690752,0.,0.));
#419=CARTESIAN_POINT('',(7.33468169690752,0.,18.5599576817942));
#420=CARTESIAN_POINT('',(7.67573952189893,0.,0.));
#421=CARTESIAN_POINT('',(3.,0.,0.));
#422=CARTESIAN_POINT('',(3.,0.,11.2845036077369));
#423=CARTESIAN_POINT('',(4.7194103985373,10.7942494579256,0.));
#424=CARTESIAN_POINT('',(5.2805896014627,10.7942494579256,0.));
#425=CARTESIAN_POINT('',(5.55835719962098,10.8212293867698,0.));
#426=CARTESIAN_POINT('',(6.10820405142245,10.9290274768416,0.));
#427=CARTESIAN_POINT('',(6.37528567349684,11.0090861652906,0.));
#428=CARTESIAN_POINT('',(6.88785045844297,11.2180698840407,0.));
#429=CARTESIAN_POINT('',(7.13657736673839,11.3486980182437,0.));
#430=CARTESIAN_POINT('',(7.60256534121898,11.6556008496846,0.));
#431=CARTESIAN_POINT('',(7.81773886875991,11.8298200002896,0.));
#432=CARTESIAN_POINT('',(8.21276423964434,12.2194217386644,0.));
#433=CARTESIAN_POINT('',(8.39359875871214,12.4370522510498,0.));
#434=CARTESIAN_POINT('',(8.703955829678,12.8967910876579,0.));
#435=CARTESIAN_POINT('',(8.83556168768472,13.1403464912217,0.));
#436=CARTESIAN_POINT('',(9.05059853642155,13.6554269901292,0.));
#437=CARTESIAN_POINT('',(9.13222776998154,13.9241191910332,0.));
#438=CARTESIAN_POINT('',(9.24004132759056,14.4668620000895,0.));
#439=CARTESIAN_POINT('',(9.26726672138838,14.7450492179032,0.));
#440=CARTESIAN_POINT('',(9.26562144829948,15.3044658765261,0.));
#441=CARTESIAN_POINT('',(9.23712823628941,15.5799540873274,0.));
#442=CARTESIAN_POINT('',(9.1265835836438,16.1227621904834,0.));
#443=CARTESIAN_POINT('',(9.04306332804569,16.3928649495688,0.));
#444=CARTESIAN_POINT('',(8.8271835705038,16.9047943281751,0.));
#445=CARTESIAN_POINT('',(8.69522828150911,17.1479203376456,0.));
#446=CARTESIAN_POINT('',(8.38329446730517,17.6084990514653,0.));
#447=CARTESIAN_POINT('',(8.20268334593491,17.8254532544035,0.));
#448=CARTESIAN_POINT('',(7.80865304349922,18.2143782428092,0.));
#449=CARTESIAN_POINT('',(7.59358819642767,18.3891010845234,0.));
#450=CARTESIAN_POINT('',(7.12618165083351,18.6977797600487,0.));
#451=CARTESIAN_POINT('',(6.87966955815329,18.8276354390708,0.));
#452=CARTESIAN_POINT('',(6.3676135063484,19.0372841885079,0.));
#453=CARTESIAN_POINT('',(6.09856017256695,19.118112623344,0.));
#454=CARTESIAN_POINT('',(5.5510743117578,19.225454562009,0.));
#455=CARTESIAN_POINT('',(5.27556788961917,19.2519811098042,0.));
#456=CARTESIAN_POINT('',(4.72109432340088,19.2517652881797,0.));
#457=CARTESIAN_POINT('',(4.43958989892737,19.2241401484183,0.));
#458=CARTESIAN_POINT('',(3.8952063719191,19.116359509297,0.));
#459=CARTESIAN_POINT('',(3.63019865703857,19.0366816188831,0.));
#460=CARTESIAN_POINT('',(3.114746127533,18.8250514393359,0.));
#461=CARTESIAN_POINT('',(2.86601264084962,18.6930709129238,0.));
#462=CARTESIAN_POINT('',(2.40453312361465,18.3874048347628,0.));
#463=CARTESIAN_POINT('',(2.18866672643481,18.2123631406774,0.));
#464=CARTESIAN_POINT('',(1.79018439563985,17.8177673009496,0.));
#465=CARTESIAN_POINT('',(1.61342716541434,17.6041418884633,0.));
#466=CARTESIAN_POINT('',(1.30335782130033,17.1453418791043,0.));
#467=CARTESIAN_POINT('',(1.16897585087346,16.8971784398592,0.));
#468=CARTESIAN_POINT('',(0.953839657016402,16.3839805212037,0.));
#469=CARTESIAN_POINT('',(0.872458592508137,16.1194867017943,0.));
#470=CARTESIAN_POINT('',(0.762097355064256,15.5747012550951,0.));
#471=CARTESIAN_POINT('',(0.733810439008987,15.2934922795586,0.));
#472=CARTESIAN_POINT('',(0.73326909215647,14.7395364868047,0.));
#473=CARTESIAN_POINT('',(0.76014444651724,14.4637392209274,0.));
#474=CARTESIAN_POINT('',(0.870109928210386,13.9145895726753,0.));
#475=CARTESIAN_POINT('',(0.952084997012484,13.6480820580392,0.));
#476=CARTESIAN_POINT('',(1.16592420858577,13.1377224197025,0.));
#477=CARTESIAN_POINT('',(1.29970835733481,12.8903268273078,0.));
#478=CARTESIAN_POINT('',(1.61269051164651,12.4288057796376,0.));
#479=CARTESIAN_POINT('',(1.78995765265083,12.2163793793126,0.));
#480=CARTESIAN_POINT('',(2.1851114014115,11.8273717861948,0.));
#481=CARTESIAN_POINT('',(2.40536844066649,11.6497465883786,0.));
#482=CARTESIAN_POINT('',(2.86917849333785,11.345555045103,0.));
#483=CARTESIAN_POINT('',(3.11412776153283,11.2169814634073,0.));
#484=CARTESIAN_POINT('',(3.63024666568772,11.0071165014323,0.));
#485=CARTESIAN_POINT('',(3.90016930154321,10.9270525547093,0.));
#486=CARTESIAN_POINT('',(4.44339674233057,10.821225114617,0.));
#487=CARTESIAN_POINT('',(4.7194103985373,10.7942494579256,0.));
#488=CARTESIAN_POINT('',(5.2805896014627,10.7942494579256,0.));
#489=CARTESIAN_POINT('',(0.,0.,0.));
#490=CARTESIAN_POINT('',(6.02367362867916,0.,0.));
#491=CARTESIAN_POINT('',(3.,0.,0.));
#492=(
GEOMETRIC_REPRESENTATION_CONTEXT(3)
GLOBAL_UNCERTAINTY_ASSIGNED_CONTEXT((#493))
GLOBAL_UNIT_ASSIGNED_CONTEXT((#499,#495,#494))
REPRESENTATION_CONTEXT('model1','TOP_LEVEL_ASSEMBLY_PART')
);
#493=UNCERTAINTY_MEASURE_WITH_UNIT(LENGTH_MEASURE(2.E-5),#499,
'DISTANCE_ACCURACY_VALUE','Maximum Tolerance applied to model');
#494=(
NAMED_UNIT(*)
SI_UNIT($,.STERADIAN.)
SOLID_ANGLE_UNIT()
);
#495=(
CONVERSION_BASED_UNIT('DEGREE',#497)
NAMED_UNIT(#496)
PLANE_ANGLE_UNIT()
);
#496=DIMENSIONAL_EXPONENTS(0.,0.,0.,0.,0.,0.,0.);
#497=PLANE_ANGLE_MEASURE_WITH_UNIT(PLANE_ANGLE_MEASURE(0.0174532925),#498);
#498=(
NAMED_UNIT(*)
PLANE_ANGLE_UNIT()
SI_UNIT($,.RADIAN.)
);
#499=(
LENGTH_UNIT()
NAMED_UNIT(*)
SI_UNIT(.MILLI.,.METRE.)
);
ENDSEC;
END-ISO-10303-21;
