ISO-10303-21;
HEADER;
/* Generated by software containing ST-Developer
 * from STEP Tools, Inc. (www.steptools.com) 
 */
/* OPTION: using custom schema-name function */

FILE_DESCRIPTION(
/* description */ (''),
/* implementation_level */ '2;1');

FILE_NAME(
/* name */ 'model1.stp',
/* time_stamp */ '2023-11-03T10:30:39+03:00',
/* author */ (''),
/* organization */ (''),
/* preprocessor_version */ 'ST-DEVELOPER v19.4',
/* originating_system */ 'SIEMENS PLM Software NX2306.3001',
/* authorisation */ '');

FILE_SCHEMA (('AUTOMOTIVE_DESIGN { 1 0 10303 214 3 1 1 1 }'));
ENDSEC;

DATA;
#10=PROPERTY_DEFINITION_REPRESENTATION(#14,#12);
#11=PROPERTY_DEFINITION_REPRESENTATION(#15,#13);
#12=REPRESENTATION('',(#16),#492);
#13=REPRESENTATION('',(#17),#492);
#14=PROPERTY_DEFINITION('pmi validation property','',#21);
#15=PROPERTY_DEFINITION('pmi validation property','',#21);
#16=VALUE_REPRESENTATION_ITEM('number of annotations',COUNT_MEASURE(0.));
#17=VALUE_REPRESENTATION_ITEM('number of views',COUNT_MEASURE(0.));
#18=SHAPE_REPRESENTATION_RELATIONSHIP('None',
'relationship between model1_objects-None and model1_objects-None',#30,
#19);
#19=ADVANCED_BREP_SHAPE_REPRESENTATION('model1_objects-None',(#133,#134),
#492);
#20=SHAPE_DEFINITION_REPRESENTATION(#21,#30);
#21=PRODUCT_DEFINITION_SHAPE('','',#22);
#22=PRODUCT_DEFINITION(' ','',#24,#23);
#23=PRODUCT_DEFINITION_CONTEXT('part definition',#29,'design');
#24=PRODUCT_DEFINITION_FORMATION_WITH_SPECIFIED_SOURCE(' ',' ',#26,
 .NOT_KNOWN.);
#25=PRODUCT_RELATED_PRODUCT_CATEGORY('part','',(#26));
#26=PRODUCT('model1_objects','model1_objects',' ',(#27));
#27=PRODUCT_CONTEXT(' ',#29,'mechanical');
#28=APPLICATION_PROTOCOL_DEFINITION('international standard',
'automotive_design',2010,#29);
#29=APPLICATION_CONTEXT(
'core data for automotive mechanical design processes');
#30=SHAPE_REPRESENTATION('model1_objects-None',(#251),#492);
#31=OVER_RIDING_STYLED_ITEM('',(#62),#139,#59);
#32=OVER_RIDING_STYLED_ITEM('',(#63),#140,#59);
#33=OVER_RIDING_STYLED_ITEM('',(#64),#141,#59);
#34=OVER_RIDING_STYLED_ITEM('',(#65),#142,#59);
#35=OVER_RIDING_STYLED_ITEM('',(#66),#143,#59);
#36=OVER_RIDING_STYLED_ITEM('',(#67),#144,#59);
#37=OVER_RIDING_STYLED_ITEM('',(#68),#145,#59);
#38=OVER_RIDING_STYLED_ITEM('',(#69),#146,#59);
#39=OVER_RIDING_STYLED_ITEM('',(#70),#147,#59);
#40=OVER_RIDING_STYLED_ITEM('',(#71),#148,#59);
#41=COLOUR_RGB('Medium Steel',0.611764705882353,0.658823529411765,0.670588235294118);
#42=COLOUR_RGB('silver gray',0.6,0.6,0.6);
#43=CONICAL_SURFACE('',#271,11.2844554830392,75.0000000000002);
#44=VERTEX_LOOP('',#228);
#45=SURFACE_OF_REVOLUTION('',#47,#46);
#46=AXIS1_PLACEMENT('',#489,#312);
#47=B_SPLINE_CURVE_WITH_KNOTS('',3,(#423,#424,#425,#426,#427,#428,#429,
#430,#431,#432,#433,#434,#435,#436,#437,#438,#439,#440,#441,#442,#443,#444,
#445,#446,#447,#448,#449,#450,#451,#452,#453,#454,#455,#456,#457,#458,#459,
#460,#461,#462,#463,#464,#465,#466,#467,#468,#469,#470,#471,#472,#473,#474,
#475,#476,#477,#478,#479,#480,#481,#482,#483,#484,#485,#486,#487,#488),
 .UNSPECIFIED.,.T.,.F.,(2,2,2,2,2,2,2,2,2,2,2,2,2,2,2,2,2,2,2,2,2,2,2,2,
2,2,2,2,2,2,2,2,2,2,2),(-0.03125,0.,0.0312499999999996,0.0624999999999993,
0.09375,0.125,0.15625,0.1875,0.21875,0.25,0.28125,0.3125,0.34375,0.375,
0.40625,0.4375,0.46875,0.5,0.53125,0.5625,0.59375,0.625,0.65625,0.6875,
0.71875,0.75,0.78125,0.8125,0.84375,0.875,0.90625,0.9375,0.96875,1.,1.03125),
 .UNSPECIFIED.);
#48=PLANE('',#259);
#49=FACE_OUTER_BOUND('',#181,.T.);
#50=TOROIDAL_SURFACE('',#258,16.5,1.5);
#51=TOROIDAL_SURFACE('',#261,13.,5.);
#52=TOROIDAL_SURFACE('',#263,57.,40.);
#53=TOROIDAL_SURFACE('',#265,13.5,5.);
#54=TOROIDAL_SURFACE('',#269,19.5,0.99999999999993);
#55=CYLINDRICAL_SURFACE('',#256,18.);
#56=CYLINDRICAL_SURFACE('',#267,18.5);
#57=PRESENTATION_LAYER_ASSIGNMENT('1','Layer 1',(#133,#134));
#58=STYLED_ITEM('',(#60),#133);
#59=STYLED_ITEM('',(#61),#134);
#60=PRESENTATION_STYLE_ASSIGNMENT((#72));
#61=PRESENTATION_STYLE_ASSIGNMENT((#73));
#62=PRESENTATION_STYLE_ASSIGNMENT((#74));
#63=PRESENTATION_STYLE_ASSIGNMENT((#75));
#64=PRESENTATION_STYLE_ASSIGNMENT((#76));
#65=PRESENTATION_STYLE_ASSIGNMENT((#77));
#66=PRESENTATION_STYLE_ASSIGNMENT((#78));
#67=PRESENTATION_STYLE_ASSIGNMENT((#79));
#68=PRESENTATION_STYLE_ASSIGNMENT((#80));
#69=PRESENTATION_STYLE_ASSIGNMENT((#81));
#70=PRESENTATION_STYLE_ASSIGNMENT((#82));
#71=PRESENTATION_STYLE_ASSIGNMENT((#83));
#72=SURFACE_STYLE_USAGE(.BOTH.,#84);
#73=SURFACE_STYLE_USAGE(.BOTH.,#85);
#74=SURFACE_STYLE_USAGE(.BOTH.,#86);
#75=SURFACE_STYLE_USAGE(.BOTH.,#87);
#76=SURFACE_STYLE_USAGE(.BOTH.,#88);
#77=SURFACE_STYLE_USAGE(.BOTH.,#89);
#78=SURFACE_STYLE_USAGE(.BOTH.,#90);
#79=SURFACE_STYLE_USAGE(.BOTH.,#91);
#80=SURFACE_STYLE_USAGE(.BOTH.,#92);
#81=SURFACE_STYLE_USAGE(.BOTH.,#93);
#82=SURFACE_STYLE_USAGE(.BOTH.,#94);
#83=SURFACE_STYLE_USAGE(.BOTH.,#95);
#84=SURFACE_SIDE_STYLE('',(#96));
#85=SURFACE_SIDE_STYLE('',(#97));
#86=SURFACE_SIDE_STYLE('',(#98));
#87=SURFACE_SIDE_STYLE('',(#99));
#88=SURFACE_SIDE_STYLE('',(#100));
#89=SURFACE_SIDE_STYLE('',(#101));
#90=SURFACE_SIDE_STYLE('',(#102));
#91=SURFACE_SIDE_STYLE('',(#103));
#92=SURFACE_SIDE_STYLE('',(#104));
#93=SURFACE_SIDE_STYLE('',(#105));
#94=SURFACE_SIDE_STYLE('',(#106));
#95=SURFACE_SIDE_STYLE('',(#107));
#96=SURFACE_STYLE_FILL_AREA(#108);
#97=SURFACE_STYLE_FILL_AREA(#109);
#98=SURFACE_STYLE_FILL_AREA(#110);
#99=SURFACE_STYLE_FILL_AREA(#111);
#100=SURFACE_STYLE_FILL_AREA(#112);
#101=SURFACE_STYLE_FILL_AREA(#113);
#102=SURFACE_STYLE_FILL_AREA(#114);
#103=SURFACE_STYLE_FILL_AREA(#115);
#104=SURFACE_STYLE_FILL_AREA(#116);
#105=SURFACE_STYLE_FILL_AREA(#117);
#106=SURFACE_STYLE_FILL_AREA(#118);
#107=SURFACE_STYLE_FILL_AREA(#119);
#108=FILL_AREA_STYLE('',(#120));
#109=FILL_AREA_STYLE('',(#121));
#110=FILL_AREA_STYLE('',(#122));
#111=FILL_AREA_STYLE('',(#123));
#112=FILL_AREA_STYLE('',(#124));
#113=FILL_AREA_STYLE('',(#125));
#114=FILL_AREA_STYLE('',(#126));
#115=FILL_AREA_STYLE('',(#127));
#116=FILL_AREA_STYLE('',(#128));
#117=FILL_AREA_STYLE('',(#129));
#118=FILL_AREA_STYLE('',(#130));
#119=FILL_AREA_STYLE('',(#131));
#120=FILL_AREA_STYLE_COLOUR('',#132);
#121=FILL_AREA_STYLE_COLOUR('',#41);
#122=FILL_AREA_STYLE_COLOUR('',#42);
#123=FILL_AREA_STYLE_COLOUR('',#42);
#124=FILL_AREA_STYLE_COLOUR('',#42);
#125=FILL_AREA_STYLE_COLOUR('',#42);
#126=FILL_AREA_STYLE_COLOUR('',#42);
#127=FILL_AREA_STYLE_COLOUR('',#42);
#128=FILL_AREA_STYLE_COLOUR('',#42);
#129=FILL_AREA_STYLE_COLOUR('',#42);
#130=FILL_AREA_STYLE_COLOUR('',#42);
#131=FILL_AREA_STYLE_COLOUR('',#42);
#132=DRAUGHTING_PRE_DEFINED_COLOUR('yellow');
#133=MANIFOLD_SOLID_BREP('',#135);
#134=MANIFOLD_SOLID_BREP('',#136);
#135=CLOSED_SHELL('',(#137,#138));
#136=CLOSED_SHELL('',(#139,#140,#141,#142,#143,#144,#145,#146,#147,#148));
#137=ADVANCED_FACE('',(#151,#152),#149,.F.);
#138=ADVANCED_FACE('',(#153,#154),#150,.F.);
#139=ADVANCED_FACE('',(#155,#156),#55,.T.);
#140=ADVANCED_FACE('',(#157,#158),#50,.T.);
#141=ADVANCED_FACE('',(#49),#48,.F.);
#142=ADVANCED_FACE('',(#159,#160),#51,.T.);
#143=ADVANCED_FACE('',(#161,#162),#52,.F.);
#144=ADVANCED_FACE('',(#163,#164),#53,.T.);
#145=ADVANCED_FACE('',(#165,#166),#56,.T.);
#146=ADVANCED_FACE('',(#167,#168),#54,.F.);
#147=ADVANCED_FACE('',(#169,#170),#45,.T.);
#148=ADVANCED_FACE('',(#171,#172),#43,.F.);
#149=(
BOUNDED_SURFACE()
B_SPLINE_SURFACE(3,3,((#320,#321,#322,#323,#324,#325,#326),(#327,#328,#329,
#330,#331,#332,#333),(#334,#335,#336,#337,#338,#339,#340),(#341,#342,#343,
#344,#345,#346,#347),(#348,#349,#350,#351,#352,#353,#354),(#355,#356,#357,
#358,#359,#360,#361),(#362,#363,#364,#365,#366,#367,#368)),
 .UNSPECIFIED.,.T.,.F.,.F.)
B_SPLINE_SURFACE_WITH_KNOTS((1,3,3,3,1),(4,3,4),(-0.5,0.,0.5,1.,1.5),(0.,
0.5,1.),.UNSPECIFIED.)
GEOMETRIC_REPRESENTATION_ITEM()
RATIONAL_B_SPLINE_SURFACE(((1.,0.587142227415669,0.587142227415669,1.,0.587142227415669,
0.587142227415669,1.),(0.333333333333334,0.195714075805223,0.195714075805223,
0.333333333333334,0.195714075805223,0.195714075805223,0.333333333333334),
(0.333333333333334,0.195714075805223,0.195714075805223,0.333333333333334,
0.195714075805223,0.195714075805223,0.333333333333334),(1.,0.587142227415669,
0.587142227415669,1.,0.587142227415669,0.587142227415669,1.),(0.333333333333334,
0.195714075805223,0.195714075805223,0.333333333333334,0.195714075805223,
0.195714075805223,0.333333333333334),(0.333333333333334,0.195714075805223,
0.195714075805223,0.333333333333334,0.195714075805223,0.195714075805223,
0.333333333333334),(1.,0.587142227415669,0.587142227415669,1.,0.587142227415669,
0.587142227415669,1.)))
REPRESENTATION_ITEM('')
SURFACE()
);
#150=(
BOUNDED_SURFACE()
B_SPLINE_SURFACE(3,3,((#369,#370,#371,#372),(#373,#374,#375,#376),(#377,
#378,#379,#380),(#381,#382,#383,#384),(#385,#386,#387,#388),(#389,#390,
#391,#392),(#393,#394,#395,#396)),.UNSPECIFIED.,.T.,.F.,.F.)
B_SPLINE_SURFACE_WITH_KNOTS((1,3,3,3,1),(4,4),(-0.5,0.,0.5,1.,1.5),(0.,
1.),.UNSPECIFIED.)
GEOMETRIC_REPRESENTATION_ITEM()
RATIONAL_B_SPLINE_SURFACE(((1.,0.806743135854106,0.806743135854106,1.),
(0.333333333333334,0.268914378618036,0.268914378618036,0.333333333333334),
(0.333333333333334,0.268914378618036,0.268914378618036,0.333333333333334),
(1.,0.806743135854106,0.806743135854106,1.),(0.333333333333334,0.268914378618036,
0.268914378618036,0.333333333333334),(0.333333333333334,0.268914378618036,
0.268914378618036,0.333333333333334),(1.,0.806743135854106,0.806743135854106,
1.)))
REPRESENTATION_ITEM('')
SURFACE()
);
#151=FACE_BOUND('',#173,.T.);
#152=FACE_BOUND('',#174,.T.);
#153=FACE_BOUND('',#175,.T.);
#154=FACE_BOUND('',#176,.T.);
#155=FACE_BOUND('',#177,.T.);
#156=FACE_BOUND('',#178,.T.);
#157=FACE_BOUND('',#179,.T.);
#158=FACE_BOUND('',#180,.T.);
#159=FACE_BOUND('',#182,.T.);
#160=FACE_BOUND('',#183,.T.);
#161=FACE_BOUND('',#184,.T.);
#162=FACE_BOUND('',#185,.T.);
#163=FACE_BOUND('',#186,.T.);
#164=FACE_BOUND('',#187,.T.);
#165=FACE_BOUND('',#188,.T.);
#166=FACE_BOUND('',#189,.T.);
#167=FACE_BOUND('',#190,.T.);
#168=FACE_BOUND('',#191,.T.);
#169=FACE_BOUND('',#192,.T.);
#170=FACE_BOUND('',#193,.T.);
#171=FACE_BOUND('',#194,.T.);
#172=FACE_BOUND('',#44,.T.);
#173=EDGE_LOOP('',(#195));
#174=EDGE_LOOP('',(#196));
#175=EDGE_LOOP('',(#197));
#176=EDGE_LOOP('',(#198));
#177=EDGE_LOOP('',(#199));
#178=EDGE_LOOP('',(#200));
#179=EDGE_LOOP('',(#201));
#180=EDGE_LOOP('',(#202));
#181=EDGE_LOOP('',(#203));
#182=EDGE_LOOP('',(#204));
#183=EDGE_LOOP('',(#205));
#184=EDGE_LOOP('',(#206));
#185=EDGE_LOOP('',(#207));
#186=EDGE_LOOP('',(#208));
#187=EDGE_LOOP('',(#209));
#188=EDGE_LOOP('',(#210));
#189=EDGE_LOOP('',(#211));
#190=EDGE_LOOP('',(#212));
#191=EDGE_LOOP('',(#213));
#192=EDGE_LOOP('',(#214));
#193=EDGE_LOOP('',(#215));
#194=EDGE_LOOP('',(#216));
#195=ORIENTED_EDGE('',*,*,#229,.T.);
#196=ORIENTED_EDGE('',*,*,#230,.F.);
#197=ORIENTED_EDGE('',*,*,#230,.T.);
#198=ORIENTED_EDGE('',*,*,#229,.F.);
#199=ORIENTED_EDGE('',*,*,#231,.T.);
#200=ORIENTED_EDGE('',*,*,#232,.F.);
#201=ORIENTED_EDGE('',*,*,#231,.F.);
#202=ORIENTED_EDGE('',*,*,#233,.T.);
#203=ORIENTED_EDGE('',*,*,#233,.F.);
#204=ORIENTED_EDGE('',*,*,#234,.F.);
#205=ORIENTED_EDGE('',*,*,#232,.T.);
#206=ORIENTED_EDGE('',*,*,#235,.F.);
#207=ORIENTED_EDGE('',*,*,#234,.T.);
#208=ORIENTED_EDGE('',*,*,#236,.F.);
#209=ORIENTED_EDGE('',*,*,#235,.T.);
#210=ORIENTED_EDGE('',*,*,#237,.F.);
#211=ORIENTED_EDGE('',*,*,#236,.T.);
#212=ORIENTED_EDGE('',*,*,#238,.F.);
#213=ORIENTED_EDGE('',*,*,#237,.T.);
#214=ORIENTED_EDGE('',*,*,#239,.F.);
#215=ORIENTED_EDGE('',*,*,#238,.T.);
#216=ORIENTED_EDGE('',*,*,#239,.T.);
#217=VERTEX_POINT('',#317);
#218=VERTEX_POINT('',#319);
#219=VERTEX_POINT('',#398);
#220=VERTEX_POINT('',#400);
#221=VERTEX_POINT('',#403);
#222=VERTEX_POINT('',#407);
#223=VERTEX_POINT('',#410);
#224=VERTEX_POINT('',#413);
#225=VERTEX_POINT('',#416);
#226=VERTEX_POINT('',#419);
#227=VERTEX_POINT('',#422);
#228=VERTEX_POINT('',#490);
#229=EDGE_CURVE('',#217,#217,#240,.T.);
#230=EDGE_CURVE('',#218,#218,#241,.T.);
#231=EDGE_CURVE('',#219,#219,#242,.T.);
#232=EDGE_CURVE('',#220,#220,#243,.T.);
#233=EDGE_CURVE('',#221,#221,#244,.T.);
#234=EDGE_CURVE('',#222,#222,#245,.T.);
#235=EDGE_CURVE('',#223,#223,#246,.T.);
#236=EDGE_CURVE('',#224,#224,#247,.T.);
#237=EDGE_CURVE('',#225,#225,#248,.T.);
#238=EDGE_CURVE('',#226,#226,#249,.T.);
#239=EDGE_CURVE('',#227,#227,#250,.T.);
#240=CIRCLE('',#252,5.);
#241=CIRCLE('',#253,5.);
#242=CIRCLE('',#254,18.);
#243=CIRCLE('',#255,18.);
#244=CIRCLE('',#257,16.5);
#245=CIRCLE('',#260,17.8888888888889);
#246=CIRCLE('',#262,18.3333333333333);
#247=CIRCLE('',#264,18.5);
#248=CIRCLE('',#266,18.5);
#249=CIRCLE('',#268,18.5600194624911);
#250=CIRCLE('',#270,11.2844554830392);
#251=AXIS2_PLACEMENT_3D('',#315,#272,#273);
#252=AXIS2_PLACEMENT_3D('',#316,#274,#275);
#253=AXIS2_PLACEMENT_3D('',#318,#276,#277);
#254=AXIS2_PLACEMENT_3D('',#397,#278,#279);
#255=AXIS2_PLACEMENT_3D('',#399,#280,#281);
#256=AXIS2_PLACEMENT_3D('',#401,#282,#283);
#257=AXIS2_PLACEMENT_3D('',#402,#284,#285);
#258=AXIS2_PLACEMENT_3D('',#404,#286,#287);
#259=AXIS2_PLACEMENT_3D('',#405,#288,#289);
#260=AXIS2_PLACEMENT_3D('',#406,#290,#291);
#261=AXIS2_PLACEMENT_3D('',#408,#292,#293);
#262=AXIS2_PLACEMENT_3D('',#409,#294,#295);
#263=AXIS2_PLACEMENT_3D('',#411,#296,#297);
#264=AXIS2_PLACEMENT_3D('',#412,#298,#299);
#265=AXIS2_PLACEMENT_3D('',#414,#300,#301);
#266=AXIS2_PLACEMENT_3D('',#415,#302,#303);
#267=AXIS2_PLACEMENT_3D('',#417,#304,#305);
#268=AXIS2_PLACEMENT_3D('',#418,#306,#307);
#269=AXIS2_PLACEMENT_3D('',#420,#308,#309);
#270=AXIS2_PLACEMENT_3D('',#421,#310,#311);
#271=AXIS2_PLACEMENT_3D('',#491,#313,#314);
#272=DIRECTION('',(0.,0.,1.));
#273=DIRECTION('',(1.,0.,0.));
#274=DIRECTION('',(0.,0.993594562095351,0.113003744073139));
#275=DIRECTION('',(0.,-0.113003744073139,0.993594562095351));
#276=DIRECTION('',(0.,-0.104528463267654,0.994521895368273));
#277=DIRECTION('',(0.,-0.994521895368273,-0.104528463267654));
#278=DIRECTION('',(-1.,0.,0.));
#279=DIRECTION('',(0.,0.,1.));
#280=DIRECTION('',(-1.,0.,0.));
#281=DIRECTION('',(0.,0.,1.));
#282=DIRECTION('',(-1.,0.,0.));
#283=DIRECTION('',(0.,0.,1.));
#284=DIRECTION('',(-1.,0.,0.));
#285=DIRECTION('',(0.,0.,1.));
#286=DIRECTION('',(-1.,0.,0.));
#287=DIRECTION('',(0.,0.,1.));
#288=DIRECTION('',(-1.,0.,0.));
#289=DIRECTION('',(0.,0.,1.));
#290=DIRECTION('',(-1.,0.,0.));
#291=DIRECTION('',(0.,0.,1.));
#292=DIRECTION('',(-1.,0.,0.));
#293=DIRECTION('',(0.,0.,1.));
#294=DIRECTION('',(-1.,0.,0.));
#295=DIRECTION('',(0.,0.,1.));
#296=DIRECTION('',(-1.,0.,0.));
#297=DIRECTION('',(0.,0.,1.));
#298=DIRECTION('',(-1.,0.,0.));
#299=DIRECTION('',(0.,0.,1.));
#300=DIRECTION('',(-1.,0.,0.));
#301=DIRECTION('',(0.,0.,1.));
#302=DIRECTION('',(-1.,0.,0.));
#303=DIRECTION('',(0.,0.,1.));
#304=DIRECTION('',(-1.,0.,0.));
#305=DIRECTION('',(0.,0.,1.));
#306=DIRECTION('',(-1.,0.,0.));
#307=DIRECTION('',(0.,0.,1.));
#308=DIRECTION('',(-1.,0.,0.));
#309=DIRECTION('',(0.,0.,1.));
#310=DIRECTION('',(-1.,0.,0.));
#311=DIRECTION('',(0.,0.,1.));
#312=DIRECTION('',(-1.,0.,0.));
#313=DIRECTION('',(-1.,0.,0.));
#314=DIRECTION('',(6.95124810125534E-19,0.,1.));
#315=CARTESIAN_POINT('',(0.,0.,0.));
#316=CARTESIAN_POINT('',(5.,0.394503019317596,15.031300286206));
#317=CARTESIAN_POINT('',(5.,-0.170515701048098,19.9992730966827));
#318=CARTESIAN_POINT('',(5.,-15.0273905231586,0.522642316338268));
#319=CARTESIAN_POINT('',(5.,-20.,-1.0842021724855E-16));
#320=CARTESIAN_POINT('',(5.,-20.,-2.16840434497101E-16));
#321=CARTESIAN_POINT('',(5.,-20.,-20.9987306674914));
#322=CARTESIAN_POINT('',(5.,-0.582618385232929,-28.9932275792647));
#323=CARTESIAN_POINT('',(5.,14.2022940756232,-14.0817201715387));
#324=CARTESIAN_POINT('',(5.,28.9872065364792,0.829787236187351));
#325=CARTESIAN_POINT('',(5.,20.8274517640942,20.1783037607271));
#326=CARTESIAN_POINT('',(5.,-0.170515701048099,19.9992730966827));
#327=CARTESIAN_POINT('',(15.,-20.,-2.16840434497101E-16));
#328=CARTESIAN_POINT('',(15.,-20.,-20.9987306674914));
#329=CARTESIAN_POINT('',(15.,-0.582618385232929,-28.9932275792647));
#330=CARTESIAN_POINT('',(15.,14.2022940756232,-14.0817201715387));
#331=CARTESIAN_POINT('',(15.,28.9872065364793,0.829787236187353));
#332=CARTESIAN_POINT('',(15.,20.8274517640943,20.1783037607271));
#333=CARTESIAN_POINT('',(15.,-0.170515701048101,19.9992730966827));
#334=CARTESIAN_POINT('',(15.,-10.0547810463173,1.04528463267654));
#335=CARTESIAN_POINT('',(15.,-11.1522635699394,-9.51159732293417));
#336=CARTESIAN_POINT('',(15.,-1.80821377686875,-14.5455776545377));
#337=CARTESIAN_POINT('',(15.,6.40407757944196,-7.82170264131662));
#338=CARTESIAN_POINT('',(15.,14.6163689357527,-1.0978276280955));
#339=CARTESIAN_POINT('',(15.,11.5253769037635,9.05589054666857));
#340=CARTESIAN_POINT('',(15.,0.959521739683289,10.0633274757292));
#341=CARTESIAN_POINT('',(5.,-10.0547810463173,1.04528463267654));
#342=CARTESIAN_POINT('',(5.,-11.1522635699394,-9.51159732293416));
#343=CARTESIAN_POINT('',(5.,-1.80821377686875,-14.5455776545377));
#344=CARTESIAN_POINT('',(5.,6.40407757944196,-7.82170264131662));
#345=CARTESIAN_POINT('',(5.,14.6163689357527,-1.0978276280955));
#346=CARTESIAN_POINT('',(5.,11.5253769037635,9.05589054666856));
#347=CARTESIAN_POINT('',(5.,0.95952173968329,10.0633274757292));
#348=CARTESIAN_POINT('',(-4.99999999999999,-10.0547810463173,1.04528463267654));
#349=CARTESIAN_POINT('',(-5.,-11.1522635699394,-9.51159732293417));
#350=CARTESIAN_POINT('',(-5.,-1.80821377686875,-14.5455776545377));
#351=CARTESIAN_POINT('',(-4.99999999999999,6.40407757944196,-7.82170264131662));
#352=CARTESIAN_POINT('',(-5.,14.6163689357527,-1.0978276280955));
#353=CARTESIAN_POINT('',(-5.,11.5253769037635,9.05589054666857));
#354=CARTESIAN_POINT('',(-4.99999999999999,0.959521739683289,10.0633274757292));
#355=CARTESIAN_POINT('',(-4.99999999999999,-20.,-2.16840434497101E-16));
#356=CARTESIAN_POINT('',(-5.,-20.,-20.9987306674914));
#357=CARTESIAN_POINT('',(-5.,-0.582618385232929,-28.9932275792647));
#358=CARTESIAN_POINT('',(-4.99999999999999,14.2022940756232,-14.0817201715387));
#359=CARTESIAN_POINT('',(-5.,28.9872065364793,0.829787236187353));
#360=CARTESIAN_POINT('',(-5.,20.8274517640943,20.1783037607271));
#361=CARTESIAN_POINT('',(-4.99999999999999,-0.170515701048101,19.9992730966827));
#362=CARTESIAN_POINT('',(5.,-20.,-2.16840434497101E-16));
#363=CARTESIAN_POINT('',(5.,-20.,-20.9987306674914));
#364=CARTESIAN_POINT('',(5.,-0.582618385232929,-28.9932275792647));
#365=CARTESIAN_POINT('',(5.,14.2022940756232,-14.0817201715387));
#366=CARTESIAN_POINT('',(5.,28.9872065364792,0.829787236187351));
#367=CARTESIAN_POINT('',(5.,20.8274517640942,20.1783037607271));
#368=CARTESIAN_POINT('',(5.,-0.170515701048099,19.9992730966827));
#369=CARTESIAN_POINT('',(5.,-0.170515701048099,19.9992730966827));
#370=CARTESIAN_POINT('',(5.,-11.806774912745,19.9000612459585));
#371=CARTESIAN_POINT('',(5.,-20.,11.6366821488397));
#372=CARTESIAN_POINT('',(5.,-20.,-1.97866896478604E-15));
#373=CARTESIAN_POINT('',(15.,-0.170515701048099,19.9992730966827));
#374=CARTESIAN_POINT('',(15.,-11.806774912745,19.9000612459585));
#375=CARTESIAN_POINT('',(15.,-20.,11.6366821488397));
#376=CARTESIAN_POINT('',(15.,-20.,-2.00577401909818E-15));
#377=CARTESIAN_POINT('',(15.,0.959521739683289,10.0633274757292));
#378=CARTESIAN_POINT('',(15.,-4.895665420054,10.621609950709));
#379=CARTESIAN_POINT('',(15.,-9.44659879504108,6.89549918828513));
#380=CARTESIAN_POINT('',(15.,-10.0547810463173,1.04528463267653));
#381=CARTESIAN_POINT('',(5.,0.95952173968329,10.0633274757292));
#382=CARTESIAN_POINT('',(5.,-4.89566542005401,10.621609950709));
#383=CARTESIAN_POINT('',(5.,-9.44659879504109,6.89549918828513));
#384=CARTESIAN_POINT('',(5.,-10.0547810463173,1.04528463267654));
#385=CARTESIAN_POINT('',(-4.99999999999999,0.959521739683289,10.0633274757292));
#386=CARTESIAN_POINT('',(-4.99999999999999,-4.895665420054,10.621609950709));
#387=CARTESIAN_POINT('',(-4.99999999999999,-9.44659879504108,6.89549918828513));
#388=CARTESIAN_POINT('',(-4.99999999999999,-10.0547810463173,1.04528463267654));
#389=CARTESIAN_POINT('',(-4.99999999999999,-0.170515701048099,19.9992730966827));
#390=CARTESIAN_POINT('',(-4.99999999999999,-11.806774912745,19.9000612459585));
#391=CARTESIAN_POINT('',(-4.99999999999999,-20.,11.6366821488397));
#392=CARTESIAN_POINT('',(-4.99999999999999,-20.,-2.00577401909818E-15));
#393=CARTESIAN_POINT('',(5.,-0.170515701048099,19.9992730966827));
#394=CARTESIAN_POINT('',(5.,-11.806774912745,19.9000612459585));
#395=CARTESIAN_POINT('',(5.,-20.,11.6366821488397));
#396=CARTESIAN_POINT('',(5.,-20.,-1.97866896478604E-15));
#397=CARTESIAN_POINT('',(38.5,0.,0.));
#398=CARTESIAN_POINT('',(38.5,0.,18.));
#399=CARTESIAN_POINT('',(33.,0.,0.));
#400=CARTESIAN_POINT('',(33.,0.,18.));
#401=CARTESIAN_POINT('',(0.,0.,0.));
#402=CARTESIAN_POINT('',(40.,0.,0.));
#403=CARTESIAN_POINT('',(40.,0.,16.5));
#404=CARTESIAN_POINT('',(38.5,0.,0.));
#405=CARTESIAN_POINT('',(40.,9.,0.));
#406=CARTESIAN_POINT('',(31.951779874216,0.,0.));
#407=CARTESIAN_POINT('',(31.951779874216,0.,17.8888888888889));
#408=CARTESIAN_POINT('',(33.,0.,0.));
#409=CARTESIAN_POINT('',(13.3244912041185,0.,0.));
#410=CARTESIAN_POINT('',(13.3244912041185,0.,18.3333333333333));
#411=CARTESIAN_POINT('',(23.5660188679434,0.,0.));
#412=CARTESIAN_POINT('',(12.0443002461404,0.,0.));
#413=CARTESIAN_POINT('',(12.0443002461404,0.,18.5));
#414=CARTESIAN_POINT('',(12.0443002461404,0.,0.));
#415=CARTESIAN_POINT('',(7.67573952189893,0.,0.));
#416=CARTESIAN_POINT('',(7.67573952189893,0.,18.5));
#417=CARTESIAN_POINT('',(0.,0.,0.));
#418=CARTESIAN_POINT('',(7.33451146163622,0.,0.));
#419=CARTESIAN_POINT('',(7.33451146163622,0.,18.5600194624911));
#420=CARTESIAN_POINT('',(7.67573952189893,0.,0.));
#421=CARTESIAN_POINT('',(3.,0.,0.));
#422=CARTESIAN_POINT('',(3.,0.,11.2844554830392));
#423=CARTESIAN_POINT('',(4.71941041443901,10.7942014405314,0.));
#424=CARTESIAN_POINT('',(5.28058958556099,10.7942014405314,0.));
#425=CARTESIAN_POINT('',(5.55835716940066,10.8211813600647,0.));
#426=CARTESIAN_POINT('',(6.10820399435338,10.9289794144691,0.));
#427=CARTESIAN_POINT('',(6.37528561210609,11.0090380788526,0.));
#428=CARTESIAN_POINT('',(6.88785039070621,11.2180217404093,0.));
#429=CARTESIAN_POINT('',(7.13657729787153,11.348649840487,0.));
#430=CARTESIAN_POINT('',(7.60256528244466,11.6555526063613,0.));
#431=CARTESIAN_POINT('',(7.81773881844884,11.8297717246837,0.));
#432=CARTESIAN_POINT('',(8.21276420910982,12.2193734040574,0.));
#433=CARTESIAN_POINT('',(8.39359873860514,12.4370038886477,0.));
#434=CARTESIAN_POINT('',(8.70395582712207,12.8967426763979,0.));
#435=CARTESIAN_POINT('',(8.83556169330942,13.1402980598254,0.));
#436=CARTESIAN_POINT('',(9.05059855375844,13.6553785292263,0.));
#437=CARTESIAN_POINT('',(9.13222778649818,13.9240707083917,0.));
#438=CARTESIAN_POINT('',(9.24004134026367,14.4668134872887,0.));
#439=CARTESIAN_POINT('',(9.26726672923687,14.745000702325,0.));
#440=CARTESIAN_POINT('',(9.26562143972817,15.3044173204798,0.));
#441=CARTESIAN_POINT('',(9.23712821824875,15.5799055132714,0.));
#442=CARTESIAN_POINT('',(9.12658354285996,16.1227135845054,0.));
#443=CARTESIAN_POINT('',(9.0430632735838,16.3928163274104,0.));
#444=CARTESIAN_POINT('',(8.82718349666099,16.9047456574593,0.));
#445=CARTESIAN_POINT('',(8.69522819833252,17.1478716446574,0.));
#446=CARTESIAN_POINT('',(8.38329436473388,17.6084503171741,0.));
#447=CARTESIAN_POINT('',(8.20268324038658,17.8254044919717,0.));
#448=CARTESIAN_POINT('',(7.80865293564186,18.2143294311997,0.));
#449=CARTESIAN_POINT('',(7.59358808856446,18.3890522511409,0.));
#450=CARTESIAN_POINT('',(7.12618154430431,18.6977308878134,0.));
#451=CARTESIAN_POINT('',(6.87966946631688,18.8275865431674,0.));
#452=CARTESIAN_POINT('',(6.36761343383889,19.0372352608214,0.));
#453=CARTESIAN_POINT('',(6.0985601088945,19.1180636836039,0.));
#454=CARTESIAN_POINT('',(5.55107427908212,19.2254056039895,0.));
#455=CARTESIAN_POINT('',(5.27556787199233,19.2519321474409,0.));
#456=CARTESIAN_POINT('',(4.72109433491833,19.2517163254441,0.));
#457=CARTESIAN_POINT('',(4.43958992573168,19.2240911898885,0.));
#458=CARTESIAN_POINT('',(3.8952064264396,19.1163105674407,0.));
#459=CARTESIAN_POINT('',(3.63019872335622,19.0366326891794,0.));
#460=CARTESIAN_POINT('',(3.11474621349422,18.8250025408579,0.));
#461=CARTESIAN_POINT('',(2.86601273411455,18.693022033415,0.));
#462=CARTESIAN_POINT('',(2.404533224671,18.3873559961475,0.));
#463=CARTESIAN_POINT('',(2.1886668286075,18.2123143245265,0.));
#464=CARTESIAN_POINT('',(1.79018449387252,17.8177185314698,0.));
#465=CARTESIAN_POINT('',(1.61342725834246,17.6040931421005,0.));
#466=CARTESIAN_POINT('',(1.303357899163,17.1452931771101,0.));
#467=CARTESIAN_POINT('',(1.16897591893054,16.8971297593303,0.));
#468=CARTESIAN_POINT('',(0.953839704887562,16.3839318823904,0.));
#469=CARTESIAN_POINT('',(0.872458629061855,16.1194380812371,0.));
#470=CARTESIAN_POINT('',(0.762097370596701,15.5746526646192,0.));
#471=CARTESIAN_POINT('',(0.733810445761948,15.2934437069053,0.));
#472=CARTESIAN_POINT('',(0.733269085600272,14.7394879450238,0.));
#473=CARTESIAN_POINT('',(0.760144435549146,14.4636906913369,0.));
#474=CARTESIAN_POINT('',(0.870109919214698,13.9145410610122,0.));
#475=CARTESIAN_POINT('',(0.952084987388933,13.6480335760191,0.));
#476=CARTESIAN_POINT('',(1.16592421070688,13.1376739736431,0.));
#477=CARTESIAN_POINT('',(1.29970837451746,12.8902783928093,0.));
#478=CARTESIAN_POINT('',(1.6126905420296,12.4287574061492,0.));
#479=CARTESIAN_POINT('',(1.78995769167709,12.2163310356789,0.));
#480=CARTESIAN_POINT('',(2.18511146253436,11.827323501719,0.));
#481=CARTESIAN_POINT('',(2.40536851096774,11.6496983381207,0.));
#482=CARTESIAN_POINT('',(2.86917856584676,11.3455068664503,0.));
#483=CARTESIAN_POINT('',(3.11412783380349,11.216933317804,0.));
#484=CARTESIAN_POINT('',(3.6302467331527,11.0070684134519,0.));
#485=CARTESIAN_POINT('',(3.90016935639026,10.9270044934071,0.));
#486=CARTESIAN_POINT('',(4.4433967722836,10.8211770878851,0.));
#487=CARTESIAN_POINT('',(4.71941041443901,10.7942014405314,0.));
#488=CARTESIAN_POINT('',(5.28058958556099,10.7942014405314,0.));
#489=CARTESIAN_POINT('',(0.,0.,0.));
#490=CARTESIAN_POINT('',(6.02366073370527,0.,0.));
#491=CARTESIAN_POINT('',(3.,0.,0.));
#492=(
GEOMETRIC_REPRESENTATION_CONTEXT(3)
GLOBAL_UNCERTAINTY_ASSIGNED_CONTEXT((#493))
GLOBAL_UNIT_ASSIGNED_CONTEXT((#499,#495,#494))
REPRESENTATION_CONTEXT('model1','TOP_LEVEL_ASSEMBLY_PART')
);
#493=UNCERTAINTY_MEASURE_WITH_UNIT(LENGTH_MEASURE(2.E-5),#499,
'DISTANCE_ACCURACY_VALUE','Maximum Tolerance applied to model');
#494=(
NAMED_UNIT(*)
SI_UNIT($,.STERADIAN.)
SOLID_ANGLE_UNIT()
);
#495=(
CONVERSION_BASED_UNIT('DEGREE',#497)
NAMED_UNIT(#496)
PLANE_ANGLE_UNIT()
);
#496=DIMENSIONAL_EXPONENTS(0.,0.,0.,0.,0.,0.,0.);
#497=PLANE_ANGLE_MEASURE_WITH_UNIT(PLANE_ANGLE_MEASURE(0.0174532925),#498);
#498=(
NAMED_UNIT(*)
PLANE_ANGLE_UNIT()
SI_UNIT($,.RADIAN.)
);
#499=(
LENGTH_UNIT()
NAMED_UNIT(*)
SI_UNIT(.MILLI.,.METRE.)
);
ENDSEC;
END-ISO-10303-21;
