ISO-10303-21;
HEADER;
/* Generated by software containing ST-Developer
 * from STEP Tools, Inc. (www.steptools.com) 
 */
/* OPTION: using custom schema-name function */

FILE_DESCRIPTION(
/* description */ (''),
/* implementation_level */ '2;1');

FILE_NAME(
/* name */ 'model1.stp',
/* time_stamp */ '2023-11-03T14:54:39+03:00',
/* author */ (''),
/* organization */ (''),
/* preprocessor_version */ 'ST-DEVELOPER v19.4',
/* originating_system */ 'SIEMENS PLM Software NX2306.3001',
/* authorisation */ '');

FILE_SCHEMA (('AUTOMOTIVE_DESIGN { 1 0 10303 214 3 1 1 1 }'));
ENDSEC;

DATA;
#10=PROPERTY_DEFINITION_REPRESENTATION(#14,#12);
#11=PROPERTY_DEFINITION_REPRESENTATION(#15,#13);
#12=REPRESENTATION('',(#16),#496);
#13=REPRESENTATION('',(#17),#496);
#14=PROPERTY_DEFINITION('pmi validation property','',#21);
#15=PROPERTY_DEFINITION('pmi validation property','',#21);
#16=VALUE_REPRESENTATION_ITEM('number of annotations',COUNT_MEASURE(0.));
#17=VALUE_REPRESENTATION_ITEM('number of views',COUNT_MEASURE(0.));
#18=SHAPE_REPRESENTATION_RELATIONSHIP('None',
'relationship between model1_objects-None and model1_objects-None',#30,
#19);
#19=ADVANCED_BREP_SHAPE_REPRESENTATION('model1_objects-None',(#141,#142),
#496);
#20=SHAPE_DEFINITION_REPRESENTATION(#21,#30);
#21=PRODUCT_DEFINITION_SHAPE('','',#22);
#22=PRODUCT_DEFINITION(' ','',#24,#23);
#23=PRODUCT_DEFINITION_CONTEXT('part definition',#29,'design');
#24=PRODUCT_DEFINITION_FORMATION_WITH_SPECIFIED_SOURCE(' ',' ',#26,
 .NOT_KNOWN.);
#25=PRODUCT_RELATED_PRODUCT_CATEGORY('part','',(#26));
#26=PRODUCT('model1_objects','model1_objects',' ',(#27));
#27=PRODUCT_CONTEXT(' ',#29,'mechanical');
#28=APPLICATION_PROTOCOL_DEFINITION('international standard',
'automotive_design',2010,#29);
#29=APPLICATION_CONTEXT(
'core data for automotive mechanical design processes');
#30=SHAPE_REPRESENTATION('model1_objects-None',(#269),#496);
#31=OVER_RIDING_STYLED_ITEM('',(#64),#147,#61);
#32=OVER_RIDING_STYLED_ITEM('',(#65),#148,#61);
#33=OVER_RIDING_STYLED_ITEM('',(#66),#149,#61);
#34=OVER_RIDING_STYLED_ITEM('',(#67),#150,#61);
#35=OVER_RIDING_STYLED_ITEM('',(#68),#151,#61);
#36=OVER_RIDING_STYLED_ITEM('',(#69),#152,#61);
#37=OVER_RIDING_STYLED_ITEM('',(#70),#153,#61);
#38=OVER_RIDING_STYLED_ITEM('',(#71),#154,#61);
#39=OVER_RIDING_STYLED_ITEM('',(#72),#155,#61);
#40=OVER_RIDING_STYLED_ITEM('',(#73),#156,#61);
#41=OVER_RIDING_STYLED_ITEM('',(#74),#157,#61);
#42=COLOUR_RGB('Medium Steel',0.611764705882353,0.658823529411765,0.670588235294118);
#43=COLOUR_RGB('silver gray',0.6,0.6,0.6);
#44=CONICAL_SURFACE('',#291,9.15951259207154,85.0000000000007);
#45=VERTEX_LOOP('',#244);
#46=SURFACE_OF_REVOLUTION('',#48,#47);
#47=AXIS1_PLACEMENT('',#490,#332);
#48=B_SPLINE_CURVE_WITH_KNOTS('',3,(#447,#448,#449,#450,#451,#452,#453,
#454,#455,#456,#457,#458,#459,#460,#461,#462,#463,#464,#465,#466,#467,#468,
#469,#470,#471,#472,#473,#474,#475,#476,#477,#478,#479,#480,#481,#482,#483,
#484,#485,#486,#487,#488,#489),.UNSPECIFIED.,.F.,.F.,(4,2,2,2,2,2,2,2,2,
2,2,2,3,2,2,2,2,2,2,2,4),(0.,0.0125408981125714,0.0692096510988647,0.12587840408516,
0.182547157071455,0.239215910057748,0.295884663044043,0.352553416030338,
0.409222169016633,0.465890922002928,0.52255967498922,0.579228427975515,
0.63589718096181,0.692565933948105,0.749234686934404,0.805903439920699,
0.862572192906994,0.890906569400141,0.919240945893289,0.975909698879584,
1.),.UNSPECIFIED.);
#49=PLANE('',#277);
#50=FACE_OUTER_BOUND('',#192,.T.);
#51=TOROIDAL_SURFACE('',#276,16.5,1.5);
#52=TOROIDAL_SURFACE('',#279,13.,5.);
#53=TOROIDAL_SURFACE('',#281,57.,40.);
#54=TOROIDAL_SURFACE('',#283,13.5,5.);
#55=TOROIDAL_SURFACE('',#287,19.5000000000439,1.00000000002193);
#56=TOROIDAL_SURFACE('',#290,9.07235684932389,1.);
#57=CYLINDRICAL_SURFACE('',#274,18.);
#58=CYLINDRICAL_SURFACE('',#285,18.5000000000109);
#59=PRESENTATION_LAYER_ASSIGNMENT('1','Layer 1',(#141,#142));
#60=STYLED_ITEM('',(#62),#141);
#61=STYLED_ITEM('',(#63),#142);
#62=PRESENTATION_STYLE_ASSIGNMENT((#75));
#63=PRESENTATION_STYLE_ASSIGNMENT((#76));
#64=PRESENTATION_STYLE_ASSIGNMENT((#77));
#65=PRESENTATION_STYLE_ASSIGNMENT((#78));
#66=PRESENTATION_STYLE_ASSIGNMENT((#79));
#67=PRESENTATION_STYLE_ASSIGNMENT((#80));
#68=PRESENTATION_STYLE_ASSIGNMENT((#81));
#69=PRESENTATION_STYLE_ASSIGNMENT((#82));
#70=PRESENTATION_STYLE_ASSIGNMENT((#83));
#71=PRESENTATION_STYLE_ASSIGNMENT((#84));
#72=PRESENTATION_STYLE_ASSIGNMENT((#85));
#73=PRESENTATION_STYLE_ASSIGNMENT((#86));
#74=PRESENTATION_STYLE_ASSIGNMENT((#87));
#75=SURFACE_STYLE_USAGE(.BOTH.,#88);
#76=SURFACE_STYLE_USAGE(.BOTH.,#89);
#77=SURFACE_STYLE_USAGE(.BOTH.,#90);
#78=SURFACE_STYLE_USAGE(.BOTH.,#91);
#79=SURFACE_STYLE_USAGE(.BOTH.,#92);
#80=SURFACE_STYLE_USAGE(.BOTH.,#93);
#81=SURFACE_STYLE_USAGE(.BOTH.,#94);
#82=SURFACE_STYLE_USAGE(.BOTH.,#95);
#83=SURFACE_STYLE_USAGE(.BOTH.,#96);
#84=SURFACE_STYLE_USAGE(.BOTH.,#97);
#85=SURFACE_STYLE_USAGE(.BOTH.,#98);
#86=SURFACE_STYLE_USAGE(.BOTH.,#99);
#87=SURFACE_STYLE_USAGE(.BOTH.,#100);
#88=SURFACE_SIDE_STYLE('',(#101));
#89=SURFACE_SIDE_STYLE('',(#102));
#90=SURFACE_SIDE_STYLE('',(#103));
#91=SURFACE_SIDE_STYLE('',(#104));
#92=SURFACE_SIDE_STYLE('',(#105));
#93=SURFACE_SIDE_STYLE('',(#106));
#94=SURFACE_SIDE_STYLE('',(#107));
#95=SURFACE_SIDE_STYLE('',(#108));
#96=SURFACE_SIDE_STYLE('',(#109));
#97=SURFACE_SIDE_STYLE('',(#110));
#98=SURFACE_SIDE_STYLE('',(#111));
#99=SURFACE_SIDE_STYLE('',(#112));
#100=SURFACE_SIDE_STYLE('',(#113));
#101=SURFACE_STYLE_FILL_AREA(#114);
#102=SURFACE_STYLE_FILL_AREA(#115);
#103=SURFACE_STYLE_FILL_AREA(#116);
#104=SURFACE_STYLE_FILL_AREA(#117);
#105=SURFACE_STYLE_FILL_AREA(#118);
#106=SURFACE_STYLE_FILL_AREA(#119);
#107=SURFACE_STYLE_FILL_AREA(#120);
#108=SURFACE_STYLE_FILL_AREA(#121);
#109=SURFACE_STYLE_FILL_AREA(#122);
#110=SURFACE_STYLE_FILL_AREA(#123);
#111=SURFACE_STYLE_FILL_AREA(#124);
#112=SURFACE_STYLE_FILL_AREA(#125);
#113=SURFACE_STYLE_FILL_AREA(#126);
#114=FILL_AREA_STYLE('',(#127));
#115=FILL_AREA_STYLE('',(#128));
#116=FILL_AREA_STYLE('',(#129));
#117=FILL_AREA_STYLE('',(#130));
#118=FILL_AREA_STYLE('',(#131));
#119=FILL_AREA_STYLE('',(#132));
#120=FILL_AREA_STYLE('',(#133));
#121=FILL_AREA_STYLE('',(#134));
#122=FILL_AREA_STYLE('',(#135));
#123=FILL_AREA_STYLE('',(#136));
#124=FILL_AREA_STYLE('',(#137));
#125=FILL_AREA_STYLE('',(#138));
#126=FILL_AREA_STYLE('',(#139));
#127=FILL_AREA_STYLE_COLOUR('',#140);
#128=FILL_AREA_STYLE_COLOUR('',#42);
#129=FILL_AREA_STYLE_COLOUR('',#43);
#130=FILL_AREA_STYLE_COLOUR('',#43);
#131=FILL_AREA_STYLE_COLOUR('',#43);
#132=FILL_AREA_STYLE_COLOUR('',#43);
#133=FILL_AREA_STYLE_COLOUR('',#43);
#134=FILL_AREA_STYLE_COLOUR('',#43);
#135=FILL_AREA_STYLE_COLOUR('',#43);
#136=FILL_AREA_STYLE_COLOUR('',#43);
#137=FILL_AREA_STYLE_COLOUR('',#43);
#138=FILL_AREA_STYLE_COLOUR('',#43);
#139=FILL_AREA_STYLE_COLOUR('',#43);
#140=DRAUGHTING_PRE_DEFINED_COLOUR('yellow');
#141=MANIFOLD_SOLID_BREP('',#143);
#142=MANIFOLD_SOLID_BREP('',#144);
#143=CLOSED_SHELL('',(#145,#146));
#144=CLOSED_SHELL('',(#147,#148,#149,#150,#151,#152,#153,#154,#155,#156,
#157));
#145=ADVANCED_FACE('',(#160,#161),#158,.F.);
#146=ADVANCED_FACE('',(#162,#163),#159,.F.);
#147=ADVANCED_FACE('',(#164,#165),#57,.T.);
#148=ADVANCED_FACE('',(#166,#167),#51,.T.);
#149=ADVANCED_FACE('',(#50),#49,.F.);
#150=ADVANCED_FACE('',(#168,#169),#52,.T.);
#151=ADVANCED_FACE('',(#170,#171),#53,.F.);
#152=ADVANCED_FACE('',(#172,#173),#54,.T.);
#153=ADVANCED_FACE('',(#174,#175),#58,.T.);
#154=ADVANCED_FACE('',(#176,#177),#55,.F.);
#155=ADVANCED_FACE('',(#178,#179),#46,.T.);
#156=ADVANCED_FACE('',(#180,#181),#56,.F.);
#157=ADVANCED_FACE('',(#182,#183),#44,.F.);
#158=(
BOUNDED_SURFACE()
B_SPLINE_SURFACE(3,3,((#344,#345,#346,#347,#348,#349,#350),(#351,#352,#353,
#354,#355,#356,#357),(#358,#359,#360,#361,#362,#363,#364),(#365,#366,#367,
#368,#369,#370,#371),(#372,#373,#374,#375,#376,#377,#378),(#379,#380,#381,
#382,#383,#384,#385),(#386,#387,#388,#389,#390,#391,#392)),
 .UNSPECIFIED.,.T.,.F.,.F.)
B_SPLINE_SURFACE_WITH_KNOTS((1,3,3,3,1),(4,3,4),(-0.5,0.,0.5,1.,1.5),(0.,
0.5,1.),.UNSPECIFIED.)
GEOMETRIC_REPRESENTATION_ITEM()
RATIONAL_B_SPLINE_SURFACE(((1.,0.593392605523712,0.593392605523712,1.,0.593392605523712,
0.593392605523712,1.),(0.333333333333334,0.19779753517457,0.19779753517457,
0.333333333333334,0.19779753517457,0.19779753517457,0.333333333333334),
(0.333333333333334,0.19779753517457,0.19779753517457,0.333333333333334,
0.19779753517457,0.19779753517457,0.333333333333334),(1.,0.593392605523712,
0.593392605523712,1.,0.593392605523712,0.593392605523712,1.),(0.333333333333334,
0.19779753517457,0.19779753517457,0.333333333333334,0.19779753517457,0.19779753517457,
0.333333333333334),(0.333333333333334,0.19779753517457,0.19779753517457,
0.333333333333334,0.19779753517457,0.19779753517457,0.333333333333334),
(1.,0.593392605523712,0.593392605523712,1.,0.593392605523712,0.593392605523712,
1.)))
REPRESENTATION_ITEM('')
SURFACE()
);
#159=(
BOUNDED_SURFACE()
B_SPLINE_SURFACE(3,3,((#393,#394,#395,#396),(#397,#398,#399,#400),(#401,
#402,#403,#404),(#405,#406,#407,#408),(#409,#410,#411,#412),(#413,#414,
#415,#416),(#417,#418,#419,#420)),.UNSPECIFIED.,.T.,.F.,.F.)
B_SPLINE_SURFACE_WITH_KNOTS((1,3,3,3,1),(4,4),(-0.5,0.,0.5,1.,1.5),(0.,
1.),.UNSPECIFIED.)
GEOMETRIC_REPRESENTATION_ITEM()
RATIONAL_B_SPLINE_SURFACE(((1.,0.797107524843432,0.797107524843432,1.),
(0.333333333333334,0.265702508281144,0.265702508281144,0.333333333333334),
(0.333333333333334,0.265702508281144,0.265702508281144,0.333333333333334),
(1.,0.797107524843432,0.797107524843432,1.),(0.333333333333334,0.265702508281144,
0.265702508281144,0.333333333333334),(0.333333333333334,0.265702508281144,
0.265702508281144,0.333333333333334),(1.,0.797107524843432,0.797107524843432,
1.)))
REPRESENTATION_ITEM('')
SURFACE()
);
#160=FACE_BOUND('',#184,.T.);
#161=FACE_BOUND('',#185,.T.);
#162=FACE_BOUND('',#186,.T.);
#163=FACE_BOUND('',#187,.T.);
#164=FACE_BOUND('',#188,.T.);
#165=FACE_BOUND('',#189,.T.);
#166=FACE_BOUND('',#190,.T.);
#167=FACE_BOUND('',#191,.T.);
#168=FACE_BOUND('',#193,.T.);
#169=FACE_BOUND('',#194,.T.);
#170=FACE_BOUND('',#195,.T.);
#171=FACE_BOUND('',#196,.T.);
#172=FACE_BOUND('',#197,.T.);
#173=FACE_BOUND('',#198,.T.);
#174=FACE_BOUND('',#199,.T.);
#175=FACE_BOUND('',#200,.T.);
#176=FACE_BOUND('',#201,.T.);
#177=FACE_BOUND('',#202,.T.);
#178=FACE_BOUND('',#203,.T.);
#179=FACE_BOUND('',#204,.T.);
#180=FACE_BOUND('',#205,.T.);
#181=FACE_BOUND('',#206,.T.);
#182=FACE_BOUND('',#207,.T.);
#183=FACE_BOUND('',#45,.T.);
#184=EDGE_LOOP('',(#208));
#185=EDGE_LOOP('',(#209));
#186=EDGE_LOOP('',(#210));
#187=EDGE_LOOP('',(#211));
#188=EDGE_LOOP('',(#212));
#189=EDGE_LOOP('',(#213));
#190=EDGE_LOOP('',(#214));
#191=EDGE_LOOP('',(#215));
#192=EDGE_LOOP('',(#216));
#193=EDGE_LOOP('',(#217));
#194=EDGE_LOOP('',(#218));
#195=EDGE_LOOP('',(#219));
#196=EDGE_LOOP('',(#220));
#197=EDGE_LOOP('',(#221));
#198=EDGE_LOOP('',(#222));
#199=EDGE_LOOP('',(#223));
#200=EDGE_LOOP('',(#224));
#201=EDGE_LOOP('',(#225));
#202=EDGE_LOOP('',(#226));
#203=EDGE_LOOP('',(#227));
#204=EDGE_LOOP('',(#228));
#205=EDGE_LOOP('',(#229));
#206=EDGE_LOOP('',(#230));
#207=EDGE_LOOP('',(#231));
#208=ORIENTED_EDGE('',*,*,#245,.T.);
#209=ORIENTED_EDGE('',*,*,#246,.F.);
#210=ORIENTED_EDGE('',*,*,#246,.T.);
#211=ORIENTED_EDGE('',*,*,#245,.F.);
#212=ORIENTED_EDGE('',*,*,#247,.T.);
#213=ORIENTED_EDGE('',*,*,#248,.F.);
#214=ORIENTED_EDGE('',*,*,#247,.F.);
#215=ORIENTED_EDGE('',*,*,#249,.T.);
#216=ORIENTED_EDGE('',*,*,#249,.F.);
#217=ORIENTED_EDGE('',*,*,#250,.F.);
#218=ORIENTED_EDGE('',*,*,#248,.T.);
#219=ORIENTED_EDGE('',*,*,#251,.F.);
#220=ORIENTED_EDGE('',*,*,#250,.T.);
#221=ORIENTED_EDGE('',*,*,#252,.F.);
#222=ORIENTED_EDGE('',*,*,#251,.T.);
#223=ORIENTED_EDGE('',*,*,#253,.F.);
#224=ORIENTED_EDGE('',*,*,#252,.T.);
#225=ORIENTED_EDGE('',*,*,#254,.F.);
#226=ORIENTED_EDGE('',*,*,#253,.T.);
#227=ORIENTED_EDGE('',*,*,#255,.F.);
#228=ORIENTED_EDGE('',*,*,#254,.T.);
#229=ORIENTED_EDGE('',*,*,#256,.F.);
#230=ORIENTED_EDGE('',*,*,#255,.T.);
#231=ORIENTED_EDGE('',*,*,#256,.T.);
#232=VERTEX_POINT('',#341);
#233=VERTEX_POINT('',#343);
#234=VERTEX_POINT('',#422);
#235=VERTEX_POINT('',#424);
#236=VERTEX_POINT('',#427);
#237=VERTEX_POINT('',#431);
#238=VERTEX_POINT('',#434);
#239=VERTEX_POINT('',#437);
#240=VERTEX_POINT('',#440);
#241=VERTEX_POINT('',#443);
#242=VERTEX_POINT('',#446);
#243=VERTEX_POINT('',#492);
#244=VERTEX_POINT('',#494);
#245=EDGE_CURVE('',#232,#232,#257,.T.);
#246=EDGE_CURVE('',#233,#233,#258,.T.);
#247=EDGE_CURVE('',#234,#234,#259,.T.);
#248=EDGE_CURVE('',#235,#235,#260,.T.);
#249=EDGE_CURVE('',#236,#236,#261,.T.);
#250=EDGE_CURVE('',#237,#237,#262,.T.);
#251=EDGE_CURVE('',#238,#238,#263,.T.);
#252=EDGE_CURVE('',#239,#239,#264,.T.);
#253=EDGE_CURVE('',#240,#240,#265,.T.);
#254=EDGE_CURVE('',#241,#241,#266,.T.);
#255=EDGE_CURVE('',#242,#242,#267,.T.);
#256=EDGE_CURVE('',#243,#243,#268,.T.);
#257=CIRCLE('',#270,6.);
#258=CIRCLE('',#271,6.);
#259=CIRCLE('',#272,18.);
#260=CIRCLE('',#273,18.);
#261=CIRCLE('',#275,16.5);
#262=CIRCLE('',#278,17.8888888888889);
#263=CIRCLE('',#280,18.3333333333333);
#264=CIRCLE('',#282,18.5);
#265=CIRCLE('',#284,18.5000000000219);
#266=CIRCLE('',#286,18.6619714923154);
#267=CIRCLE('',#288,10.0430366109374);
#268=CIRCLE('',#289,9.15951259207154);
#269=AXIS2_PLACEMENT_3D('',#339,#292,#293);
#270=AXIS2_PLACEMENT_3D('',#340,#294,#295);
#271=AXIS2_PLACEMENT_3D('',#342,#296,#297);
#272=AXIS2_PLACEMENT_3D('',#421,#298,#299);
#273=AXIS2_PLACEMENT_3D('',#423,#300,#301);
#274=AXIS2_PLACEMENT_3D('',#425,#302,#303);
#275=AXIS2_PLACEMENT_3D('',#426,#304,#305);
#276=AXIS2_PLACEMENT_3D('',#428,#306,#307);
#277=AXIS2_PLACEMENT_3D('',#429,#308,#309);
#278=AXIS2_PLACEMENT_3D('',#430,#310,#311);
#279=AXIS2_PLACEMENT_3D('',#432,#312,#313);
#280=AXIS2_PLACEMENT_3D('',#433,#314,#315);
#281=AXIS2_PLACEMENT_3D('',#435,#316,#317);
#282=AXIS2_PLACEMENT_3D('',#436,#318,#319);
#283=AXIS2_PLACEMENT_3D('',#438,#320,#321);
#284=AXIS2_PLACEMENT_3D('',#439,#322,#323);
#285=AXIS2_PLACEMENT_3D('',#441,#324,#325);
#286=AXIS2_PLACEMENT_3D('',#442,#326,#327);
#287=AXIS2_PLACEMENT_3D('',#444,#328,#329);
#288=AXIS2_PLACEMENT_3D('',#445,#330,#331);
#289=AXIS2_PLACEMENT_3D('',#491,#333,#334);
#290=AXIS2_PLACEMENT_3D('',#493,#335,#336);
#291=AXIS2_PLACEMENT_3D('',#495,#337,#338);
#292=DIRECTION('',(0.,0.,1.));
#293=DIRECTION('',(1.,0.,0.));
#294=DIRECTION('',(0.052335956242944,0.998563306149708,0.011500925854071));
#295=DIRECTION('',(0.998626927645156,-0.0523586647650769,0.00168214327980378));
#296=DIRECTION('',(0.052335956242944,-0.0435596085109251,0.997679060715675));
#297=DIRECTION('',(0.998626927645156,0.,-0.0523856791689818));
#298=DIRECTION('',(-1.,0.,0.));
#299=DIRECTION('',(0.,0.,1.));
#300=DIRECTION('',(-1.,0.,0.));
#301=DIRECTION('',(0.,0.,1.));
#302=DIRECTION('',(-1.,0.,0.));
#303=DIRECTION('',(0.,0.,1.));
#304=DIRECTION('',(-1.,0.,0.));
#305=DIRECTION('',(0.,0.,1.));
#306=DIRECTION('',(-1.,0.,0.));
#307=DIRECTION('',(0.,0.,1.));
#308=DIRECTION('',(-1.,0.,0.));
#309=DIRECTION('',(0.,0.,1.));
#310=DIRECTION('',(-1.,0.,0.));
#311=DIRECTION('',(0.,0.,1.));
#312=DIRECTION('',(-1.,0.,0.));
#313=DIRECTION('',(0.,0.,1.));
#314=DIRECTION('',(-1.,0.,0.));
#315=DIRECTION('',(0.,0.,1.));
#316=DIRECTION('',(-1.,0.,0.));
#317=DIRECTION('',(0.,0.,1.));
#318=DIRECTION('',(-1.,0.,0.));
#319=DIRECTION('',(0.,0.,1.));
#320=DIRECTION('',(-1.,0.,0.));
#321=DIRECTION('',(0.,0.,1.));
#322=DIRECTION('',(-1.,0.,0.));
#323=DIRECTION('',(0.,0.,1.));
#324=DIRECTION('',(-1.,0.,0.));
#325=DIRECTION('',(0.,0.,1.));
#326=DIRECTION('',(-1.,0.,0.));
#327=DIRECTION('',(0.,0.,1.));
#328=DIRECTION('',(-1.,0.,0.));
#329=DIRECTION('',(0.,0.,1.));
#330=DIRECTION('',(-1.,0.,0.));
#331=DIRECTION('',(0.,0.,1.));
#332=DIRECTION('',(-1.,0.,0.));
#333=DIRECTION('',(-1.,0.,0.));
#334=DIRECTION('',(0.,0.,1.));
#335=DIRECTION('',(-1.,0.,0.));
#336=DIRECTION('',(0.,0.,1.));
#337=DIRECTION('',(-1.,0.,0.));
#338=DIRECTION('',(-9.85706251082238E-19,0.,1.));
#339=CARTESIAN_POINT('',(0.,0.,0.));
#340=CARTESIAN_POINT('',(5.99177720852745,0.397680899900218,13.9976925877638));
#341=CARTESIAN_POINT('',(11.9835387743984,0.0835289113097566,14.0077854474426));
#342=CARTESIAN_POINT('',(5.99177720852745,-14.0032440464179,-0.0520005398637778));
#343=CARTESIAN_POINT('',(11.9835387743984,-14.0032440464179,-0.366314614877669));
#344=CARTESIAN_POINT('',(11.9835387743984,-14.0032440464179,-0.366314614877668));
#345=CARTESIAN_POINT('',(11.9835387743984,-13.62429971783,-14.8523593908805));
#346=CARTESIAN_POINT('',(11.9835387743984,-0.138058056600946,-20.1542814868242));
#347=CARTESIAN_POINT('',(11.9835387743984,10.0046641878195,-9.80467871526507));
#348=CARTESIAN_POINT('',(11.9835387743984,20.14738643224,0.544924056294057));
#349=CARTESIAN_POINT('',(11.9835387743984,14.5742716657504,13.9213766449314));
#350=CARTESIAN_POINT('',(11.9835387743984,0.0835289113097597,14.0077854474426));
#351=CARTESIAN_POINT('',(12.0109215705125,-2.01463408892414,0.155682961322623));
#352=CARTESIAN_POINT('',(12.0109215705126,-2.17568465271526,-1.92841123304244));
#353=CARTESIAN_POINT('',(12.0109215705126,-0.319522284014127,-2.88968494853736));
#354=CARTESIAN_POINT('',(12.0109215705125,1.28966498379175,-1.55555518265435));
#355=CARTESIAN_POINT('',(12.0109215705126,2.89885225159762,-0.221425416771335));
#356=CARTESIAN_POINT('',(12.0109215705126,2.29814209194735,1.78070674649276));
#357=CARTESIAN_POINT('',(12.0109215705125,0.220294083393431,2.00859608023197));
#358=CARTESIAN_POINT('',(0.0273984387706622,-2.01463408892414,0.784311111350404));
#359=CARTESIAN_POINT('',(0.0273984387706622,-2.8259865040986,-1.29978308301466));
#360=CARTESIAN_POINT('',(0.0273984387706622,-1.22349967465967,-2.85983991341232));
#361=CARTESIAN_POINT('',(0.0273984387706622,0.838077416190442,-1.99286745071378));
#362=CARTESIAN_POINT('',(0.0273984387706622,2.89965450704056,-1.12589498801525));
#363=CARTESIAN_POINT('',(0.0273984387706622,2.90556439103416,1.11055452535785));
#364=CARTESIAN_POINT('',(0.0273984387706622,0.848598060574354,1.98841036087432));
#365=CARTESIAN_POINT('',(1.56426565034451E-5,-14.0032440464179,0.262313535150113));
#366=CARTESIAN_POINT('',(1.56426565034451E-5,-14.2746015692133,-14.2237312408527));
#367=CARTESIAN_POINT('',(1.56426565034451E-5,-1.04203544724649,-20.1244364516991));
#368=CARTESIAN_POINT('',(1.56426565034451E-5,9.55307662021823,-10.2419909833245));
#369=CARTESIAN_POINT('',(1.56426565034451E-5,20.1481886876829,-0.359545514949858));
#370=CARTESIAN_POINT('',(1.56426565034451E-5,15.1816939648373,13.2512244237965));
#371=CARTESIAN_POINT('',(1.56426565034451E-5,0.711832888490683,13.987599728085));
#372=CARTESIAN_POINT('',(-0.0273671534576553,-25.9918540039116,-0.259684041050178));
#373=CARTESIAN_POINT('',(-0.0273671534576553,-25.7232166343281,-27.1476793986907));
#374=CARTESIAN_POINT('',(-0.0273671534576553,-0.860571219833314,-37.389032989986));
#375=CARTESIAN_POINT('',(-0.0273671534576553,18.268075824246,-18.4911145159352));
#376=CARTESIAN_POINT('',(-0.0273671534576553,37.3967228683254,0.406803958115536));
#377=CARTESIAN_POINT('',(-0.0273671534576553,27.4578235386404,25.3918943222351));
#378=CARTESIAN_POINT('',(-0.0273671534576553,0.575067716407011,25.9867890952957));
#379=CARTESIAN_POINT('',(11.9561559782842,-25.9918540039116,-0.88831219107796));
#380=CARTESIAN_POINT('',(11.9561559782842,-25.0729147829448,-27.7763075487185));
#381=CARTESIAN_POINT('',(11.9561559782842,0.0434061708122387,-37.4188780251111));
#382=CARTESIAN_POINT('',(11.9561559782842,18.7196633918473,-18.0538022478758));
#383=CARTESIAN_POINT('',(11.9561559782842,37.3959206128825,1.31127352935946));
#384=CARTESIAN_POINT('',(11.9561559782842,26.8504012395536,26.06204654337));
#385=CARTESIAN_POINT('',(11.9561559782842,-0.0532362607739145,26.0069748146533));
#386=CARTESIAN_POINT('',(11.9835387743984,-14.0032440464179,-0.366314614877668));
#387=CARTESIAN_POINT('',(11.9835387743984,-13.62429971783,-14.8523593908805));
#388=CARTESIAN_POINT('',(11.9835387743984,-0.138058056600946,-20.1542814868242));
#389=CARTESIAN_POINT('',(11.9835387743984,10.0046641878195,-9.80467871526507));
#390=CARTESIAN_POINT('',(11.9835387743984,20.14738643224,0.544924056294057));
#391=CARTESIAN_POINT('',(11.9835387743984,14.5742716657504,13.9213766449314));
#392=CARTESIAN_POINT('',(11.9835387743984,0.0835289113097597,14.0077854474426));
#393=CARTESIAN_POINT('',(11.9835387743984,0.0835289113097564,14.0077854474427));
#394=CARTESIAN_POINT('',(11.9835387743984,-8.33254353743687,14.0579707798626));
#395=CARTESIAN_POINT('',(11.9835387743984,-14.2233309651826,8.04702929692879));
#396=CARTESIAN_POINT('',(11.9835387743984,-14.0032440464179,-0.36631461487767));
#397=CARTESIAN_POINT('',(12.0109215705125,0.220294083393431,2.00859608023197));
#398=CARTESIAN_POINT('',(12.0109215705125,-0.986498396040704,2.14095183145514));
#399=CARTESIAN_POINT('',(12.0109215705125,-1.92109759905979,1.36610316041238));
#400=CARTESIAN_POINT('',(12.0109215705125,-2.01463408892414,0.155682961322623));
#401=CARTESIAN_POINT('',(0.0273984387706622,0.848598060574354,1.98841036087432));
#402=CARTESIAN_POINT('',(0.0273984387706622,-0.346066557737021,2.49825988594422));
#403=CARTESIAN_POINT('',(0.0273984387706622,-1.54340905765504,1.99473131044017));
#404=CARTESIAN_POINT('',(0.0273984387706622,-2.01463408892414,0.784311111350404));
#405=CARTESIAN_POINT('',(1.56426565034451E-5,0.71183288849068,13.987599728085));
#406=CARTESIAN_POINT('',(1.56426565034451E-5,-7.69211169913319,14.4152788343517));
#407=CARTESIAN_POINT('',(1.56426565034451E-5,-13.8456424237779,8.67565744695657));
#408=CARTESIAN_POINT('',(1.56426565034451E-5,-14.0032440464179,0.262313535150113));
#409=CARTESIAN_POINT('',(-0.0273671534576553,0.575067716407005,25.9867890952957));
#410=CARTESIAN_POINT('',(-0.0273671534576553,-15.0381568405294,26.3322977827592));
#411=CARTESIAN_POINT('',(-0.0273671534576553,-26.1478757899007,15.356583583473));
#412=CARTESIAN_POINT('',(-0.0273671534576553,-25.9918540039116,-0.25968404105018));
#413=CARTESIAN_POINT('',(11.9561559782842,-0.0532362607739179,26.0069748146533));
#414=CARTESIAN_POINT('',(11.9561559782842,-15.6785886788331,25.9749897282701));
#415=CARTESIAN_POINT('',(11.9561559782842,-26.5255643313054,14.7279554334452));
#416=CARTESIAN_POINT('',(11.9561559782842,-25.9918540039116,-0.888312191077963));
#417=CARTESIAN_POINT('',(11.9835387743984,0.0835289113097564,14.0077854474427));
#418=CARTESIAN_POINT('',(11.9835387743984,-8.33254353743687,14.0579707798626));
#419=CARTESIAN_POINT('',(11.9835387743984,-14.2233309651826,8.04702929692879));
#420=CARTESIAN_POINT('',(11.9835387743984,-14.0032440464179,-0.36631461487767));
#421=CARTESIAN_POINT('',(38.5,0.,0.));
#422=CARTESIAN_POINT('',(38.5,0.,18.));
#423=CARTESIAN_POINT('',(33.5457867147411,0.,0.));
#424=CARTESIAN_POINT('',(33.5457867147411,0.,18.));
#425=CARTESIAN_POINT('',(0.,0.,0.));
#426=CARTESIAN_POINT('',(40.,0.,0.));
#427=CARTESIAN_POINT('',(40.,0.,16.5));
#428=CARTESIAN_POINT('',(38.5,0.,0.));
#429=CARTESIAN_POINT('',(40.,9.,0.));
#430=CARTESIAN_POINT('',(32.497566588957,0.,0.));
#431=CARTESIAN_POINT('',(32.497566588957,0.,17.8888888888889));
#432=CARTESIAN_POINT('',(33.5457867147411,0.,0.));
#433=CARTESIAN_POINT('',(13.8702779188596,0.,0.));
#434=CARTESIAN_POINT('',(13.8702779188596,0.,18.3333333333333));
#435=CARTESIAN_POINT('',(24.1118055826845,0.,0.));
#436=CARTESIAN_POINT('',(12.5900869608815,0.,0.));
#437=CARTESIAN_POINT('',(12.5900869608815,0.,18.5));
#438=CARTESIAN_POINT('',(12.5900869608815,0.,0.));
#439=CARTESIAN_POINT('',(9.12140676535273,0.,0.));
#440=CARTESIAN_POINT('',(9.12140676535273,0.,18.5000000000219));
#441=CARTESIAN_POINT('',(0.,0.,0.));
#442=CARTESIAN_POINT('',(8.5757803178316,0.,0.));
#443=CARTESIAN_POINT('',(8.5757803178316,0.,18.6619714923154));
#444=CARTESIAN_POINT('',(9.12140676535273,0.,0.));
#445=CARTESIAN_POINT('',(4.32000000000012,0.,0.));
#446=CARTESIAN_POINT('',(4.32000000000012,0.,10.0430366109374));
#447=CARTESIAN_POINT('',(8.5757803178316,18.6619714923154,0.));
#448=CARTESIAN_POINT('',(8.51643170749309,18.7007210220681,0.));
#449=CARTESIAN_POINT('',(8.45622319496873,18.7382285128814,0.));
#450=CARTESIAN_POINT('',(8.11923807249645,18.938416478378,0.));
#451=CARTESIAN_POINT('',(7.82281687550524,19.0777861585777,0.));
#452=CARTESIAN_POINT('',(7.21791874958202,19.2945050247146,0.));
#453=CARTESIAN_POINT('',(6.90760744639656,19.3735720199888,0.));
#454=CARTESIAN_POINT('',(6.27130160941023,19.4732748199188,0.));
#455=CARTESIAN_POINT('',(5.94512766238155,19.4930658510694,0.));
#456=CARTESIAN_POINT('',(5.30428550626129,19.4720257212961,0.));
#457=CARTESIAN_POINT('',(4.98614179235167,19.4319372783505,0.));
#458=CARTESIAN_POINT('',(4.35452578328734,19.2911085745297,0.));
#459=CARTESIAN_POINT('',(4.04618373532326,19.1910534374344,0.));
#460=CARTESIAN_POINT('',(3.45758183399543,18.9376708658324,0.));
#461=CARTESIAN_POINT('',(3.17383735035795,18.7830173983301,0.));
#462=CARTESIAN_POINT('',(2.63679283967925,18.4201366350777,0.));
#463=CARTESIAN_POINT('',(2.38904205360381,18.2160148201167,0.));
#464=CARTESIAN_POINT('',(1.93427357717309,17.76329263245,0.));
#465=CARTESIAN_POINT('',(1.72547477385681,17.5116794576315,0.));
#466=CARTESIAN_POINT('',(1.36413461787226,16.9784170781372,0.));
#467=CARTESIAN_POINT('',(1.21059147475924,16.6968950390324,0.));
#468=CARTESIAN_POINT('',(0.958957528571356,16.1034113831223,0.));
#469=CARTESIAN_POINT('',(0.861812402393862,15.7913421903648,0.));
#470=CARTESIAN_POINT('',(0.733629168917603,15.163088141946,0.));
#471=CARTESIAN_POINT('',(0.700944116228266,14.8436175389584,0.));
#472=CARTESIAN_POINT('',(0.701872563183943,14.5184278645346,0.));
#473=CARTESIAN_POINT('',(0.70280101013962,14.1932381901107,0.));
#474=CARTESIAN_POINT('',(0.73786153218632,13.8686278058756,0.));
#475=CARTESIAN_POINT('',(0.875358462413664,13.235632316835,0.));
#476=CARTESIAN_POINT('',(0.976448272555752,12.9309988377645,0.));
#477=CARTESIAN_POINT('',(1.24291085566384,12.3453137725278,0.));
#478=CARTESIAN_POINT('',(1.41037075125257,12.0628187915791,0.));
#479=CARTESIAN_POINT('',(1.79462448689584,11.5491780796098,0.));
#480=CARTESIAN_POINT('',(2.01260578760203,11.3143287490103,0.));
#481=CARTESIAN_POINT('',(2.37846611400423,10.9951019866612,0.));
#482=CARTESIAN_POINT('',(2.50685622165703,10.8944974710771,0.));
#483=CARTESIAN_POINT('',(2.76992250659366,10.7092351435292,0.));
#484=CARTESIAN_POINT('',(2.90538092432205,10.6238606138231,0.));
#485=CARTESIAN_POINT('',(3.32300817595049,10.3885385302874,0.));
#486=CARTESIAN_POINT('',(3.61633394291832,10.2592167352209,0.));
#487=CARTESIAN_POINT('',(4.05537263939535,10.1137751604162,0.));
#488=CARTESIAN_POINT('',(4.18726374829004,10.0757610338589,0.));
#489=CARTESIAN_POINT('',(4.3200000000001,10.0430366109374,0.));
#490=CARTESIAN_POINT('',(0.,0.,0.));
#491=CARTESIAN_POINT('',(5.07581832572136,0.,0.));
#492=CARTESIAN_POINT('',(5.07581832572136,0.,9.15951259207154));
#493=CARTESIAN_POINT('',(4.07962362762961,0.,0.));
#494=CARTESIAN_POINT('',(5.87717184095046,0.,0.));
#495=CARTESIAN_POINT('',(5.07581832572136,0.,0.));
#496=(
GEOMETRIC_REPRESENTATION_CONTEXT(3)
GLOBAL_UNCERTAINTY_ASSIGNED_CONTEXT((#497))
GLOBAL_UNIT_ASSIGNED_CONTEXT((#503,#499,#498))
REPRESENTATION_CONTEXT('model1','TOP_LEVEL_ASSEMBLY_PART')
);
#497=UNCERTAINTY_MEASURE_WITH_UNIT(LENGTH_MEASURE(2.E-5),#503,
'DISTANCE_ACCURACY_VALUE','Maximum Tolerance applied to model');
#498=(
NAMED_UNIT(*)
SI_UNIT($,.STERADIAN.)
SOLID_ANGLE_UNIT()
);
#499=(
CONVERSION_BASED_UNIT('DEGREE',#501)
NAMED_UNIT(#500)
PLANE_ANGLE_UNIT()
);
#500=DIMENSIONAL_EXPONENTS(0.,0.,0.,0.,0.,0.,0.);
#501=PLANE_ANGLE_MEASURE_WITH_UNIT(PLANE_ANGLE_MEASURE(0.0174532925),#502);
#502=(
NAMED_UNIT(*)
PLANE_ANGLE_UNIT()
SI_UNIT($,.RADIAN.)
);
#503=(
LENGTH_UNIT()
NAMED_UNIT(*)
SI_UNIT(.MILLI.,.METRE.)
);
ENDSEC;
END-ISO-10303-21;
