ISO-10303-21;
HEADER;
/* Generated by software containing ST-Developer
 * from STEP Tools, Inc. (www.steptools.com) 
 */
/* OPTION: using custom schema-name function */

FILE_DESCRIPTION(
/* description */ (''),
/* implementation_level */ '2;1');

FILE_NAME(
/* name */ 'model1.stp',
/* time_stamp */ '2023-11-03T16:09:18+03:00',
/* author */ (''),
/* organization */ (''),
/* preprocessor_version */ 'ST-DEVELOPER v19.4',
/* originating_system */ 'SIEMENS PLM Software NX2306.3001',
/* authorisation */ '');

FILE_SCHEMA (('AUTOMOTIVE_DESIGN { 1 0 10303 214 3 1 1 1 }'));
ENDSEC;

DATA;
#10=PROPERTY_DEFINITION_REPRESENTATION(#14,#12);
#11=PROPERTY_DEFINITION_REPRESENTATION(#15,#13);
#12=REPRESENTATION('',(#16),#497);
#13=REPRESENTATION('',(#17),#497);
#14=PROPERTY_DEFINITION('pmi validation property','',#21);
#15=PROPERTY_DEFINITION('pmi validation property','',#21);
#16=VALUE_REPRESENTATION_ITEM('number of annotations',COUNT_MEASURE(0.));
#17=VALUE_REPRESENTATION_ITEM('number of views',COUNT_MEASURE(0.));
#18=SHAPE_REPRESENTATION_RELATIONSHIP('None',
'relationship between model1_objects-None and model1_objects-None',#30,
#19);
#19=ADVANCED_BREP_SHAPE_REPRESENTATION('model1_objects-None',(#141,#142),
#497);
#20=SHAPE_DEFINITION_REPRESENTATION(#21,#30);
#21=PRODUCT_DEFINITION_SHAPE('','',#22);
#22=PRODUCT_DEFINITION(' ','',#24,#23);
#23=PRODUCT_DEFINITION_CONTEXT('part definition',#29,'design');
#24=PRODUCT_DEFINITION_FORMATION_WITH_SPECIFIED_SOURCE(' ',' ',#26,
 .NOT_KNOWN.);
#25=PRODUCT_RELATED_PRODUCT_CATEGORY('part','',(#26));
#26=PRODUCT('model1_objects','model1_objects',' ',(#27));
#27=PRODUCT_CONTEXT(' ',#29,'mechanical');
#28=APPLICATION_PROTOCOL_DEFINITION('international standard',
'automotive_design',2010,#29);
#29=APPLICATION_CONTEXT(
'core data for automotive mechanical design processes');
#30=SHAPE_REPRESENTATION('model1_objects-None',(#269),#497);
#31=OVER_RIDING_STYLED_ITEM('',(#64),#147,#61);
#32=OVER_RIDING_STYLED_ITEM('',(#65),#148,#61);
#33=OVER_RIDING_STYLED_ITEM('',(#66),#149,#61);
#34=OVER_RIDING_STYLED_ITEM('',(#67),#150,#61);
#35=OVER_RIDING_STYLED_ITEM('',(#68),#151,#61);
#36=OVER_RIDING_STYLED_ITEM('',(#69),#152,#61);
#37=OVER_RIDING_STYLED_ITEM('',(#70),#153,#61);
#38=OVER_RIDING_STYLED_ITEM('',(#71),#154,#61);
#39=OVER_RIDING_STYLED_ITEM('',(#72),#155,#61);
#40=OVER_RIDING_STYLED_ITEM('',(#73),#156,#61);
#41=OVER_RIDING_STYLED_ITEM('',(#74),#157,#61);
#42=COLOUR_RGB('Medium Steel',0.611764705882353,0.658823529411765,0.670588235294118);
#43=COLOUR_RGB('silver gray',0.6,0.6,0.6);
#44=CONICAL_SURFACE('',#291,13.6596842267903,85.0000000000007);
#45=VERTEX_LOOP('',#244);
#46=SURFACE_OF_REVOLUTION('',#48,#47);
#47=AXIS1_PLACEMENT('',#491,#332);
#48=B_SPLINE_CURVE_WITH_KNOTS('',3,(#447,#448,#449,#450,#451,#452,#453,
#454,#455,#456,#457,#458,#459,#460,#461,#462,#463,#464,#465,#466,#467,#468,
#469,#470,#471,#472,#473,#474,#475,#476,#477,#478,#479,#480,#481,#482,#483,
#484,#485,#486,#487,#488,#489,#490),.UNSPECIFIED.,.F.,.F.,(4,2,2,2,2,2,
2,2,2,2,2,2,2,2,2,2,2,2,2,2,2,4),(0.,0.0387086631079987,0.0967976674330487,
0.154886671758099,0.212975676083149,0.271064680408199,0.329153684733248,
0.387242689058299,0.445331693383349,0.474376195545874,0.503420697708399,
0.561509702033451,0.619598706358502,0.677687710683553,0.735776715008604,
0.76482121717113,0.793865719333655,0.851954723658706,0.910043727983756,
0.968132732308806,0.997177234471331,1.),.UNSPECIFIED.);
#49=TOROIDAL_SURFACE('',#277,19.5,1.5);
#50=TOROIDAL_SURFACE('',#279,16.,5.);
#51=TOROIDAL_SURFACE('',#281,65.,45.);
#52=TOROIDAL_SURFACE('',#283,18.5,5.);
#53=TOROIDAL_SURFACE('',#287,24.5,1.);
#54=TOROIDAL_SURFACE('',#290,13.5725284840427,1.);
#55=PLANE('',#276);
#56=FACE_OUTER_BOUND('',#190,.T.);
#57=CYLINDRICAL_SURFACE('',#274,21.);
#58=CYLINDRICAL_SURFACE('',#285,23.5);
#59=PRESENTATION_LAYER_ASSIGNMENT('1','Layer 1',(#141,#142));
#60=STYLED_ITEM('',(#62),#141);
#61=STYLED_ITEM('',(#63),#142);
#62=PRESENTATION_STYLE_ASSIGNMENT((#75));
#63=PRESENTATION_STYLE_ASSIGNMENT((#76));
#64=PRESENTATION_STYLE_ASSIGNMENT((#77));
#65=PRESENTATION_STYLE_ASSIGNMENT((#78));
#66=PRESENTATION_STYLE_ASSIGNMENT((#79));
#67=PRESENTATION_STYLE_ASSIGNMENT((#80));
#68=PRESENTATION_STYLE_ASSIGNMENT((#81));
#69=PRESENTATION_STYLE_ASSIGNMENT((#82));
#70=PRESENTATION_STYLE_ASSIGNMENT((#83));
#71=PRESENTATION_STYLE_ASSIGNMENT((#84));
#72=PRESENTATION_STYLE_ASSIGNMENT((#85));
#73=PRESENTATION_STYLE_ASSIGNMENT((#86));
#74=PRESENTATION_STYLE_ASSIGNMENT((#87));
#75=SURFACE_STYLE_USAGE(.BOTH.,#88);
#76=SURFACE_STYLE_USAGE(.BOTH.,#89);
#77=SURFACE_STYLE_USAGE(.BOTH.,#90);
#78=SURFACE_STYLE_USAGE(.BOTH.,#91);
#79=SURFACE_STYLE_USAGE(.BOTH.,#92);
#80=SURFACE_STYLE_USAGE(.BOTH.,#93);
#81=SURFACE_STYLE_USAGE(.BOTH.,#94);
#82=SURFACE_STYLE_USAGE(.BOTH.,#95);
#83=SURFACE_STYLE_USAGE(.BOTH.,#96);
#84=SURFACE_STYLE_USAGE(.BOTH.,#97);
#85=SURFACE_STYLE_USAGE(.BOTH.,#98);
#86=SURFACE_STYLE_USAGE(.BOTH.,#99);
#87=SURFACE_STYLE_USAGE(.BOTH.,#100);
#88=SURFACE_SIDE_STYLE('',(#101));
#89=SURFACE_SIDE_STYLE('',(#102));
#90=SURFACE_SIDE_STYLE('',(#103));
#91=SURFACE_SIDE_STYLE('',(#104));
#92=SURFACE_SIDE_STYLE('',(#105));
#93=SURFACE_SIDE_STYLE('',(#106));
#94=SURFACE_SIDE_STYLE('',(#107));
#95=SURFACE_SIDE_STYLE('',(#108));
#96=SURFACE_SIDE_STYLE('',(#109));
#97=SURFACE_SIDE_STYLE('',(#110));
#98=SURFACE_SIDE_STYLE('',(#111));
#99=SURFACE_SIDE_STYLE('',(#112));
#100=SURFACE_SIDE_STYLE('',(#113));
#101=SURFACE_STYLE_FILL_AREA(#114);
#102=SURFACE_STYLE_FILL_AREA(#115);
#103=SURFACE_STYLE_FILL_AREA(#116);
#104=SURFACE_STYLE_FILL_AREA(#117);
#105=SURFACE_STYLE_FILL_AREA(#118);
#106=SURFACE_STYLE_FILL_AREA(#119);
#107=SURFACE_STYLE_FILL_AREA(#120);
#108=SURFACE_STYLE_FILL_AREA(#121);
#109=SURFACE_STYLE_FILL_AREA(#122);
#110=SURFACE_STYLE_FILL_AREA(#123);
#111=SURFACE_STYLE_FILL_AREA(#124);
#112=SURFACE_STYLE_FILL_AREA(#125);
#113=SURFACE_STYLE_FILL_AREA(#126);
#114=FILL_AREA_STYLE('',(#127));
#115=FILL_AREA_STYLE('',(#128));
#116=FILL_AREA_STYLE('',(#129));
#117=FILL_AREA_STYLE('',(#130));
#118=FILL_AREA_STYLE('',(#131));
#119=FILL_AREA_STYLE('',(#132));
#120=FILL_AREA_STYLE('',(#133));
#121=FILL_AREA_STYLE('',(#134));
#122=FILL_AREA_STYLE('',(#135));
#123=FILL_AREA_STYLE('',(#136));
#124=FILL_AREA_STYLE('',(#137));
#125=FILL_AREA_STYLE('',(#138));
#126=FILL_AREA_STYLE('',(#139));
#127=FILL_AREA_STYLE_COLOUR('',#140);
#128=FILL_AREA_STYLE_COLOUR('',#42);
#129=FILL_AREA_STYLE_COLOUR('',#43);
#130=FILL_AREA_STYLE_COLOUR('',#43);
#131=FILL_AREA_STYLE_COLOUR('',#43);
#132=FILL_AREA_STYLE_COLOUR('',#43);
#133=FILL_AREA_STYLE_COLOUR('',#43);
#134=FILL_AREA_STYLE_COLOUR('',#43);
#135=FILL_AREA_STYLE_COLOUR('',#43);
#136=FILL_AREA_STYLE_COLOUR('',#43);
#137=FILL_AREA_STYLE_COLOUR('',#43);
#138=FILL_AREA_STYLE_COLOUR('',#43);
#139=FILL_AREA_STYLE_COLOUR('',#43);
#140=DRAUGHTING_PRE_DEFINED_COLOUR('yellow');
#141=MANIFOLD_SOLID_BREP('',#143);
#142=MANIFOLD_SOLID_BREP('',#144);
#143=CLOSED_SHELL('',(#145,#146));
#144=CLOSED_SHELL('',(#147,#148,#149,#150,#151,#152,#153,#154,#155,#156,
#157));
#145=ADVANCED_FACE('',(#160,#161),#158,.F.);
#146=ADVANCED_FACE('',(#162,#163),#159,.F.);
#147=ADVANCED_FACE('',(#164,#165),#57,.T.);
#148=ADVANCED_FACE('',(#56),#55,.F.);
#149=ADVANCED_FACE('',(#166,#167),#49,.T.);
#150=ADVANCED_FACE('',(#168,#169),#50,.T.);
#151=ADVANCED_FACE('',(#170,#171),#51,.F.);
#152=ADVANCED_FACE('',(#172,#173),#52,.T.);
#153=ADVANCED_FACE('',(#174,#175),#58,.T.);
#154=ADVANCED_FACE('',(#176,#177),#53,.F.);
#155=ADVANCED_FACE('',(#178,#179),#46,.T.);
#156=ADVANCED_FACE('',(#180,#181),#54,.F.);
#157=ADVANCED_FACE('',(#182,#183),#44,.F.);
#158=(
BOUNDED_SURFACE()
B_SPLINE_SURFACE(3,3,((#344,#345,#346,#347,#348,#349,#350),(#351,#352,#353,
#354,#355,#356,#357),(#358,#359,#360,#361,#362,#363,#364),(#365,#366,#367,
#368,#369,#370,#371),(#372,#373,#374,#375,#376,#377,#378),(#379,#380,#381,
#382,#383,#384,#385),(#386,#387,#388,#389,#390,#391,#392)),
 .UNSPECIFIED.,.T.,.F.,.F.)
B_SPLINE_SURFACE_WITH_KNOTS((1,3,3,3,1),(4,3,4),(-0.5,0.,0.5,1.,1.5),(0.,
0.5,1.),.UNSPECIFIED.)
GEOMETRIC_REPRESENTATION_ITEM()
RATIONAL_B_SPLINE_SURFACE(((1.,0.590839191083903,0.590839191083903,1.,0.590839191083903,
0.590839191083903,1.),(0.333333333333334,0.196946397027968,0.196946397027968,
0.333333333333334,0.196946397027968,0.196946397027968,0.333333333333334),
(0.333333333333334,0.196946397027968,0.196946397027968,0.333333333333334,
0.196946397027968,0.196946397027968,0.333333333333334),(1.,0.590839191083903,
0.590839191083903,1.,0.590839191083903,0.590839191083903,1.),(0.333333333333334,
0.196946397027968,0.196946397027968,0.333333333333334,0.196946397027968,
0.196946397027968,0.333333333333334),(0.333333333333334,0.196946397027968,
0.196946397027968,0.333333333333334,0.196946397027968,0.196946397027968,
0.333333333333334),(1.,0.590839191083903,0.590839191083903,1.,0.590839191083903,
0.590839191083903,1.)))
REPRESENTATION_ITEM('')
SURFACE()
);
#159=(
BOUNDED_SURFACE()
B_SPLINE_SURFACE(3,3,((#393,#394,#395,#396),(#397,#398,#399,#400),(#401,
#402,#403,#404),(#405,#406,#407,#408),(#409,#410,#411,#412),(#413,#414,
#415,#416),(#417,#418,#419,#420)),.UNSPECIFIED.,.T.,.F.,.F.)
B_SPLINE_SURFACE_WITH_KNOTS((1,3,3,3,1),(4,4),(-0.5,0.,0.5,1.,1.5),(0.,
1.),.UNSPECIFIED.)
GEOMETRIC_REPRESENTATION_ITEM()
RATIONAL_B_SPLINE_SURFACE(((1.,0.80107219967243,0.80107219967243,1.),(0.333333333333334,
0.267024066557477,0.267024066557477,0.333333333333334),(0.333333333333334,
0.267024066557477,0.267024066557477,0.333333333333334),(1.,0.80107219967243,
0.80107219967243,1.),(0.333333333333334,0.267024066557477,0.267024066557477,
0.333333333333334),(0.333333333333334,0.267024066557477,0.267024066557477,
0.333333333333334),(1.,0.80107219967243,0.80107219967243,1.)))
REPRESENTATION_ITEM('')
SURFACE()
);
#160=FACE_BOUND('',#184,.T.);
#161=FACE_BOUND('',#185,.T.);
#162=FACE_BOUND('',#186,.T.);
#163=FACE_BOUND('',#187,.T.);
#164=FACE_BOUND('',#188,.T.);
#165=FACE_BOUND('',#189,.T.);
#166=FACE_BOUND('',#191,.T.);
#167=FACE_BOUND('',#192,.T.);
#168=FACE_BOUND('',#193,.T.);
#169=FACE_BOUND('',#194,.T.);
#170=FACE_BOUND('',#195,.T.);
#171=FACE_BOUND('',#196,.T.);
#172=FACE_BOUND('',#197,.T.);
#173=FACE_BOUND('',#198,.T.);
#174=FACE_BOUND('',#199,.T.);
#175=FACE_BOUND('',#200,.T.);
#176=FACE_BOUND('',#201,.T.);
#177=FACE_BOUND('',#202,.T.);
#178=FACE_BOUND('',#203,.T.);
#179=FACE_BOUND('',#204,.T.);
#180=FACE_BOUND('',#205,.T.);
#181=FACE_BOUND('',#206,.T.);
#182=FACE_BOUND('',#207,.T.);
#183=FACE_BOUND('',#45,.T.);
#184=EDGE_LOOP('',(#208));
#185=EDGE_LOOP('',(#209));
#186=EDGE_LOOP('',(#210));
#187=EDGE_LOOP('',(#211));
#188=EDGE_LOOP('',(#212));
#189=EDGE_LOOP('',(#213));
#190=EDGE_LOOP('',(#214));
#191=EDGE_LOOP('',(#215));
#192=EDGE_LOOP('',(#216));
#193=EDGE_LOOP('',(#217));
#194=EDGE_LOOP('',(#218));
#195=EDGE_LOOP('',(#219));
#196=EDGE_LOOP('',(#220));
#197=EDGE_LOOP('',(#221));
#198=EDGE_LOOP('',(#222));
#199=EDGE_LOOP('',(#223));
#200=EDGE_LOOP('',(#224));
#201=EDGE_LOOP('',(#225));
#202=EDGE_LOOP('',(#226));
#203=EDGE_LOOP('',(#227));
#204=EDGE_LOOP('',(#228));
#205=EDGE_LOOP('',(#229));
#206=EDGE_LOOP('',(#230));
#207=EDGE_LOOP('',(#231));
#208=ORIENTED_EDGE('',*,*,#245,.T.);
#209=ORIENTED_EDGE('',*,*,#246,.F.);
#210=ORIENTED_EDGE('',*,*,#246,.T.);
#211=ORIENTED_EDGE('',*,*,#245,.F.);
#212=ORIENTED_EDGE('',*,*,#247,.T.);
#213=ORIENTED_EDGE('',*,*,#248,.F.);
#214=ORIENTED_EDGE('',*,*,#249,.F.);
#215=ORIENTED_EDGE('',*,*,#247,.F.);
#216=ORIENTED_EDGE('',*,*,#249,.T.);
#217=ORIENTED_EDGE('',*,*,#250,.F.);
#218=ORIENTED_EDGE('',*,*,#248,.T.);
#219=ORIENTED_EDGE('',*,*,#251,.F.);
#220=ORIENTED_EDGE('',*,*,#250,.T.);
#221=ORIENTED_EDGE('',*,*,#252,.F.);
#222=ORIENTED_EDGE('',*,*,#251,.T.);
#223=ORIENTED_EDGE('',*,*,#253,.F.);
#224=ORIENTED_EDGE('',*,*,#252,.T.);
#225=ORIENTED_EDGE('',*,*,#254,.F.);
#226=ORIENTED_EDGE('',*,*,#253,.T.);
#227=ORIENTED_EDGE('',*,*,#255,.F.);
#228=ORIENTED_EDGE('',*,*,#254,.T.);
#229=ORIENTED_EDGE('',*,*,#256,.F.);
#230=ORIENTED_EDGE('',*,*,#255,.T.);
#231=ORIENTED_EDGE('',*,*,#256,.T.);
#232=VERTEX_POINT('',#341);
#233=VERTEX_POINT('',#343);
#234=VERTEX_POINT('',#422);
#235=VERTEX_POINT('',#424);
#236=VERTEX_POINT('',#427);
#237=VERTEX_POINT('',#431);
#238=VERTEX_POINT('',#434);
#239=VERTEX_POINT('',#437);
#240=VERTEX_POINT('',#440);
#241=VERTEX_POINT('',#443);
#242=VERTEX_POINT('',#446);
#243=VERTEX_POINT('',#493);
#244=VERTEX_POINT('',#495);
#245=EDGE_CURVE('',#232,#232,#257,.T.);
#246=EDGE_CURVE('',#233,#233,#258,.T.);
#247=EDGE_CURVE('',#234,#234,#259,.T.);
#248=EDGE_CURVE('',#235,#235,#260,.T.);
#249=EDGE_CURVE('',#236,#236,#261,.T.);
#250=EDGE_CURVE('',#237,#237,#262,.T.);
#251=EDGE_CURVE('',#238,#238,#263,.T.);
#252=EDGE_CURVE('',#239,#239,#264,.T.);
#253=EDGE_CURVE('',#240,#240,#265,.T.);
#254=EDGE_CURVE('',#241,#241,#266,.T.);
#255=EDGE_CURVE('',#242,#242,#267,.T.);
#256=EDGE_CURVE('',#243,#243,#268,.T.);
#257=CIRCLE('',#270,6.);
#258=CIRCLE('',#271,6.);
#259=CIRCLE('',#272,21.);
#260=CIRCLE('',#273,21.);
#261=CIRCLE('',#275,19.5);
#262=CIRCLE('',#278,20.9);
#263=CIRCLE('',#280,23.15);
#264=CIRCLE('',#282,23.5);
#265=CIRCLE('',#284,23.5);
#266=CIRCLE('',#286,23.6244973643898);
#267=CIRCLE('',#288,14.5376881185986);
#268=CIRCLE('',#289,13.6596842267903);
#269=AXIS2_PLACEMENT_3D('',#339,#292,#293);
#270=AXIS2_PLACEMENT_3D('',#340,#294,#295);
#271=AXIS2_PLACEMENT_3D('',#342,#296,#297);
#272=AXIS2_PLACEMENT_3D('',#421,#298,#299);
#273=AXIS2_PLACEMENT_3D('',#423,#300,#301);
#274=AXIS2_PLACEMENT_3D('',#425,#302,#303);
#275=AXIS2_PLACEMENT_3D('',#426,#304,#305);
#276=AXIS2_PLACEMENT_3D('',#428,#306,#307);
#277=AXIS2_PLACEMENT_3D('',#429,#308,#309);
#278=AXIS2_PLACEMENT_3D('',#430,#310,#311);
#279=AXIS2_PLACEMENT_3D('',#432,#312,#313);
#280=AXIS2_PLACEMENT_3D('',#433,#314,#315);
#281=AXIS2_PLACEMENT_3D('',#435,#316,#317);
#282=AXIS2_PLACEMENT_3D('',#436,#318,#319);
#283=AXIS2_PLACEMENT_3D('',#438,#320,#321);
#284=AXIS2_PLACEMENT_3D('',#439,#322,#323);
#285=AXIS2_PLACEMENT_3D('',#441,#324,#325);
#286=AXIS2_PLACEMENT_3D('',#442,#326,#327);
#287=AXIS2_PLACEMENT_3D('',#444,#328,#329);
#288=AXIS2_PLACEMENT_3D('',#445,#330,#331);
#289=AXIS2_PLACEMENT_3D('',#492,#333,#334);
#290=AXIS2_PLACEMENT_3D('',#494,#335,#336);
#291=AXIS2_PLACEMENT_3D('',#496,#337,#338);
#292=DIRECTION('',(0.,0.,1.));
#293=DIRECTION('',(1.,0.,0.));
#294=DIRECTION('',(0.052335956242944,0.997591718225836,0.045516056632357));
#295=DIRECTION('',(0.,-0.0455785204105176,0.998960759227903));
#296=DIRECTION('',(0.052335956242944,-0.0609648746331405,0.996766889370379));
#297=DIRECTION('',(0.,-0.998134798421867,-0.061048539534857));
#298=DIRECTION('',(-1.,0.,0.));
#299=DIRECTION('',(0.,0.,1.));
#300=DIRECTION('',(-1.,0.,0.));
#301=DIRECTION('',(0.,0.,1.));
#302=DIRECTION('',(-1.,0.,0.));
#303=DIRECTION('',(0.,0.,1.));
#304=DIRECTION('',(-1.,0.,0.));
#305=DIRECTION('',(0.,0.,1.));
#306=DIRECTION('',(-1.,0.,0.));
#307=DIRECTION('',(0.,0.,1.));
#308=DIRECTION('',(-1.,0.,0.));
#309=DIRECTION('',(0.,0.,1.));
#310=DIRECTION('',(-1.,0.,0.));
#311=DIRECTION('',(0.,0.,1.));
#312=DIRECTION('',(-1.,0.,0.));
#313=DIRECTION('',(0.,0.,1.));
#314=DIRECTION('',(-1.,0.,0.));
#315=DIRECTION('',(0.,0.,1.));
#316=DIRECTION('',(-1.,0.,0.));
#317=DIRECTION('',(0.,0.,1.));
#318=DIRECTION('',(-1.,0.,0.));
#319=DIRECTION('',(0.,0.,1.));
#320=DIRECTION('',(-1.,0.,0.));
#321=DIRECTION('',(0.,0.,1.));
#322=DIRECTION('',(-1.,0.,0.));
#323=DIRECTION('',(0.,0.,1.));
#324=DIRECTION('',(-1.,0.,0.));
#325=DIRECTION('',(0.,0.,1.));
#326=DIRECTION('',(-1.,0.,0.));
#327=DIRECTION('',(0.,0.,1.));
#328=DIRECTION('',(-1.,0.,0.));
#329=DIRECTION('',(0.,0.,1.));
#330=DIRECTION('',(-1.,0.,0.));
#331=DIRECTION('',(0.,0.,1.));
#332=DIRECTION('',(-1.,0.,0.));
#333=DIRECTION('',(-1.,0.,0.));
#334=DIRECTION('',(0.,0.,1.));
#335=DIRECTION('',(-1.,0.,0.));
#336=DIRECTION('',(0.,0.,1.));
#337=DIRECTION('',(-1.,0.,0.));
#338=DIRECTION('',(1.4400810716414E-18,0.,1.));
#339=CARTESIAN_POINT('',(0.,0.,0.));
#340=CARTESIAN_POINT('',(5.99177720852744,0.347337636540893,19.0061051635109));
#341=CARTESIAN_POINT('',(5.99177720852744,0.0738665140777869,24.9998697188783));
#342=CARTESIAN_POINT('',(5.99177720852744,-19.0092052073061,0.0528612024005427));
#343=CARTESIAN_POINT('',(5.99177720852744,-24.9980139978373,-0.313430034808599));
#344=CARTESIAN_POINT('',(5.99177720852744,-24.9980139978373,-0.313430034808599));
#345=CARTESIAN_POINT('',(5.99177720852745,-24.6718058106936,-26.3305819437102));
#346=CARTESIAN_POINT('',(5.99177720852744,-0.547832469352534,-36.0790441536432));
#347=CARTESIAN_POINT('',(5.99177720852744,17.7621526863454,-17.5927506140949));
#348=CARTESIAN_POINT('',(5.99177720852744,36.0721378420434,0.893542925453242));
#349=CARTESIAN_POINT('',(5.99177720852744,26.0929497994571,24.9229917589767));
#350=CARTESIAN_POINT('',(5.99177720852744,0.0738665140777913,24.9998697188782));
#351=CARTESIAN_POINT('',(17.9753316255823,-24.9596735935117,-0.940290104425798));
#352=CARTESIAN_POINT('',(17.9753316255823,-23.9810490320806,-26.9175385184469));
#353=CARTESIAN_POINT('',(17.9753316255823,0.358119263605804,-36.0488050171453));
#354=CARTESIAN_POINT('',(17.9753316255823,18.1819299289233,-17.1256204394133));
#355=CARTESIAN_POINT('',(17.9753316255823,36.0057405942407,1.79756413831862));
#356=CARTESIAN_POINT('',(17.9753316255823,25.4357792598234,25.5473232652007));
#357=CARTESIAN_POINT('',(17.9753316255823,-0.553512284922643,24.9712449734804));
#358=CARTESIAN_POINT('',(17.9753316255823,-12.9820560124493,-0.207707630007513));
#359=CARTESIAN_POINT('',(17.9753316255823,-12.7658804009383,-13.7190259049307));
#360=CARTESIAN_POINT('',(17.9753316255823,-0.219669672884927,-18.7384929870584));
#361=CARTESIAN_POINT('',(17.9753316255823,9.25632298074443,-9.10480124143729));
#362=CARTESIAN_POINT('',(17.9753316255823,18.7323156343738,0.528890504183792));
#363=CARTESIAN_POINT('',(17.9753316255823,13.5064757552532,12.9905537550937));
#364=CARTESIAN_POINT('',(17.9753316255823,-0.00657003999643672,12.9837158627455));
#365=CARTESIAN_POINT('',(5.99177720852744,-13.0203964167748,0.419152439609685));
#366=CARTESIAN_POINT('',(5.99177720852745,-13.4566371795513,-13.132069330194));
#367=CARTESIAN_POINT('',(5.99177720852745,-1.12562140584327,-18.7687321235562));
#368=CARTESIAN_POINT('',(5.99177720852744,8.8365457381666,-9.57193141611889));
#369=CARTESIAN_POINT('',(5.99177720852745,18.7987128821765,-0.375130708681583));
#370=CARTESIAN_POINT('',(5.99177720852744,14.1636462948869,12.3662222488697));
#371=CARTESIAN_POINT('',(5.99177720852744,0.620808759003999,13.0123406081434));
#372=CARTESIAN_POINT('',(-5.99177720852745,-13.0587368211003,1.04601250922688));
#373=CARTESIAN_POINT('',(-5.99177720852744,-14.1473939581642,-12.5451127554573));
#374=CARTESIAN_POINT('',(-5.99177720852744,-2.0315731388016,-18.798971260054));
#375=CARTESIAN_POINT('',(-5.99177720852745,8.41676849558875,-10.0390615908005));
#376=CARTESIAN_POINT('',(-5.99177720852744,18.8651101299791,-1.27915192154696));
#377=CARTESIAN_POINT('',(-5.99177720852744,14.8208168345206,11.7418907426457));
#378=CARTESIAN_POINT('',(-5.99177720852745,1.24818755800443,13.0409653535413));
#379=CARTESIAN_POINT('',(-5.99177720852745,-25.0363544021628,0.313430034808599));
#380=CARTESIAN_POINT('',(-5.99177720852744,-25.3625625893065,-25.7436253689735));
#381=CARTESIAN_POINT('',(-5.99177720852744,-1.45378420231086,-36.109283290141));
#382=CARTESIAN_POINT('',(-5.99177720852745,17.3423754437676,-18.0598807887766));
#383=CARTESIAN_POINT('',(-5.99177720852744,36.138535089846,-0.0104782874121266));
#384=CARTESIAN_POINT('',(-5.99177720852744,26.7501203390908,24.2986602527528));
#385=CARTESIAN_POINT('',(-5.99177720852745,0.701245313078223,25.0284944642761));
#386=CARTESIAN_POINT('',(5.99177720852744,-24.9980139978373,-0.313430034808599));
#387=CARTESIAN_POINT('',(5.99177720852745,-24.6718058106936,-26.3305819437102));
#388=CARTESIAN_POINT('',(5.99177720852744,-0.547832469352534,-36.0790441536432));
#389=CARTESIAN_POINT('',(5.99177720852744,17.7621526863454,-17.5927506140949));
#390=CARTESIAN_POINT('',(5.99177720852744,36.0721378420434,0.893542925453242));
#391=CARTESIAN_POINT('',(5.99177720852744,26.0929497994571,24.9229917589767));
#392=CARTESIAN_POINT('',(5.99177720852744,0.0738665140777913,24.9998697188782));
#393=CARTESIAN_POINT('',(5.99177720852744,0.0738665140777868,24.9998697188782));
#394=CARTESIAN_POINT('',(5.99177720852744,-14.751245839892,25.0436731219645));
#395=CARTESIAN_POINT('',(5.99177720852744,-25.1838803856783,14.5105818625092));
#396=CARTESIAN_POINT('',(5.99177720852744,-24.9980139978373,-0.313430034808601));
#397=CARTESIAN_POINT('',(17.9753316255823,-0.553512284922648,24.9712449734804));
#398=CARTESIAN_POINT('',(17.9753316255823,-15.361649947768,24.6430079904259));
#399=CARTESIAN_POINT('',(17.9753316255823,-25.5172727570351,13.8609856423355));
#400=CARTESIAN_POINT('',(17.9753316255823,-24.9596735935117,-0.940290104425799));
#401=CARTESIAN_POINT('',(17.9753316255823,-0.0065700399964377,12.9837158627455));
#402=CARTESIAN_POINT('',(17.9753316255823,-7.70601202116284,12.9798197791974));
#403=CARTESIAN_POINT('',(17.9753316255823,-13.1052282123954,7.49075004734417));
#404=CARTESIAN_POINT('',(17.9753316255823,-12.9820560124493,-0.207707630007514));
#405=CARTESIAN_POINT('',(5.99177720852744,0.620808759003998,13.0123406081434));
#406=CARTESIAN_POINT('',(5.99177720852744,-7.09560791328676,13.380484910736));
#407=CARTESIAN_POINT('',(5.99177720852744,-12.7718358410386,8.1403462675179));
#408=CARTESIAN_POINT('',(5.99177720852744,-13.0203964167748,0.419152439609684));
#409=CARTESIAN_POINT('',(-5.99177720852745,1.24818755800443,13.0409653535413));
#410=CARTESIAN_POINT('',(-5.99177720852745,-6.48520380541069,13.7811500422747));
#411=CARTESIAN_POINT('',(-5.99177720852745,-12.4384434696819,8.78994248769165));
#412=CARTESIAN_POINT('',(-5.99177720852745,-13.0587368211003,1.04601250922688));
#413=CARTESIAN_POINT('',(-5.99177720852745,0.701245313078221,25.0284944642761));
#414=CARTESIAN_POINT('',(-5.99177720852745,-14.1408417320159,25.4443382535031));
#415=CARTESIAN_POINT('',(-5.99177720852745,-24.8504880143217,15.1601780826829));
#416=CARTESIAN_POINT('',(-5.99177720852745,-25.0363544021628,0.313430034808596));
#417=CARTESIAN_POINT('',(5.99177720852744,0.0738665140777868,24.9998697188782));
#418=CARTESIAN_POINT('',(5.99177720852744,-14.751245839892,25.0436731219645));
#419=CARTESIAN_POINT('',(5.99177720852744,-25.1838803856783,14.5105818625092));
#420=CARTESIAN_POINT('',(5.99177720852744,-24.9980139978373,-0.313430034808601));
#421=CARTESIAN_POINT('',(48.5,0.,0.));
#422=CARTESIAN_POINT('',(48.5,0.,21.));
#423=CARTESIAN_POINT('',(42.5158932390096,0.,0.));
#424=CARTESIAN_POINT('',(42.5158932390096,0.,21.));
#425=CARTESIAN_POINT('',(0.,0.,0.));
#426=CARTESIAN_POINT('',(50.,0.,0.));
#427=CARTESIAN_POINT('',(50.,0.,19.5));
#428=CARTESIAN_POINT('',(50.,12.,0.));
#429=CARTESIAN_POINT('',(48.5,0.,0.));
#430=CARTESIAN_POINT('',(41.5209058019029,0.,0.));
#431=CARTESIAN_POINT('',(41.5209058019029,0.,20.9));
#432=CARTESIAN_POINT('',(42.5158932390096,0.,0.));
#433=CARTESIAN_POINT('',(16.0258405134032,0.,0.));
#434=CARTESIAN_POINT('',(16.0258405134032,0.,23.15));
#435=CARTESIAN_POINT('',(32.5660188679434,0.,0.));
#436=CARTESIAN_POINT('',(14.1880429184543,0.,0.));
#437=CARTESIAN_POINT('',(14.1880429184543,0.,23.5));
#438=CARTESIAN_POINT('',(14.1880429184543,0.,0.));
#439=CARTESIAN_POINT('',(8.70419115783735,0.,0.));
#440=CARTESIAN_POINT('',(8.70419115783735,0.,23.5));
#441=CARTESIAN_POINT('',(0.,0.,0.));
#442=CARTESIAN_POINT('',(8.22097781464457,0.,0.));
#443=CARTESIAN_POINT('',(8.22097781464457,0.,23.6244973643898));
#444=CARTESIAN_POINT('',(8.70419115783737,0.,0.));
#445=CARTESIAN_POINT('',(4.33,0.,0.));
#446=CARTESIAN_POINT('',(4.33,0.,14.5376881185986));
#447=CARTESIAN_POINT('',(8.22097781464457,23.6244973643898,0.));
#448=CARTESIAN_POINT('',(8.03028493238746,23.7301980908977,0.));
#449=CARTESIAN_POINT('',(7.83358515911133,23.8229504986236,0.));
#450=CARTESIAN_POINT('',(7.32998984188472,24.0219816795947,0.));
#451=CARTESIAN_POINT('',(7.01316602598923,24.1130253315672,0.));
#452=CARTESIAN_POINT('',(6.36812925593886,24.2317942173964,0.));
#453=CARTESIAN_POINT('',(6.04410695702517,24.2593690684525,0.));
#454=CARTESIAN_POINT('',(5.39313387564064,24.2525778127539,0.));
#455=CARTESIAN_POINT('',(5.06288842826331,24.2171795406841,0.));
#456=CARTESIAN_POINT('',(4.42383688770558,24.0854309175992,0.));
#457=CARTESIAN_POINT('',(4.11322319393517,23.9897214066169,0.));
#458=CARTESIAN_POINT('',(3.50990090154232,23.7383610136123,0.));
#459=CARTESIAN_POINT('',(3.21758910597323,23.5819080739851,0.));
#460=CARTESIAN_POINT('',(2.67600877745416,23.2213206733782,0.));
#461=CARTESIAN_POINT('',(2.42330597652247,23.0159820254575,0.));
#462=CARTESIAN_POINT('',(1.95546454035665,22.553290926104,0.));
#463=CARTESIAN_POINT('',(1.74618573114077,22.3013786346012,0.));
#464=CARTESIAN_POINT('',(1.47190312131098,21.8979909683699,0.));
#465=CARTESIAN_POINT('',(1.38689835310709,21.7590175827176,0.));
#466=CARTESIAN_POINT('',(1.23002710457589,21.471843546388,0.));
#467=CARTESIAN_POINT('',(1.15789318128365,21.3228813610821,0.));
#468=CARTESIAN_POINT('',(0.965781231279851,20.8705444398306,0.));
#469=CARTESIAN_POINT('',(0.86858037951099,20.5600913778379,0.));
#470=CARTESIAN_POINT('',(0.735697362035278,19.921460967156,0.));
#471=CARTESIAN_POINT('',(0.700605204219203,19.5909185992969,0.));
#472=CARTESIAN_POINT('',(0.696956806978043,18.9393920451225,0.));
#473=CARTESIAN_POINT('',(0.72730867151335,18.6153007305106,0.));
#474=CARTESIAN_POINT('',(0.854663375131917,17.9705814811245,0.));
#475=CARTESIAN_POINT('',(0.950886296218917,17.6563361267789,0.));
#476=CARTESIAN_POINT('',(1.13978646703165,17.2067035439207,0.));
#477=CARTESIAN_POINT('',(1.21033899517435,17.0599273656193,0.));
#478=CARTESIAN_POINT('',(1.36691297004838,16.772699258458,0.));
#479=CARTESIAN_POINT('',(1.45348767164923,16.6315337597218,0.));
#480=CARTESIAN_POINT('',(1.7315202135756,16.2262655878089,0.));
#481=CARTESIAN_POINT('',(1.94170351699147,15.9783418072403,0.));
#482=CARTESIAN_POINT('',(2.41054218816764,15.5259425245693,0.));
#483=CARTESIAN_POINT('',(2.67199624621645,15.3203555028369,0.));
#484=CARTESIAN_POINT('',(3.22158785977942,14.9707368416795,0.));
#485=CARTESIAN_POINT('',(3.51158349434934,14.8241870163445,0.));
#486=CARTESIAN_POINT('',(3.96928861115132,14.6465877840254,0.));
#487=CARTESIAN_POINT('',(4.1263555690869,14.5943522871767,0.));
#488=CARTESIAN_POINT('',(4.29932309022822,14.5460264983943,0.));
#489=CARTESIAN_POINT('',(4.31465582504516,14.5418202284299,0.));
#490=CARTESIAN_POINT('',(4.33,14.5376881185986,0.));
#491=CARTESIAN_POINT('',(0.,0.,0.));
#492=CARTESIAN_POINT('',(5.0645329320199,0.,0.));
#493=CARTESIAN_POINT('',(5.0645329320199,0.,13.6596842267903));
#494=CARTESIAN_POINT('',(4.06833823392815,0.,0.));
#495=CARTESIAN_POINT('',(6.25960044920777,0.,0.));
#496=CARTESIAN_POINT('',(5.0645329320199,0.,0.));
#497=(
GEOMETRIC_REPRESENTATION_CONTEXT(3)
GLOBAL_UNCERTAINTY_ASSIGNED_CONTEXT((#498))
GLOBAL_UNIT_ASSIGNED_CONTEXT((#504,#500,#499))
REPRESENTATION_CONTEXT('model1','TOP_LEVEL_ASSEMBLY_PART')
);
#498=UNCERTAINTY_MEASURE_WITH_UNIT(LENGTH_MEASURE(2.E-5),#504,
'DISTANCE_ACCURACY_VALUE','Maximum Tolerance applied to model');
#499=(
NAMED_UNIT(*)
SI_UNIT($,.STERADIAN.)
SOLID_ANGLE_UNIT()
);
#500=(
CONVERSION_BASED_UNIT('DEGREE',#502)
NAMED_UNIT(#501)
PLANE_ANGLE_UNIT()
);
#501=DIMENSIONAL_EXPONENTS(0.,0.,0.,0.,0.,0.,0.);
#502=PLANE_ANGLE_MEASURE_WITH_UNIT(PLANE_ANGLE_MEASURE(0.0174532925),#503);
#503=(
NAMED_UNIT(*)
PLANE_ANGLE_UNIT()
SI_UNIT($,.RADIAN.)
);
#504=(
LENGTH_UNIT()
NAMED_UNIT(*)
SI_UNIT(.MILLI.,.METRE.)
);
ENDSEC;
END-ISO-10303-21;
