ISO-10303-21;
HEADER;
/* Generated by software containing ST-Developer
 * from STEP Tools, Inc. (www.steptools.com) 
 */
/* OPTION: using custom schema-name function */

FILE_DESCRIPTION(
/* description */ (''),
/* implementation_level */ '2;1');

FILE_NAME(
/* name */ 'model1.stp',
/* time_stamp */ '2023-11-06T15:42:29+03:00',
/* author */ (''),
/* organization */ (''),
/* preprocessor_version */ 'ST-DEVELOPER v19.4',
/* originating_system */ 'SIEMENS PLM Software NX2306.3001',
/* authorisation */ '');

FILE_SCHEMA (('AUTOMOTIVE_DESIGN { 1 0 10303 214 3 1 1 1 }'));
ENDSEC;

DATA;
#10=PROPERTY_DEFINITION_REPRESENTATION(#14,#12);
#11=PROPERTY_DEFINITION_REPRESENTATION(#15,#13);
#12=REPRESENTATION('',(#16),#480);
#13=REPRESENTATION('',(#17),#480);
#14=PROPERTY_DEFINITION('pmi validation property','',#21);
#15=PROPERTY_DEFINITION('pmi validation property','',#21);
#16=VALUE_REPRESENTATION_ITEM('number of annotations',COUNT_MEASURE(0.));
#17=VALUE_REPRESENTATION_ITEM('number of views',COUNT_MEASURE(0.));
#18=SHAPE_REPRESENTATION_RELATIONSHIP('None',
'relationship between model1_objects-None and model1_objects-None',#30,
#19);
#19=ADVANCED_BREP_SHAPE_REPRESENTATION('model1_objects-None',(#147,#148),
#480);
#20=SHAPE_DEFINITION_REPRESENTATION(#21,#30);
#21=PRODUCT_DEFINITION_SHAPE('','',#22);
#22=PRODUCT_DEFINITION(' ','',#24,#23);
#23=PRODUCT_DEFINITION_CONTEXT('part definition',#29,'design');
#24=PRODUCT_DEFINITION_FORMATION_WITH_SPECIFIED_SOURCE(' ',' ',#26,
 .NOT_KNOWN.);
#25=PRODUCT_RELATED_PRODUCT_CATEGORY('part','',(#26));
#26=PRODUCT('model1_objects','model1_objects',' ',(#27));
#27=PRODUCT_CONTEXT(' ',#29,'mechanical');
#28=APPLICATION_PROTOCOL_DEFINITION('international standard',
'automotive_design',2010,#29);
#29=APPLICATION_CONTEXT(
'core data for automotive mechanical design processes');
#30=SHAPE_REPRESENTATION('model1_objects-None',(#285),#480);
#31=OVER_RIDING_STYLED_ITEM('',(#64),#153,#61);
#32=OVER_RIDING_STYLED_ITEM('',(#65),#154,#61);
#33=OVER_RIDING_STYLED_ITEM('',(#66),#155,#61);
#34=OVER_RIDING_STYLED_ITEM('',(#67),#156,#61);
#35=OVER_RIDING_STYLED_ITEM('',(#68),#157,#61);
#36=OVER_RIDING_STYLED_ITEM('',(#69),#158,#61);
#37=OVER_RIDING_STYLED_ITEM('',(#70),#159,#61);
#38=OVER_RIDING_STYLED_ITEM('',(#71),#160,#61);
#39=OVER_RIDING_STYLED_ITEM('',(#72),#161,#61);
#40=OVER_RIDING_STYLED_ITEM('',(#73),#162,#61);
#41=OVER_RIDING_STYLED_ITEM('',(#74),#163,#61);
#42=OVER_RIDING_STYLED_ITEM('',(#75),#164,#61);
#43=COLOUR_RGB('Medium Steel',0.611764705882353,0.658823529411765,0.670588235294118);
#44=COLOUR_RGB('silver gray',0.6,0.6,0.6);
#45=VERTEX_LOOP('',#258);
#46=CONICAL_SURFACE('',#295,29.,30.);
#47=CONICAL_SURFACE('',#310,28.443556160104,85.0000000000002);
#48=TOROIDAL_SURFACE('',#293,27.,2.);
#49=TOROIDAL_SURFACE('',#299,58.8,30.);
#50=TOROIDAL_SURFACE('',#301,33.5,5.);
#51=TOROIDAL_SURFACE('',#305,39.5,1.);
#52=TOROIDAL_SURFACE('',#307,34.1604572749414,5.03108224309985);
#53=TOROIDAL_SURFACE('',#309,28.3564004173563,1.);
#54=PLANE('',#292);
#55=FACE_OUTER_BOUND('',#199,.T.);
#56=CYLINDRICAL_SURFACE('',#290,29.);
#57=CYLINDRICAL_SURFACE('',#297,28.8);
#58=CYLINDRICAL_SURFACE('',#303,38.5);
#59=PRESENTATION_LAYER_ASSIGNMENT('1','Layer 1',(#147,#148));
#60=STYLED_ITEM('',(#62),#147);
#61=STYLED_ITEM('',(#63),#148);
#62=PRESENTATION_STYLE_ASSIGNMENT((#76));
#63=PRESENTATION_STYLE_ASSIGNMENT((#77));
#64=PRESENTATION_STYLE_ASSIGNMENT((#78));
#65=PRESENTATION_STYLE_ASSIGNMENT((#79));
#66=PRESENTATION_STYLE_ASSIGNMENT((#80));
#67=PRESENTATION_STYLE_ASSIGNMENT((#81));
#68=PRESENTATION_STYLE_ASSIGNMENT((#82));
#69=PRESENTATION_STYLE_ASSIGNMENT((#83));
#70=PRESENTATION_STYLE_ASSIGNMENT((#84));
#71=PRESENTATION_STYLE_ASSIGNMENT((#85));
#72=PRESENTATION_STYLE_ASSIGNMENT((#86));
#73=PRESENTATION_STYLE_ASSIGNMENT((#87));
#74=PRESENTATION_STYLE_ASSIGNMENT((#88));
#75=PRESENTATION_STYLE_ASSIGNMENT((#89));
#76=SURFACE_STYLE_USAGE(.BOTH.,#90);
#77=SURFACE_STYLE_USAGE(.BOTH.,#91);
#78=SURFACE_STYLE_USAGE(.BOTH.,#92);
#79=SURFACE_STYLE_USAGE(.BOTH.,#93);
#80=SURFACE_STYLE_USAGE(.BOTH.,#94);
#81=SURFACE_STYLE_USAGE(.BOTH.,#95);
#82=SURFACE_STYLE_USAGE(.BOTH.,#96);
#83=SURFACE_STYLE_USAGE(.BOTH.,#97);
#84=SURFACE_STYLE_USAGE(.BOTH.,#98);
#85=SURFACE_STYLE_USAGE(.BOTH.,#99);
#86=SURFACE_STYLE_USAGE(.BOTH.,#100);
#87=SURFACE_STYLE_USAGE(.BOTH.,#101);
#88=SURFACE_STYLE_USAGE(.BOTH.,#102);
#89=SURFACE_STYLE_USAGE(.BOTH.,#103);
#90=SURFACE_SIDE_STYLE('',(#104));
#91=SURFACE_SIDE_STYLE('',(#105));
#92=SURFACE_SIDE_STYLE('',(#106));
#93=SURFACE_SIDE_STYLE('',(#107));
#94=SURFACE_SIDE_STYLE('',(#108));
#95=SURFACE_SIDE_STYLE('',(#109));
#96=SURFACE_SIDE_STYLE('',(#110));
#97=SURFACE_SIDE_STYLE('',(#111));
#98=SURFACE_SIDE_STYLE('',(#112));
#99=SURFACE_SIDE_STYLE('',(#113));
#100=SURFACE_SIDE_STYLE('',(#114));
#101=SURFACE_SIDE_STYLE('',(#115));
#102=SURFACE_SIDE_STYLE('',(#116));
#103=SURFACE_SIDE_STYLE('',(#117));
#104=SURFACE_STYLE_FILL_AREA(#118);
#105=SURFACE_STYLE_FILL_AREA(#119);
#106=SURFACE_STYLE_FILL_AREA(#120);
#107=SURFACE_STYLE_FILL_AREA(#121);
#108=SURFACE_STYLE_FILL_AREA(#122);
#109=SURFACE_STYLE_FILL_AREA(#123);
#110=SURFACE_STYLE_FILL_AREA(#124);
#111=SURFACE_STYLE_FILL_AREA(#125);
#112=SURFACE_STYLE_FILL_AREA(#126);
#113=SURFACE_STYLE_FILL_AREA(#127);
#114=SURFACE_STYLE_FILL_AREA(#128);
#115=SURFACE_STYLE_FILL_AREA(#129);
#116=SURFACE_STYLE_FILL_AREA(#130);
#117=SURFACE_STYLE_FILL_AREA(#131);
#118=FILL_AREA_STYLE('',(#132));
#119=FILL_AREA_STYLE('',(#133));
#120=FILL_AREA_STYLE('',(#134));
#121=FILL_AREA_STYLE('',(#135));
#122=FILL_AREA_STYLE('',(#136));
#123=FILL_AREA_STYLE('',(#137));
#124=FILL_AREA_STYLE('',(#138));
#125=FILL_AREA_STYLE('',(#139));
#126=FILL_AREA_STYLE('',(#140));
#127=FILL_AREA_STYLE('',(#141));
#128=FILL_AREA_STYLE('',(#142));
#129=FILL_AREA_STYLE('',(#143));
#130=FILL_AREA_STYLE('',(#144));
#131=FILL_AREA_STYLE('',(#145));
#132=FILL_AREA_STYLE_COLOUR('',#146);
#133=FILL_AREA_STYLE_COLOUR('',#43);
#134=FILL_AREA_STYLE_COLOUR('',#44);
#135=FILL_AREA_STYLE_COLOUR('',#44);
#136=FILL_AREA_STYLE_COLOUR('',#44);
#137=FILL_AREA_STYLE_COLOUR('',#44);
#138=FILL_AREA_STYLE_COLOUR('',#44);
#139=FILL_AREA_STYLE_COLOUR('',#44);
#140=FILL_AREA_STYLE_COLOUR('',#44);
#141=FILL_AREA_STYLE_COLOUR('',#44);
#142=FILL_AREA_STYLE_COLOUR('',#44);
#143=FILL_AREA_STYLE_COLOUR('',#44);
#144=FILL_AREA_STYLE_COLOUR('',#44);
#145=FILL_AREA_STYLE_COLOUR('',#44);
#146=DRAUGHTING_PRE_DEFINED_COLOUR('yellow');
#147=MANIFOLD_SOLID_BREP('',#149);
#148=MANIFOLD_SOLID_BREP('',#150);
#149=CLOSED_SHELL('',(#151,#152));
#150=CLOSED_SHELL('',(#153,#154,#155,#156,#157,#158,#159,#160,#161,#162,
#163,#164));
#151=ADVANCED_FACE('',(#167,#168),#165,.F.);
#152=ADVANCED_FACE('',(#169,#170),#166,.F.);
#153=ADVANCED_FACE('',(#171,#172),#56,.T.);
#154=ADVANCED_FACE('',(#55),#54,.F.);
#155=ADVANCED_FACE('',(#173,#174),#48,.T.);
#156=ADVANCED_FACE('',(#175,#176),#46,.T.);
#157=ADVANCED_FACE('',(#177,#178),#57,.T.);
#158=ADVANCED_FACE('',(#179,#180),#49,.F.);
#159=ADVANCED_FACE('',(#181,#182),#50,.T.);
#160=ADVANCED_FACE('',(#183,#184),#58,.T.);
#161=ADVANCED_FACE('',(#185,#186),#51,.F.);
#162=ADVANCED_FACE('',(#187,#188),#52,.T.);
#163=ADVANCED_FACE('',(#189,#190),#53,.F.);
#164=ADVANCED_FACE('',(#191,#192),#47,.F.);
#165=(
BOUNDED_SURFACE()
B_SPLINE_SURFACE(3,3,((#368,#369,#370,#371,#372,#373,#374),(#375,#376,#377,
#378,#379,#380,#381),(#382,#383,#384,#385,#386,#387,#388),(#389,#390,#391,
#392,#393,#394,#395),(#396,#397,#398,#399,#400,#401,#402),(#403,#404,#405,
#406,#407,#408,#409),(#410,#411,#412,#413,#414,#415,#416)),
 .UNSPECIFIED.,.T.,.F.,.F.)
B_SPLINE_SURFACE_WITH_KNOTS((1,3,3,3,1),(4,3,4),(-0.5,0.,0.5,1.,1.5),(0.,
0.5,1.),.UNSPECIFIED.)
GEOMETRIC_REPRESENTATION_ITEM()
RATIONAL_B_SPLINE_SURFACE(((1.,0.591296059121757,0.591296059121757,1.,0.591296059121757,
0.591296059121757,1.),(0.333333333333334,0.197098686373919,0.197098686373919,
0.333333333333334,0.197098686373919,0.197098686373919,0.333333333333334),
(0.333333333333334,0.197098686373919,0.197098686373919,0.333333333333334,
0.197098686373919,0.197098686373919,0.333333333333334),(1.,0.591296059121757,
0.591296059121757,1.,0.591296059121757,0.591296059121757,1.),(0.333333333333334,
0.197098686373919,0.197098686373919,0.333333333333334,0.197098686373919,
0.197098686373919,0.333333333333334),(0.333333333333334,0.197098686373919,
0.197098686373919,0.333333333333334,0.197098686373919,0.197098686373919,
0.333333333333334),(1.,0.591296059121757,0.591296059121757,1.,0.591296059121757,
0.591296059121757,1.)))
REPRESENTATION_ITEM('')
SURFACE()
);
#166=(
BOUNDED_SURFACE()
B_SPLINE_SURFACE(3,3,((#417,#418,#419,#420),(#421,#422,#423,#424),(#425,
#426,#427,#428),(#429,#430,#431,#432),(#433,#434,#435,#436),(#437,#438,
#439,#440),(#441,#442,#443,#444)),.UNSPECIFIED.,.T.,.F.,.F.)
B_SPLINE_SURFACE_WITH_KNOTS((1,3,3,3,1),(4,4),(-0.5,0.,0.5,1.,1.5),(0.,
1.),.UNSPECIFIED.)
GEOMETRIC_REPRESENTATION_ITEM()
RATIONAL_B_SPLINE_SURFACE(((1.,0.800365696311419,0.800365696311419,1.),
(0.333333333333334,0.26678856543714,0.26678856543714,0.333333333333334),
(0.333333333333334,0.26678856543714,0.26678856543714,0.333333333333334),
(1.,0.800365696311419,0.800365696311419,1.),(0.333333333333334,0.26678856543714,
0.26678856543714,0.333333333333334),(0.333333333333334,0.26678856543714,
0.26678856543714,0.333333333333334),(1.,0.800365696311419,0.800365696311419,
1.)))
REPRESENTATION_ITEM('')
SURFACE()
);
#167=FACE_BOUND('',#193,.T.);
#168=FACE_BOUND('',#194,.T.);
#169=FACE_BOUND('',#195,.T.);
#170=FACE_BOUND('',#196,.T.);
#171=FACE_BOUND('',#197,.T.);
#172=FACE_BOUND('',#198,.T.);
#173=FACE_BOUND('',#200,.T.);
#174=FACE_BOUND('',#201,.T.);
#175=FACE_BOUND('',#202,.T.);
#176=FACE_BOUND('',#203,.T.);
#177=FACE_BOUND('',#204,.T.);
#178=FACE_BOUND('',#205,.T.);
#179=FACE_BOUND('',#206,.T.);
#180=FACE_BOUND('',#207,.T.);
#181=FACE_BOUND('',#208,.T.);
#182=FACE_BOUND('',#209,.T.);
#183=FACE_BOUND('',#210,.T.);
#184=FACE_BOUND('',#211,.T.);
#185=FACE_BOUND('',#212,.T.);
#186=FACE_BOUND('',#213,.T.);
#187=FACE_BOUND('',#214,.T.);
#188=FACE_BOUND('',#215,.T.);
#189=FACE_BOUND('',#216,.T.);
#190=FACE_BOUND('',#217,.T.);
#191=FACE_BOUND('',#218,.T.);
#192=FACE_BOUND('',#45,.T.);
#193=EDGE_LOOP('',(#219));
#194=EDGE_LOOP('',(#220));
#195=EDGE_LOOP('',(#221));
#196=EDGE_LOOP('',(#222));
#197=EDGE_LOOP('',(#223));
#198=EDGE_LOOP('',(#224));
#199=EDGE_LOOP('',(#225));
#200=EDGE_LOOP('',(#226));
#201=EDGE_LOOP('',(#227));
#202=EDGE_LOOP('',(#228));
#203=EDGE_LOOP('',(#229));
#204=EDGE_LOOP('',(#230));
#205=EDGE_LOOP('',(#231));
#206=EDGE_LOOP('',(#232));
#207=EDGE_LOOP('',(#233));
#208=EDGE_LOOP('',(#234));
#209=EDGE_LOOP('',(#235));
#210=EDGE_LOOP('',(#236));
#211=EDGE_LOOP('',(#237));
#212=EDGE_LOOP('',(#238));
#213=EDGE_LOOP('',(#239));
#214=EDGE_LOOP('',(#240));
#215=EDGE_LOOP('',(#241));
#216=EDGE_LOOP('',(#242));
#217=EDGE_LOOP('',(#243));
#218=EDGE_LOOP('',(#244));
#219=ORIENTED_EDGE('',*,*,#259,.T.);
#220=ORIENTED_EDGE('',*,*,#260,.F.);
#221=ORIENTED_EDGE('',*,*,#260,.T.);
#222=ORIENTED_EDGE('',*,*,#259,.F.);
#223=ORIENTED_EDGE('',*,*,#261,.T.);
#224=ORIENTED_EDGE('',*,*,#262,.F.);
#225=ORIENTED_EDGE('',*,*,#263,.F.);
#226=ORIENTED_EDGE('',*,*,#261,.F.);
#227=ORIENTED_EDGE('',*,*,#263,.T.);
#228=ORIENTED_EDGE('',*,*,#264,.F.);
#229=ORIENTED_EDGE('',*,*,#262,.T.);
#230=ORIENTED_EDGE('',*,*,#265,.F.);
#231=ORIENTED_EDGE('',*,*,#264,.T.);
#232=ORIENTED_EDGE('',*,*,#266,.F.);
#233=ORIENTED_EDGE('',*,*,#265,.T.);
#234=ORIENTED_EDGE('',*,*,#267,.F.);
#235=ORIENTED_EDGE('',*,*,#266,.T.);
#236=ORIENTED_EDGE('',*,*,#268,.F.);
#237=ORIENTED_EDGE('',*,*,#267,.T.);
#238=ORIENTED_EDGE('',*,*,#269,.F.);
#239=ORIENTED_EDGE('',*,*,#268,.T.);
#240=ORIENTED_EDGE('',*,*,#270,.F.);
#241=ORIENTED_EDGE('',*,*,#269,.T.);
#242=ORIENTED_EDGE('',*,*,#271,.F.);
#243=ORIENTED_EDGE('',*,*,#270,.T.);
#244=ORIENTED_EDGE('',*,*,#271,.T.);
#245=VERTEX_POINT('',#365);
#246=VERTEX_POINT('',#367);
#247=VERTEX_POINT('',#446);
#248=VERTEX_POINT('',#448);
#249=VERTEX_POINT('',#451);
#250=VERTEX_POINT('',#455);
#251=VERTEX_POINT('',#458);
#252=VERTEX_POINT('',#461);
#253=VERTEX_POINT('',#464);
#254=VERTEX_POINT('',#467);
#255=VERTEX_POINT('',#470);
#256=VERTEX_POINT('',#473);
#257=VERTEX_POINT('',#476);
#258=VERTEX_POINT('',#478);
#259=EDGE_CURVE('',#245,#245,#272,.T.);
#260=EDGE_CURVE('',#246,#246,#273,.T.);
#261=EDGE_CURVE('',#247,#247,#274,.T.);
#262=EDGE_CURVE('',#248,#248,#275,.T.);
#263=EDGE_CURVE('',#249,#249,#276,.T.);
#264=EDGE_CURVE('',#250,#250,#277,.T.);
#265=EDGE_CURVE('',#251,#251,#278,.T.);
#266=EDGE_CURVE('',#252,#252,#279,.T.);
#267=EDGE_CURVE('',#253,#253,#280,.T.);
#268=EDGE_CURVE('',#254,#254,#281,.T.);
#269=EDGE_CURVE('',#255,#255,#282,.T.);
#270=EDGE_CURVE('',#256,#256,#283,.T.);
#271=EDGE_CURVE('',#257,#257,#284,.T.);
#272=CIRCLE('',#286,6.);
#273=CIRCLE('',#287,6.);
#274=CIRCLE('',#288,29.);
#275=CIRCLE('',#289,29.);
#276=CIRCLE('',#291,27.);
#277=CIRCLE('',#294,28.8);
#278=CIRCLE('',#296,28.8);
#279=CIRCLE('',#298,37.1142857142857);
#280=CIRCLE('',#300,38.5);
#281=CIRCLE('',#302,38.5);
#282=CIRCLE('',#304,38.6146625912509);
#283=CIRCLE('',#306,29.3187578556462);
#284=CIRCLE('',#308,28.443556160104);
#285=AXIS2_PLACEMENT_3D('',#363,#311,#312);
#286=AXIS2_PLACEMENT_3D('',#364,#313,#314);
#287=AXIS2_PLACEMENT_3D('',#366,#315,#316);
#288=AXIS2_PLACEMENT_3D('',#445,#317,#318);
#289=AXIS2_PLACEMENT_3D('',#447,#319,#320);
#290=AXIS2_PLACEMENT_3D('',#449,#321,#322);
#291=AXIS2_PLACEMENT_3D('',#450,#323,#324);
#292=AXIS2_PLACEMENT_3D('',#452,#325,#326);
#293=AXIS2_PLACEMENT_3D('',#453,#327,#328);
#294=AXIS2_PLACEMENT_3D('',#454,#329,#330);
#295=AXIS2_PLACEMENT_3D('',#456,#331,#332);
#296=AXIS2_PLACEMENT_3D('',#457,#333,#334);
#297=AXIS2_PLACEMENT_3D('',#459,#335,#336);
#298=AXIS2_PLACEMENT_3D('',#460,#337,#338);
#299=AXIS2_PLACEMENT_3D('',#462,#339,#340);
#300=AXIS2_PLACEMENT_3D('',#463,#341,#342);
#301=AXIS2_PLACEMENT_3D('',#465,#343,#344);
#302=AXIS2_PLACEMENT_3D('',#466,#345,#346);
#303=AXIS2_PLACEMENT_3D('',#468,#347,#348);
#304=AXIS2_PLACEMENT_3D('',#469,#349,#350);
#305=AXIS2_PLACEMENT_3D('',#471,#351,#352);
#306=AXIS2_PLACEMENT_3D('',#472,#353,#354);
#307=AXIS2_PLACEMENT_3D('',#474,#355,#356);
#308=AXIS2_PLACEMENT_3D('',#475,#357,#358);
#309=AXIS2_PLACEMENT_3D('',#477,#359,#360);
#310=AXIS2_PLACEMENT_3D('',#479,#361,#362);
#311=DIRECTION('',(0.,0.,1.));
#312=DIRECTION('',(1.,0.,0.));
#313=DIRECTION('',(0.052335956242944,0.998313253579607,0.0251315620572472));
#314=DIRECTION('',(0.998626927645156,-0.0523767492725011,0.000967221609067768));
#315=DIRECTION('',(0.052335956242944,-0.0435596085109251,0.997679060715675));
#316=DIRECTION('',(0.998626927645156,0.,-0.0523856791689818));
#317=DIRECTION('',(-1.,0.,0.));
#318=DIRECTION('',(0.,0.,1.));
#319=DIRECTION('',(-1.,0.,0.));
#320=DIRECTION('',(0.,0.,1.));
#321=DIRECTION('',(-1.,0.,0.));
#322=DIRECTION('',(0.,0.,1.));
#323=DIRECTION('',(-1.,0.,0.));
#324=DIRECTION('',(0.,0.,1.));
#325=DIRECTION('',(-1.,0.,0.));
#326=DIRECTION('',(0.,0.,1.));
#327=DIRECTION('',(-1.,0.,0.));
#328=DIRECTION('',(0.,0.,1.));
#329=DIRECTION('',(-1.,0.,0.));
#330=DIRECTION('',(0.,0.,1.));
#331=DIRECTION('',(1.,0.,0.));
#332=DIRECTION('',(5.7218527446033E-17,0.,-1.));
#333=DIRECTION('',(-1.,0.,0.));
#334=DIRECTION('',(0.,0.,1.));
#335=DIRECTION('',(-1.,0.,0.));
#336=DIRECTION('',(0.,0.,1.));
#337=DIRECTION('',(-1.,0.,0.));
#338=DIRECTION('',(0.,0.,1.));
#339=DIRECTION('',(-1.,0.,0.));
#340=DIRECTION('',(0.,0.,1.));
#341=DIRECTION('',(-1.,0.,0.));
#342=DIRECTION('',(0.,0.,1.));
#343=DIRECTION('',(-1.,0.,0.));
#344=DIRECTION('',(0.,0.,1.));
#345=DIRECTION('',(-1.,0.,0.));
#346=DIRECTION('',(0.,0.,1.));
#347=DIRECTION('',(-1.,0.,0.));
#348=DIRECTION('',(0.,0.,1.));
#349=DIRECTION('',(-1.,0.,0.));
#350=DIRECTION('',(0.,0.,1.));
#351=DIRECTION('',(-1.,0.,0.));
#352=DIRECTION('',(0.,0.,1.));
#353=DIRECTION('',(-1.,0.,0.));
#354=DIRECTION('',(0.,0.,1.));
#355=DIRECTION('',(-1.,0.,0.));
#356=DIRECTION('',(0.,0.,1.));
#357=DIRECTION('',(-1.,0.,0.));
#358=DIRECTION('',(0.,0.,1.));
#359=DIRECTION('',(-1.,0.,0.));
#360=DIRECTION('',(0.,0.,1.));
#361=DIRECTION('',(-1.,0.,0.));
#362=DIRECTION('',(-4.76884489605349E-18,0.,1.));
#363=CARTESIAN_POINT('',(0.,0.,0.));
#364=CARTESIAN_POINT('',(5.99177720852744,0.575848945252615,33.9996326735719));
#365=CARTESIAN_POINT('',(11.9835387743984,0.261588449617608,34.0054360032263));
#366=CARTESIAN_POINT('',(5.99177720852744,-34.0044691164179,-0.052000539863778));
#367=CARTESIAN_POINT('',(11.9835387743984,-34.0044691164179,-0.366314614877669));
#368=CARTESIAN_POINT('',(11.9835387743984,-34.0044691164179,-0.366314614877669));
#369=CARTESIAN_POINT('',(11.9835387743984,-33.6236335315079,-35.7187449016886));
#370=CARTESIAN_POINT('',(11.9835387743984,-0.877683109684024,-49.0469891183141));
#371=CARTESIAN_POINT('',(11.9835387743984,24.0831851934449,-24.0091294557867));
#372=CARTESIAN_POINT('',(11.9835387743984,49.0440534965738,1.02873020674063));
#373=CARTESIAN_POINT('',(11.9835387743984,35.6150239513129,33.733478002727));
#374=CARTESIAN_POINT('',(11.9835387743984,0.261588449617621,34.0054360032263));
#375=CARTESIAN_POINT('',(12.0109215705125,-22.0158591589241,0.155682961322623));
#376=CARTESIAN_POINT('',(12.0109215705125,-22.17771350278,-22.7329004026897));
#377=CARTESIAN_POINT('',(12.0109215705125,-1.13470660766107,-31.7387488386756));
#378=CARTESIAN_POINT('',(12.0109215705125,15.3120819885431,-15.8196851064161));
#379=CARTESIAN_POINT('',(12.0109215705125,31.7588705847473,0.0993786258432702));
#380=CARTESIAN_POINT('',(12.0109215705125,23.4438389398568,21.4248022789489));
#381=CARTESIAN_POINT('',(12.0109215705125,0.56214565925373,22.0092317891337));
#382=CARTESIAN_POINT('',(0.0273984387706622,-22.0158591589241,0.784311111350404));
#383=CARTESIAN_POINT('',(0.0273984387706622,-22.8312609166243,-22.104272252662));
#384=CARTESIAN_POINT('',(0.0273984387706622,-2.04114032996628,-31.7127588364078));
#385=CARTESIAN_POINT('',(0.0273984387706622,14.8634899557468,-16.2600696419292));
#386=CARTESIAN_POINT('',(0.0273984387706622,31.7681202414598,-0.807380447450543));
#387=CARTESIAN_POINT('',(0.0273984387706622,24.0602931756461,20.7597596124024));
#388=CARTESIAN_POINT('',(0.0273984387706622,1.19066665052374,21.9976251298248));
#389=CARTESIAN_POINT('',(1.56426565034451E-5,-34.0044691164179,0.262313535150113));
#390=CARTESIAN_POINT('',(1.56426565034451E-5,-34.2771809453523,-35.0901167516608));
#391=CARTESIAN_POINT('',(1.56426565034451E-5,-1.78411683198924,-49.0209991160464));
#392=CARTESIAN_POINT('',(1.56426565034451E-5,23.6345931606486,-24.4495139912998));
#393=CARTESIAN_POINT('',(1.56426565034451E-5,49.0533031532864,0.121971133446811));
#394=CARTESIAN_POINT('',(1.56426565034451E-5,36.2314781871022,33.0684353361804));
#395=CARTESIAN_POINT('',(1.56426565034451E-5,0.890109440887632,33.9938293439175));
#396=CARTESIAN_POINT('',(-0.0273671534576553,-45.9930790739116,-0.259684041050178));
#397=CARTESIAN_POINT('',(-0.0273671534576553,-45.7231009740803,-48.0759612506598));
#398=CARTESIAN_POINT('',(-0.0273671534576553,-1.52709333401218,-66.3292393956851));
#399=CARTESIAN_POINT('',(-0.0273671534576553,32.4056963655504,-32.6389583406704));
#400=CARTESIAN_POINT('',(-0.0273671534576553,66.338486065113,1.05132271434418));
#401=CARTESIAN_POINT('',(-0.0273671534576553,48.4026631985583,45.3771110599585));
#402=CARTESIAN_POINT('',(-0.0273671534576553,0.589552231251514,45.99003355801));
#403=CARTESIAN_POINT('',(11.9561559782842,-45.9930790739116,-0.88831219107796));
#404=CARTESIAN_POINT('',(11.9561559782842,-45.069553560236,-48.7045894006875));
#405=CARTESIAN_POINT('',(11.9561559782842,-0.620659611706973,-66.3552293979528));
#406=CARTESIAN_POINT('',(11.9561559782842,32.8542883983467,-32.1985738051574));
#407=CARTESIAN_POINT('',(11.9561559782842,66.3292364084003,1.95808178763799));
#408=CARTESIAN_POINT('',(11.9561559782842,47.786208962769,46.042153726505));
#409=CARTESIAN_POINT('',(11.9561559782842,-0.0389687600184963,46.0016402173188));
#410=CARTESIAN_POINT('',(11.9835387743984,-34.0044691164179,-0.366314614877669));
#411=CARTESIAN_POINT('',(11.9835387743984,-33.6236335315079,-35.7187449016886));
#412=CARTESIAN_POINT('',(11.9835387743984,-0.877683109684024,-49.0469891183141));
#413=CARTESIAN_POINT('',(11.9835387743984,24.0831851934449,-24.0091294557867));
#414=CARTESIAN_POINT('',(11.9835387743984,49.0440534965738,1.02873020674063));
#415=CARTESIAN_POINT('',(11.9835387743984,35.6150239513129,33.733478002727));
#416=CARTESIAN_POINT('',(11.9835387743984,0.261588449617621,34.0054360032263));
#417=CARTESIAN_POINT('',(11.9835387743984,0.261588449617608,34.0054360032263));
#418=CARTESIAN_POINT('',(11.9835387743984,-19.9512057042787,34.1609238930053));
#419=CARTESIAN_POINT('',(11.9835387743984,-34.2222061248593,19.845904822552));
#420=CARTESIAN_POINT('',(11.9835387743984,-34.0044691164179,-0.36631461487767));
#421=CARTESIAN_POINT('',(12.0109215705125,0.562145659253724,22.0092317891337));
#422=CARTESIAN_POINT('',(12.0109215705125,-12.5201177646572,22.343370557239));
#423=CARTESIAN_POINT('',(12.0109215705125,-21.923321376136,13.2418856866247));
#424=CARTESIAN_POINT('',(12.0109215705125,-22.0158591589241,0.155682961322622));
#425=CARTESIAN_POINT('',(0.0273984387706622,1.19066665052374,21.9976251298248));
#426=CARTESIAN_POINT('',(0.0273984387706622,-11.884697787725,22.705356091153));
#427=CARTESIAN_POINT('',(0.0273984387706622,-21.5496654878641,13.8705138366525));
#428=CARTESIAN_POINT('',(0.0273984387706622,-22.0158591589241,0.784311111350403));
#429=CARTESIAN_POINT('',(1.56426565034451E-5,0.890109440887622,33.9938293439175));
#430=CARTESIAN_POINT('',(1.56426565034451E-5,-19.3157857273465,34.5229094269193));
#431=CARTESIAN_POINT('',(1.56426565034451E-5,-33.8485502365874,20.4745329725798));
#432=CARTESIAN_POINT('',(1.56426565034451E-5,-34.0044691164179,0.262313535150111));
#433=CARTESIAN_POINT('',(-0.0273671534576553,0.589552231251505,45.99003355801));
#434=CARTESIAN_POINT('',(-0.0273671534576553,-26.746873666968,46.3404627626856));
#435=CARTESIAN_POINT('',(-0.0273671534576553,-46.1474349853106,27.0785521085069));
#436=CARTESIAN_POINT('',(-0.0273671534576553,-45.9930790739116,-0.259684041050181));
#437=CARTESIAN_POINT('',(11.9561559782842,-0.0389687600185078,46.0016402173189));
#438=CARTESIAN_POINT('',(11.9561559782842,-27.3822936439002,45.9784772287716));
#439=CARTESIAN_POINT('',(11.9561559782842,-46.5210908735825,26.4499239584791));
#440=CARTESIAN_POINT('',(11.9561559782842,-45.9930790739116,-0.888312191077963));
#441=CARTESIAN_POINT('',(11.9835387743984,0.261588449617608,34.0054360032263));
#442=CARTESIAN_POINT('',(11.9835387743984,-19.9512057042787,34.1609238930053));
#443=CARTESIAN_POINT('',(11.9835387743984,-34.2222061248593,19.845904822552));
#444=CARTESIAN_POINT('',(11.9835387743984,-34.0044691164179,-0.36631461487767));
#445=CARTESIAN_POINT('',(48.,0.,0.));
#446=CARTESIAN_POINT('',(48.,0.,29.));
#447=CARTESIAN_POINT('',(40.,0.,0.));
#448=CARTESIAN_POINT('',(40.,0.,29.));
#449=CARTESIAN_POINT('',(0.,0.,0.));
#450=CARTESIAN_POINT('',(50.,0.,0.));
#451=CARTESIAN_POINT('',(50.,0.,27.));
#452=CARTESIAN_POINT('',(50.,14.5,0.));
#453=CARTESIAN_POINT('',(48.,0.,0.));
#454=CARTESIAN_POINT('',(39.6535898384862,0.,0.));
#455=CARTESIAN_POINT('',(39.6535898384862,0.,28.8));
#456=CARTESIAN_POINT('',(40.,0.,0.));
#457=CARTESIAN_POINT('',(39.,0.,0.));
#458=CARTESIAN_POINT('',(39.,0.,28.8));
#459=CARTESIAN_POINT('',(0.,0.,0.));
#460=CARTESIAN_POINT('',(18.2700748694461,0.,0.));
#461=CARTESIAN_POINT('',(18.2700748694461,0.,37.1142857142857));
#462=CARTESIAN_POINT('',(39.,0.,0.));
#463=CARTESIAN_POINT('',(14.8150873476872,0.,0.));
#464=CARTESIAN_POINT('',(14.8150873476872,0.,38.5));
#465=CARTESIAN_POINT('',(14.8150873476872,0.,0.));
#466=CARTESIAN_POINT('',(8.51149469014978,0.,0.));
#467=CARTESIAN_POINT('',(8.51149469014978,0.,38.5));
#468=CARTESIAN_POINT('',(0.,0.,0.));
#469=CARTESIAN_POINT('',(8.0465455825375,0.,0.));
#470=CARTESIAN_POINT('',(8.0465455825375,0.,38.6146625912509));
#471=CARTESIAN_POINT('',(8.51149469014978,0.,0.));
#472=CARTESIAN_POINT('',(4.33996574845534,0.,0.));
#473=CARTESIAN_POINT('',(4.33996574845534,0.,29.3187578556462));
#474=CARTESIAN_POINT('',(5.70734838328421,0.,0.));
#475=CARTESIAN_POINT('',(5.06437346936056,0.,0.));
#476=CARTESIAN_POINT('',(5.06437346936056,0.,28.443556160104));
#477=CARTESIAN_POINT('',(4.06817877126881,0.,0.));
#478=CARTESIAN_POINT('',(7.55286218373254,0.,0.));
#479=CARTESIAN_POINT('',(5.06437346936056,0.,0.));
#480=(
GEOMETRIC_REPRESENTATION_CONTEXT(3)
GLOBAL_UNCERTAINTY_ASSIGNED_CONTEXT((#481))
GLOBAL_UNIT_ASSIGNED_CONTEXT((#487,#483,#482))
REPRESENTATION_CONTEXT('model1','TOP_LEVEL_ASSEMBLY_PART')
);
#481=UNCERTAINTY_MEASURE_WITH_UNIT(LENGTH_MEASURE(2.E-5),#487,
'DISTANCE_ACCURACY_VALUE','Maximum Tolerance applied to model');
#482=(
NAMED_UNIT(*)
SI_UNIT($,.STERADIAN.)
SOLID_ANGLE_UNIT()
);
#483=(
CONVERSION_BASED_UNIT('DEGREE',#485)
NAMED_UNIT(#484)
PLANE_ANGLE_UNIT()
);
#484=DIMENSIONAL_EXPONENTS(0.,0.,0.,0.,0.,0.,0.);
#485=PLANE_ANGLE_MEASURE_WITH_UNIT(PLANE_ANGLE_MEASURE(0.0174532925),#486);
#486=(
NAMED_UNIT(*)
PLANE_ANGLE_UNIT()
SI_UNIT($,.RADIAN.)
);
#487=(
LENGTH_UNIT()
NAMED_UNIT(*)
SI_UNIT(.MILLI.,.METRE.)
);
ENDSEC;
END-ISO-10303-21;
