ISO-10303-21;
HEADER;
/* Generated by software containing ST-Developer
 * from STEP Tools, Inc. (www.steptools.com) 
 */
/* OPTION: using custom schema-name function */

FILE_DESCRIPTION(
/* description */ (''),
/* implementation_level */ '2;1');

FILE_NAME(
/* name */ 'model1.stp',
/* time_stamp */ '2023-11-02T15:50:20+03:00',
/* author */ (''),
/* organization */ (''),
/* preprocessor_version */ 'ST-DEVELOPER v19.4',
/* originating_system */ 'SIEMENS PLM Software NX2306.3001',
/* authorisation */ '');

FILE_SCHEMA (('AUTOMOTIVE_DESIGN { 1 0 10303 214 3 1 1 1 }'));
ENDSEC;

DATA;
#10=PROPERTY_DEFINITION_REPRESENTATION(#14,#12);
#11=PROPERTY_DEFINITION_REPRESENTATION(#15,#13);
#12=REPRESENTATION('',(#16),#463);
#13=REPRESENTATION('',(#17),#463);
#14=PROPERTY_DEFINITION('pmi validation property','',#21);
#15=PROPERTY_DEFINITION('pmi validation property','',#21);
#16=VALUE_REPRESENTATION_ITEM('number of annotations',COUNT_MEASURE(0.));
#17=VALUE_REPRESENTATION_ITEM('number of views',COUNT_MEASURE(0.));
#18=SHAPE_REPRESENTATION_RELATIONSHIP('None',
'relationship between model1_objects-None and model1_objects-None',#30,
#19);
#19=ADVANCED_BREP_SHAPE_REPRESENTATION('model1_objects-None',(#125,#126),
#463);
#20=SHAPE_DEFINITION_REPRESENTATION(#21,#30);
#21=PRODUCT_DEFINITION_SHAPE('','',#22);
#22=PRODUCT_DEFINITION(' ','',#24,#23);
#23=PRODUCT_DEFINITION_CONTEXT('part definition',#29,'design');
#24=PRODUCT_DEFINITION_FORMATION_WITH_SPECIFIED_SOURCE(' ',' ',#26,
 .NOT_KNOWN.);
#25=PRODUCT_RELATED_PRODUCT_CATEGORY('part','',(#26));
#26=PRODUCT('model1_objects','model1_objects',' ',(#27));
#27=PRODUCT_CONTEXT(' ',#29,'mechanical');
#28=APPLICATION_PROTOCOL_DEFINITION('international standard',
'automotive_design',2010,#29);
#29=APPLICATION_CONTEXT(
'core data for automotive mechanical design processes');
#30=SHAPE_REPRESENTATION('model1_objects-None',(#233),#463);
#31=OVER_RIDING_STYLED_ITEM('',(#60),#131,#57);
#32=OVER_RIDING_STYLED_ITEM('',(#61),#132,#57);
#33=OVER_RIDING_STYLED_ITEM('',(#62),#133,#57);
#34=OVER_RIDING_STYLED_ITEM('',(#63),#134,#57);
#35=OVER_RIDING_STYLED_ITEM('',(#64),#135,#57);
#36=OVER_RIDING_STYLED_ITEM('',(#65),#136,#57);
#37=OVER_RIDING_STYLED_ITEM('',(#66),#137,#57);
#38=OVER_RIDING_STYLED_ITEM('',(#67),#138,#57);
#39=OVER_RIDING_STYLED_ITEM('',(#68),#139,#57);
#40=COLOUR_RGB('Medium Steel',0.611764705882353,0.658823529411765,0.670588235294118);
#41=COLOUR_RGB('silver gray',0.6,0.6,0.6);
#42=CONICAL_SURFACE('',#251,16.4084172087815,75.0000000000823);
#43=VERTEX_LOOP('',#212);
#44=SURFACE_OF_REVOLUTION('',#46,#45);
#45=AXIS1_PLACEMENT('',#460,#288);
#46=B_SPLINE_CURVE_WITH_KNOTS('',3,(#396,#397,#398,#399,#400,#401,#402,
#403,#404,#405,#406,#407,#408,#409,#410,#411,#412,#413,#414,#415,#416,#417,
#418,#419,#420,#421,#422,#423,#424,#425,#426,#427,#428,#429,#430,#431,#432,
#433,#434,#435,#436,#437,#438,#439,#440,#441,#442,#443,#444,#445,#446,#447,
#448,#449,#450,#451,#452,#453,#454,#455,#456,#457,#458,#459),
 .UNSPECIFIED.,.T.,.F.,(2,2,2,2,2,2,2,2,2,2,2,2,2,2,2,2,2,2,2,2,2,2,2,2,
2,2,2,2,2,2,2,2,2,2),(-0.03125,0.,0.0625,0.09375,0.125,0.15625,0.1875,0.21875,
0.25,0.28125,0.3125,0.34375,0.375,0.40625,0.4375,0.46875,0.5,0.53125,0.5625,
0.59375,0.625,0.65625,0.6875,0.71875,0.75,0.78125,0.8125,0.84375,0.875,
0.90625,0.9375,0.96875,1.,1.0625),.UNSPECIFIED.);
#47=TOROIDAL_SURFACE('',#241,19.5,1.5);
#48=TOROIDAL_SURFACE('',#243,16.,5.);
#49=TOROIDAL_SURFACE('',#245,70.2,50.);
#50=TOROIDAL_SURFACE('',#247,18.,5.);
#51=PLANE('',#240);
#52=FACE_OUTER_BOUND('',#168,.T.);
#53=CYLINDRICAL_SURFACE('',#238,21.);
#54=CYLINDRICAL_SURFACE('',#249,23.);
#55=PRESENTATION_LAYER_ASSIGNMENT('1','Layer 1',(#125,#126));
#56=STYLED_ITEM('',(#58),#125);
#57=STYLED_ITEM('',(#59),#126);
#58=PRESENTATION_STYLE_ASSIGNMENT((#69));
#59=PRESENTATION_STYLE_ASSIGNMENT((#70));
#60=PRESENTATION_STYLE_ASSIGNMENT((#71));
#61=PRESENTATION_STYLE_ASSIGNMENT((#72));
#62=PRESENTATION_STYLE_ASSIGNMENT((#73));
#63=PRESENTATION_STYLE_ASSIGNMENT((#74));
#64=PRESENTATION_STYLE_ASSIGNMENT((#75));
#65=PRESENTATION_STYLE_ASSIGNMENT((#76));
#66=PRESENTATION_STYLE_ASSIGNMENT((#77));
#67=PRESENTATION_STYLE_ASSIGNMENT((#78));
#68=PRESENTATION_STYLE_ASSIGNMENT((#79));
#69=SURFACE_STYLE_USAGE(.BOTH.,#80);
#70=SURFACE_STYLE_USAGE(.BOTH.,#81);
#71=SURFACE_STYLE_USAGE(.BOTH.,#82);
#72=SURFACE_STYLE_USAGE(.BOTH.,#83);
#73=SURFACE_STYLE_USAGE(.BOTH.,#84);
#74=SURFACE_STYLE_USAGE(.BOTH.,#85);
#75=SURFACE_STYLE_USAGE(.BOTH.,#86);
#76=SURFACE_STYLE_USAGE(.BOTH.,#87);
#77=SURFACE_STYLE_USAGE(.BOTH.,#88);
#78=SURFACE_STYLE_USAGE(.BOTH.,#89);
#79=SURFACE_STYLE_USAGE(.BOTH.,#90);
#80=SURFACE_SIDE_STYLE('',(#91));
#81=SURFACE_SIDE_STYLE('',(#92));
#82=SURFACE_SIDE_STYLE('',(#93));
#83=SURFACE_SIDE_STYLE('',(#94));
#84=SURFACE_SIDE_STYLE('',(#95));
#85=SURFACE_SIDE_STYLE('',(#96));
#86=SURFACE_SIDE_STYLE('',(#97));
#87=SURFACE_SIDE_STYLE('',(#98));
#88=SURFACE_SIDE_STYLE('',(#99));
#89=SURFACE_SIDE_STYLE('',(#100));
#90=SURFACE_SIDE_STYLE('',(#101));
#91=SURFACE_STYLE_FILL_AREA(#102);
#92=SURFACE_STYLE_FILL_AREA(#103);
#93=SURFACE_STYLE_FILL_AREA(#104);
#94=SURFACE_STYLE_FILL_AREA(#105);
#95=SURFACE_STYLE_FILL_AREA(#106);
#96=SURFACE_STYLE_FILL_AREA(#107);
#97=SURFACE_STYLE_FILL_AREA(#108);
#98=SURFACE_STYLE_FILL_AREA(#109);
#99=SURFACE_STYLE_FILL_AREA(#110);
#100=SURFACE_STYLE_FILL_AREA(#111);
#101=SURFACE_STYLE_FILL_AREA(#112);
#102=FILL_AREA_STYLE('',(#113));
#103=FILL_AREA_STYLE('',(#114));
#104=FILL_AREA_STYLE('',(#115));
#105=FILL_AREA_STYLE('',(#116));
#106=FILL_AREA_STYLE('',(#117));
#107=FILL_AREA_STYLE('',(#118));
#108=FILL_AREA_STYLE('',(#119));
#109=FILL_AREA_STYLE('',(#120));
#110=FILL_AREA_STYLE('',(#121));
#111=FILL_AREA_STYLE('',(#122));
#112=FILL_AREA_STYLE('',(#123));
#113=FILL_AREA_STYLE_COLOUR('',#124);
#114=FILL_AREA_STYLE_COLOUR('',#40);
#115=FILL_AREA_STYLE_COLOUR('',#41);
#116=FILL_AREA_STYLE_COLOUR('',#41);
#117=FILL_AREA_STYLE_COLOUR('',#41);
#118=FILL_AREA_STYLE_COLOUR('',#41);
#119=FILL_AREA_STYLE_COLOUR('',#41);
#120=FILL_AREA_STYLE_COLOUR('',#41);
#121=FILL_AREA_STYLE_COLOUR('',#41);
#122=FILL_AREA_STYLE_COLOUR('',#41);
#123=FILL_AREA_STYLE_COLOUR('',#41);
#124=DRAUGHTING_PRE_DEFINED_COLOUR('yellow');
#125=MANIFOLD_SOLID_BREP('',#127);
#126=MANIFOLD_SOLID_BREP('',#128);
#127=CLOSED_SHELL('',(#129,#130));
#128=CLOSED_SHELL('',(#131,#132,#133,#134,#135,#136,#137,#138,#139));
#129=ADVANCED_FACE('',(#142,#143),#140,.F.);
#130=ADVANCED_FACE('',(#144,#145),#141,.F.);
#131=ADVANCED_FACE('',(#146,#147),#53,.T.);
#132=ADVANCED_FACE('',(#52),#51,.F.);
#133=ADVANCED_FACE('',(#148,#149),#47,.T.);
#134=ADVANCED_FACE('',(#150,#151),#48,.T.);
#135=ADVANCED_FACE('',(#152,#153),#49,.F.);
#136=ADVANCED_FACE('',(#154,#155),#50,.T.);
#137=ADVANCED_FACE('',(#156,#157),#54,.T.);
#138=ADVANCED_FACE('',(#158,#159),#44,.T.);
#139=ADVANCED_FACE('',(#160,#161),#42,.F.);
#140=(
BOUNDED_SURFACE()
B_SPLINE_SURFACE(3,3,((#296,#297,#298,#299,#300,#301,#302),(#303,#304,#305,
#306,#307,#308,#309),(#310,#311,#312,#313,#314,#315,#316),(#317,#318,#319,
#320,#321,#322,#323),(#324,#325,#326,#327,#328,#329,#330),(#331,#332,#333,
#334,#335,#336,#337),(#338,#339,#340,#341,#342,#343,#344)),
 .UNSPECIFIED.,.T.,.F.,.F.)
B_SPLINE_SURFACE_WITH_KNOTS((1,3,3,3,1),(4,3,4),(-0.5,0.,0.5,1.,1.5),(0.,
0.5,1.),.UNSPECIFIED.)
GEOMETRIC_REPRESENTATION_ITEM()
RATIONAL_B_SPLINE_SURFACE(((1.,0.595934225765813,0.595934225765813,1.,0.595934225765813,
0.595934225765813,1.),(0.333333333333334,0.198644741921938,0.198644741921938,
0.333333333333334,0.198644741921938,0.198644741921938,0.333333333333334),
(0.333333333333334,0.198644741921938,0.198644741921938,0.333333333333334,
0.198644741921938,0.198644741921938,0.333333333333334),(1.,0.595934225765813,
0.595934225765813,1.,0.595934225765813,0.595934225765813,1.),(0.333333333333334,
0.198644741921938,0.198644741921938,0.333333333333334,0.198644741921938,
0.198644741921938,0.333333333333334),(0.333333333333334,0.198644741921938,
0.198644741921938,0.333333333333334,0.198644741921938,0.198644741921938,
0.333333333333334),(1.,0.595934225765813,0.595934225765813,1.,0.595934225765813,
0.595934225765813,1.)))
REPRESENTATION_ITEM('')
SURFACE()
);
#141=(
BOUNDED_SURFACE()
B_SPLINE_SURFACE(3,3,((#345,#346,#347,#348),(#349,#350,#351,#352),(#353,
#354,#355,#356),(#357,#358,#359,#360),(#361,#362,#363,#364),(#365,#366,
#367,#368),(#369,#370,#371,#372)),.UNSPECIFIED.,.T.,.F.,.F.)
B_SPLINE_SURFACE_WITH_KNOTS((1,3,3,3,1),(4,4),(-0.5,0.,0.5,1.,1.5),(0.,
1.),.UNSPECIFIED.)
GEOMETRIC_REPRESENTATION_ITEM()
RATIONAL_B_SPLINE_SURFACE(((1.,0.793122313880995,0.793122313880995,1.),
(0.333333333333334,0.264374104626999,0.264374104626999,0.333333333333334),
(0.333333333333334,0.264374104626999,0.264374104626999,0.333333333333334),
(1.,0.793122313880995,0.793122313880995,1.),(0.333333333333334,0.264374104626999,
0.264374104626999,0.333333333333334),(0.333333333333334,0.264374104626999,
0.264374104626999,0.333333333333334),(1.,0.793122313880995,0.793122313880995,
1.)))
REPRESENTATION_ITEM('')
SURFACE()
);
#142=FACE_BOUND('',#162,.T.);
#143=FACE_BOUND('',#163,.T.);
#144=FACE_BOUND('',#164,.T.);
#145=FACE_BOUND('',#165,.T.);
#146=FACE_BOUND('',#166,.T.);
#147=FACE_BOUND('',#167,.T.);
#148=FACE_BOUND('',#169,.T.);
#149=FACE_BOUND('',#170,.T.);
#150=FACE_BOUND('',#171,.T.);
#151=FACE_BOUND('',#172,.T.);
#152=FACE_BOUND('',#173,.T.);
#153=FACE_BOUND('',#174,.T.);
#154=FACE_BOUND('',#175,.T.);
#155=FACE_BOUND('',#176,.T.);
#156=FACE_BOUND('',#177,.T.);
#157=FACE_BOUND('',#178,.T.);
#158=FACE_BOUND('',#179,.T.);
#159=FACE_BOUND('',#180,.T.);
#160=FACE_BOUND('',#181,.T.);
#161=FACE_BOUND('',#43,.T.);
#162=EDGE_LOOP('',(#182));
#163=EDGE_LOOP('',(#183));
#164=EDGE_LOOP('',(#184));
#165=EDGE_LOOP('',(#185));
#166=EDGE_LOOP('',(#186));
#167=EDGE_LOOP('',(#187));
#168=EDGE_LOOP('',(#188));
#169=EDGE_LOOP('',(#189));
#170=EDGE_LOOP('',(#190));
#171=EDGE_LOOP('',(#191));
#172=EDGE_LOOP('',(#192));
#173=EDGE_LOOP('',(#193));
#174=EDGE_LOOP('',(#194));
#175=EDGE_LOOP('',(#195));
#176=EDGE_LOOP('',(#196));
#177=EDGE_LOOP('',(#197));
#178=EDGE_LOOP('',(#198));
#179=EDGE_LOOP('',(#199));
#180=EDGE_LOOP('',(#200));
#181=EDGE_LOOP('',(#201));
#182=ORIENTED_EDGE('',*,*,#213,.T.);
#183=ORIENTED_EDGE('',*,*,#214,.F.);
#184=ORIENTED_EDGE('',*,*,#214,.T.);
#185=ORIENTED_EDGE('',*,*,#213,.F.);
#186=ORIENTED_EDGE('',*,*,#215,.T.);
#187=ORIENTED_EDGE('',*,*,#216,.F.);
#188=ORIENTED_EDGE('',*,*,#217,.F.);
#189=ORIENTED_EDGE('',*,*,#215,.F.);
#190=ORIENTED_EDGE('',*,*,#217,.T.);
#191=ORIENTED_EDGE('',*,*,#218,.F.);
#192=ORIENTED_EDGE('',*,*,#216,.T.);
#193=ORIENTED_EDGE('',*,*,#219,.F.);
#194=ORIENTED_EDGE('',*,*,#218,.T.);
#195=ORIENTED_EDGE('',*,*,#220,.F.);
#196=ORIENTED_EDGE('',*,*,#219,.T.);
#197=ORIENTED_EDGE('',*,*,#221,.F.);
#198=ORIENTED_EDGE('',*,*,#220,.T.);
#199=ORIENTED_EDGE('',*,*,#222,.F.);
#200=ORIENTED_EDGE('',*,*,#221,.T.);
#201=ORIENTED_EDGE('',*,*,#222,.T.);
#202=VERTEX_POINT('',#293);
#203=VERTEX_POINT('',#295);
#204=VERTEX_POINT('',#374);
#205=VERTEX_POINT('',#376);
#206=VERTEX_POINT('',#379);
#207=VERTEX_POINT('',#383);
#208=VERTEX_POINT('',#386);
#209=VERTEX_POINT('',#389);
#210=VERTEX_POINT('',#392);
#211=VERTEX_POINT('',#395);
#212=VERTEX_POINT('',#461);
#213=EDGE_CURVE('',#202,#202,#223,.T.);
#214=EDGE_CURVE('',#203,#203,#224,.T.);
#215=EDGE_CURVE('',#204,#204,#225,.T.);
#216=EDGE_CURVE('',#205,#205,#226,.T.);
#217=EDGE_CURVE('',#206,#206,#227,.T.);
#218=EDGE_CURVE('',#207,#207,#228,.T.);
#219=EDGE_CURVE('',#208,#208,#229,.T.);
#220=EDGE_CURVE('',#209,#209,#230,.T.);
#221=EDGE_CURVE('',#210,#210,#231,.T.);
#222=EDGE_CURVE('',#211,#211,#232,.T.);
#223=CIRCLE('',#234,5.);
#224=CIRCLE('',#235,5.);
#225=CIRCLE('',#236,21.);
#226=CIRCLE('',#237,21.);
#227=CIRCLE('',#239,19.5);
#228=CIRCLE('',#242,20.9272727272728);
#229=CIRCLE('',#244,22.7454545454545);
#230=CIRCLE('',#246,23.);
#231=CIRCLE('',#248,23.);
#232=CIRCLE('',#250,16.4084172087815);
#233=AXIS2_PLACEMENT_3D('',#291,#252,#253);
#234=AXIS2_PLACEMENT_3D('',#292,#254,#255);
#235=AXIS2_PLACEMENT_3D('',#294,#256,#257);
#236=AXIS2_PLACEMENT_3D('',#373,#258,#259);
#237=AXIS2_PLACEMENT_3D('',#375,#260,#261);
#238=AXIS2_PLACEMENT_3D('',#377,#262,#263);
#239=AXIS2_PLACEMENT_3D('',#378,#264,#265);
#240=AXIS2_PLACEMENT_3D('',#380,#266,#267);
#241=AXIS2_PLACEMENT_3D('',#381,#268,#269);
#242=AXIS2_PLACEMENT_3D('',#382,#270,#271);
#243=AXIS2_PLACEMENT_3D('',#384,#272,#273);
#244=AXIS2_PLACEMENT_3D('',#385,#274,#275);
#245=AXIS2_PLACEMENT_3D('',#387,#276,#277);
#246=AXIS2_PLACEMENT_3D('',#388,#278,#279);
#247=AXIS2_PLACEMENT_3D('',#390,#280,#281);
#248=AXIS2_PLACEMENT_3D('',#391,#282,#283);
#249=AXIS2_PLACEMENT_3D('',#393,#284,#285);
#250=AXIS2_PLACEMENT_3D('',#394,#286,#287);
#251=AXIS2_PLACEMENT_3D('',#462,#289,#290);
#252=DIRECTION('',(0.,0.,1.));
#253=DIRECTION('',(1.,0.,0.));
#254=DIRECTION('',(0.121869343405148,0.992324784375691,0.0209615231254276));
#255=DIRECTION('',(0.992510112580906,-0.122017706565567,0.00594606669288844));
#256=DIRECTION('',(0.121869343405148,-0.0692365195668007,0.990128359101119));
#257=DIRECTION('',(0.992510112580906,0.,-0.122162500075257));
#258=DIRECTION('',(-1.,0.,0.));
#259=DIRECTION('',(0.,0.,1.));
#260=DIRECTION('',(-1.,0.,0.));
#261=DIRECTION('',(0.,0.,1.));
#262=DIRECTION('',(-1.,0.,0.));
#263=DIRECTION('',(0.,0.,1.));
#264=DIRECTION('',(-1.,0.,0.));
#265=DIRECTION('',(0.,0.,1.));
#266=DIRECTION('',(-1.,0.,0.));
#267=DIRECTION('',(0.,0.,1.));
#268=DIRECTION('',(-1.,0.,0.));
#269=DIRECTION('',(0.,0.,1.));
#270=DIRECTION('',(-1.,0.,0.));
#271=DIRECTION('',(0.,0.,1.));
#272=DIRECTION('',(-1.,0.,0.));
#273=DIRECTION('',(0.,0.,1.));
#274=DIRECTION('',(-1.,0.,0.));
#275=DIRECTION('',(0.,0.,1.));
#276=DIRECTION('',(-1.,0.,0.));
#277=DIRECTION('',(0.,0.,1.));
#278=DIRECTION('',(-1.,0.,0.));
#279=DIRECTION('',(0.,0.,1.));
#280=DIRECTION('',(-1.,0.,0.));
#281=DIRECTION('',(0.,0.,1.));
#282=DIRECTION('',(-1.,0.,0.));
#283=DIRECTION('',(0.,0.,1.));
#284=DIRECTION('',(-1.,0.,0.));
#285=DIRECTION('',(0.,0.,1.));
#286=DIRECTION('',(-1.,0.,0.));
#287=DIRECTION('',(0.,0.,1.));
#288=DIRECTION('',(-1.,0.,0.));
#289=DIRECTION('',(-1.,0.,0.));
#290=DIRECTION('',(-6.94174608263124E-18,0.,1.));
#291=CARTESIAN_POINT('',(0.,0.,0.));
#292=CARTESIAN_POINT('',(4.96273075820661,0.366026867234041,19.9997330924308));
#293=CARTESIAN_POINT('',(9.92528132111114,-0.244061665593794,20.0294634258952));
#294=CARTESIAN_POINT('',(4.96273075820661,-19.9938441217327,-0.607862379048722));
#295=CARTESIAN_POINT('',(9.92528132111114,-19.9938441217327,-1.218674879425));
#296=CARTESIAN_POINT('',(9.92528132111114,-19.9938441217327,-1.218674879425));
#297=CARTESIAN_POINT('',(9.92528132111115,-18.7407434827407,-21.7773154716326));
#298=CARTESIAN_POINT('',(9.92528132111115,0.649385098585847,-28.7236006522621));
#299=CARTESIAN_POINT('',(9.92528132111114,14.6718796691044,-13.6372621226259));
#300=CARTESIAN_POINT('',(9.92528132111115,28.694374239623,1.44907640701027));
#301=CARTESIAN_POINT('',(9.92528132111115,20.3512044233399,20.2804194719026));
#302=CARTESIAN_POINT('',(9.92528132111114,-0.244061665593789,20.0294634258953));
#303=CARTESIAN_POINT('',(10.009862384379,-10.0178413933937,-0.53149542112545));
#304=CARTESIAN_POINT('',(10.009862384379,-9.47133201416708,-10.8323259899032));
#305=CARTESIAN_POINT('',(10.009862384379,0.211975268762482,-14.387511353933));
#306=CARTESIAN_POINT('',(10.009862384379,7.29400129212156,-6.88746533322664));
#307=CARTESIAN_POINT('',(10.009862384379,14.3760273154806,0.612580687479727));
#308=CARTESIAN_POINT('',(10.009862384379,10.2719590944435,10.076322386476));
#309=CARTESIAN_POINT('',(10.009862384379,-0.0432628612599927,10.0318374134904));
#310=CARTESIAN_POINT('',(0.0847612585699763,-10.0178413933937,0.690129579627115));
#311=CARTESIAN_POINT('',(0.0847612585699765,-10.7274661110428,-9.61070098915062));
#312=CARTESIAN_POINT('',(0.0847612585699765,-1.53895173039493,-14.3204654337053));
#313=CARTESIAN_POINT('',(0.0847612585699763,6.40940921671462,-7.72999990378798));
#314=CARTESIAN_POINT('',(0.0847612585699765,14.3577701638242,-1.13953437387069));
#315=CARTESIAN_POINT('',(0.0847612585699765,11.4309958174356,8.76221645978931));
#316=CARTESIAN_POINT('',(0.0847612585699763,1.17691420439567,9.97237674656149));
#317=CARTESIAN_POINT('',(0.00018019530207726,-19.9938441217327,0.0029501213275611));
#318=CARTESIAN_POINT('',(0.00018019530207726,-19.9968775796164,-20.55569047088));
#319=CARTESIAN_POINT('',(0.00018019530207726,-1.10154190057157,-28.6565547320344));
#320=CARTESIAN_POINT('',(0.00018019530207726,13.7872875936975,-14.4797966931872));
#321=CARTESIAN_POINT('',(0.00018019530207726,28.6761170879666,-0.303038654340143));
#322=CARTESIAN_POINT('',(0.00018019530207726,21.510241146332,18.9663135452159));
#323=CARTESIAN_POINT('',(0.00018019530207726,0.976115400061879,19.9700027589663));
#324=CARTESIAN_POINT('',(-0.0844008679658218,-29.9698468500717,-0.684229336971993));
#325=CARTESIAN_POINT('',(-0.0844008679658221,-29.2662890481901,-31.5006799526095));
#326=CARTESIAN_POINT('',(-0.0844008679658221,-0.6641320707482,-42.9926440303635));
#327=CARTESIAN_POINT('',(-0.0844008679658218,21.1651659706804,-21.2295934825865));
#328=CARTESIAN_POINT('',(-0.0844008679658221,42.9944640121091,0.533457065190404));
#329=CARTESIAN_POINT('',(-0.0844008679658221,31.5894864752284,29.1704106306425));
#330=CARTESIAN_POINT('',(-0.0844008679658218,0.775316595728083,29.9676287713712));
#331=CARTESIAN_POINT('',(9.84070025784323,-29.9698468500717,-1.90585433772456));
#332=CARTESIAN_POINT('',(9.84070025784324,-28.0101549513143,-32.7223049533621));
#333=CARTESIAN_POINT('',(9.84070025784324,1.08679492840921,-43.0596899505912));
#334=CARTESIAN_POINT('',(9.84070025784323,22.0497580460873,-20.3870589120252));
#335=CARTESIAN_POINT('',(9.84070025784324,43.0127211637655,2.28557212654081));
#336=CARTESIAN_POINT('',(9.84070025784324,30.4304497522363,30.4845165573293));
#337=CARTESIAN_POINT('',(9.84070025784323,-0.444860469927585,30.0270894383001));
#338=CARTESIAN_POINT('',(9.92528132111114,-19.9938441217327,-1.218674879425));
#339=CARTESIAN_POINT('',(9.92528132111115,-18.7407434827407,-21.7773154716326));
#340=CARTESIAN_POINT('',(9.92528132111115,0.649385098585847,-28.7236006522621));
#341=CARTESIAN_POINT('',(9.92528132111114,14.6718796691044,-13.6372621226259));
#342=CARTESIAN_POINT('',(9.92528132111115,28.694374239623,1.44907640701027));
#343=CARTESIAN_POINT('',(9.92528132111115,20.3512044233399,20.2804194719026));
#344=CARTESIAN_POINT('',(9.92528132111114,-0.244061665593789,20.0294634258953));
#345=CARTESIAN_POINT('',(9.92528132111114,-0.244061665593793,20.0294634258953));
#346=CARTESIAN_POINT('',(9.92528132111114,-12.4351652054861,19.8809132140346));
#347=CARTESIAN_POINT('',(9.92528132111114,-20.735600968665,10.9507486675573));
#348=CARTESIAN_POINT('',(9.92528132111114,-19.9938441217327,-1.218674879425));
#349=CARTESIAN_POINT('',(10.009862384379,-0.0432628612599946,10.0318374134904));
#350=CARTESIAN_POINT('',(10.009862384379,-6.14922616156044,10.0055051044396));
#351=CARTESIAN_POINT('',(10.009862384379,-10.3413406091311,5.56594908231474));
#352=CARTESIAN_POINT('',(10.009862384379,-10.0178413933937,-0.53149542112545));
#353=CARTESIAN_POINT('',(0.0847612585699763,1.17691420439567,9.97237674656149));
#354=CARTESIAN_POINT('',(0.0847612585699763,-4.89285785444874,10.6887156028889));
#355=CARTESIAN_POINT('',(0.0847612585699763,-9.59778814572163,6.78757408306731));
#356=CARTESIAN_POINT('',(0.0847612585699763,-10.0178413933937,0.690129579627115));
#357=CARTESIAN_POINT('',(0.00018019530207726,0.976115400061876,19.9700027589663));
#358=CARTESIAN_POINT('',(0.00018019530207726,-11.1787968983744,20.5641237124839));
#359=CARTESIAN_POINT('',(0.00018019530207726,-19.9920485052554,12.1723736683099));
#360=CARTESIAN_POINT('',(0.00018019530207726,-19.9938441217327,0.00295012132756122));
#361=CARTESIAN_POINT('',(-0.0844008679658218,0.775316595728077,29.9676287713712));
#362=CARTESIAN_POINT('',(-0.084400867965822,-17.4647359423,30.4395318220789));
#363=CARTESIAN_POINT('',(-0.084400867965822,-30.3863088647892,17.5571732535524));
#364=CARTESIAN_POINT('',(-0.0844008679658218,-29.9698468500717,-0.684229336971993));
#365=CARTESIAN_POINT('',(9.84070025784323,-0.444860469927593,30.0270894383001));
#366=CARTESIAN_POINT('',(9.84070025784324,-18.7211042494117,29.7563213236296));
#367=CARTESIAN_POINT('',(9.84070025784324,-31.1298613281987,16.3355482527998));
#368=CARTESIAN_POINT('',(9.84070025784323,-29.9698468500717,-1.90585433772456));
#369=CARTESIAN_POINT('',(9.92528132111114,-0.244061665593793,20.0294634258953));
#370=CARTESIAN_POINT('',(9.92528132111114,-12.4351652054861,19.8809132140346));
#371=CARTESIAN_POINT('',(9.92528132111114,-20.735600968665,10.9507486675573));
#372=CARTESIAN_POINT('',(9.92528132111114,-19.9938441217327,-1.218674879425));
#373=CARTESIAN_POINT('',(48.5,0.,0.));
#374=CARTESIAN_POINT('',(48.5,0.,21.));
#375=CARTESIAN_POINT('',(42.,0.,0.));
#376=CARTESIAN_POINT('',(42.,0.,21.));
#377=CARTESIAN_POINT('',(0.,0.,0.));
#378=CARTESIAN_POINT('',(50.,0.,0.));
#379=CARTESIAN_POINT('',(50.,0.,19.5));
#380=CARTESIAN_POINT('',(50.,12.,0.));
#381=CARTESIAN_POINT('',(48.5,0.,0.));
#382=CARTESIAN_POINT('',(41.1503038948693,0.,0.));
#383=CARTESIAN_POINT('',(41.1503038948693,0.,20.9272727272728));
#384=CARTESIAN_POINT('',(42.,0.,0.));
#385=CARTESIAN_POINT('',(16.9032280597742,0.,0.));
#386=CARTESIAN_POINT('',(16.9032280597742,0.,22.7454545454545));
#387=CARTESIAN_POINT('',(32.6533428435617,0.,0.));
#388=CARTESIAN_POINT('',(15.3282165813955,0.,0.));
#389=CARTESIAN_POINT('',(15.3282165813955,0.,23.));
#390=CARTESIAN_POINT('',(15.3282165813955,0.,0.));
#391=CARTESIAN_POINT('',(7.42706969322361,0.,0.));
#392=CARTESIAN_POINT('',(7.42706969322361,0.,23.));
#393=CARTESIAN_POINT('',(0.,0.,0.));
#394=CARTESIAN_POINT('',(3.00000000001213,0.,0.));
#395=CARTESIAN_POINT('',(3.00000000001213,0.,16.4084172087815));
#396=CARTESIAN_POINT('',(0.555327737274827,20.3063741034573,0.));
#397=CARTESIAN_POINT('',(0.562093990256454,19.5100158287915,0.));
#398=CARTESIAN_POINT('',(0.672563956348139,18.9835187059918,0.));
#399=CARTESIAN_POINT('',(0.981150801410169,18.2608011874573,0.));
#400=CARTESIAN_POINT('',(1.10974551290469,18.02691069334,0.));
#401=CARTESIAN_POINT('',(1.40867941645302,17.5934032629091,0.));
#402=CARTESIAN_POINT('',(1.57809494055033,17.3938155412872,0.));
#403=CARTESIAN_POINT('',(1.95688253072049,17.0290231973678,0.));
#404=CARTESIAN_POINT('',(2.1672962144155,16.8639926000244,0.));
#405=CARTESIAN_POINT('',(2.60992059151519,16.5838111105778,0.));
#406=CARTESIAN_POINT('',(2.84419898869534,16.4663480794675,0.));
#407=CARTESIAN_POINT('',(3.3394542361613,16.2780142762494,0.));
#408=CARTESIAN_POINT('',(3.59414036853945,16.209781547296,0.));
#409=CARTESIAN_POINT('',(4.11033140901737,16.1245335796994,0.));
#410=CARTESIAN_POINT('',(4.37543003597509,16.107255520015,0.));
#411=CARTESIAN_POINT('',(4.90297689679019,16.1251819175636,0.));
#412=CARTESIAN_POINT('',(5.16242038004583,16.1597325485408,0.));
#413=CARTESIAN_POINT('',(5.67293597774293,16.2783036595401,0.));
#414=CARTESIAN_POINT('',(5.92638828983186,16.3637156480074,0.));
#415=CARTESIAN_POINT('',(6.40568433652319,16.5785605476891,0.));
#416=CARTESIAN_POINT('',(6.63318102485419,16.7078482331771,0.));
#417=CARTESIAN_POINT('',(7.06384032001477,17.0102105975699,0.));
#418=CARTESIAN_POINT('',(7.2665647280832,17.1838479449978,0.));
#419=CARTESIAN_POINT('',(7.63016735380318,17.5609975015511,0.));
#420=CARTESIAN_POINT('',(7.79351773142454,17.7660437239016,0.));
#421=CARTESIAN_POINT('',(8.08185950559755,18.2103798426085,0.));
#422=CARTESIAN_POINT('',(8.20325882820398,18.4445316071312,0.));
#423=CARTESIAN_POINT('',(8.39865835500899,18.9303557867476,0.));
#424=CARTESIAN_POINT('',(8.47367314498505,19.1854872388359,0.));
#425=CARTESIAN_POINT('',(8.57185343063147,19.7039052819297,0.));
#426=CARTESIAN_POINT('',(8.59513437883049,19.9647574158214,0.));
#427=CARTESIAN_POINT('',(8.59041289259363,20.4897265804886,0.));
#428=CARTESIAN_POINT('',(8.56153456381712,20.7558152109301,0.));
#429=CARTESIAN_POINT('',(8.45333185878385,21.2691492648353,0.));
#430=CARTESIAN_POINT('',(8.37436493936914,21.5189016935841,0.));
#431=CARTESIAN_POINT('',(8.16539848966449,22.004215440903,0.));
#432=CARTESIAN_POINT('',(8.03647309523321,22.2360611749577,0.));
#433=CARTESIAN_POINT('',(7.73799482052846,22.6661021605478,0.));
#434=CARTESIAN_POINT('',(7.56605801840836,22.8678027834898,0.));
#435=CARTESIAN_POINT('',(7.18430552729036,23.2334492164888,0.));
#436=CARTESIAN_POINT('',(6.97793631191695,23.3947102872084,0.));
#437=CARTESIAN_POINT('',(6.53505250153786,23.6752779758862,0.));
#438=CARTESIAN_POINT('',(6.2958159033233,23.7952719255475,0.));
#439=CARTESIAN_POINT('',(5.80535042155773,23.9828234006957,0.));
#440=CARTESIAN_POINT('',(5.55291125107423,24.0517749653976,0.));
#441=CARTESIAN_POINT('',(5.03356065638181,24.1398251512166,0.));
#442=CARTESIAN_POINT('',(4.76754773194884,24.1580599434822,0.));
#443=CARTESIAN_POINT('',(4.2442886589974,24.1427360900533,0.));
#444=CARTESIAN_POINT('',(3.9841339761129,24.1097920217907,0.));
#445=CARTESIAN_POINT('',(3.46687854204001,23.9915529713313,0.));
#446=CARTESIAN_POINT('',(3.21782590225148,23.9080365526296,0.));
#447=CARTESIAN_POINT('',(2.7397641679561,23.6950044046102,0.));
#448=CARTESIAN_POINT('',(2.50829200578942,23.5637973976639,0.));
#449=CARTESIAN_POINT('',(2.07702076300765,23.2603132226198,0.));
#450=CARTESIAN_POINT('',(1.87852514307177,23.0896810894956,0.));
#451=CARTESIAN_POINT('',(1.51518766303603,22.7113269163616,0.));
#452=CARTESIAN_POINT('',(1.34935436972326,22.5013879924288,0.));
#453=CARTESIAN_POINT('',(1.06528015076721,22.0600510691099,0.));
#454=CARTESIAN_POINT('',(0.945270730683031,21.8274218902976,0.));
#455=CARTESIAN_POINT('',(0.749942641546892,21.3378971004161,0.));
#456=CARTESIAN_POINT('',(0.675744763051258,21.0821040442395,0.));
#457=CARTESIAN_POINT('',(0.579005065914116,20.5676207321124,0.));
#458=CARTESIAN_POINT('',(0.555327737274827,20.3063741034573,0.));
#459=CARTESIAN_POINT('',(0.562093990256454,19.5100158287915,0.));
#460=CARTESIAN_POINT('',(0.,0.,0.));
#461=CARTESIAN_POINT('',(7.3966221401528,0.,0.));
#462=CARTESIAN_POINT('',(3.00000000001213,0.,0.));
#463=(
GEOMETRIC_REPRESENTATION_CONTEXT(3)
GLOBAL_UNCERTAINTY_ASSIGNED_CONTEXT((#464))
GLOBAL_UNIT_ASSIGNED_CONTEXT((#470,#466,#465))
REPRESENTATION_CONTEXT('model1','TOP_LEVEL_ASSEMBLY_PART')
);
#464=UNCERTAINTY_MEASURE_WITH_UNIT(LENGTH_MEASURE(2.E-5),#470,
'DISTANCE_ACCURACY_VALUE','Maximum Tolerance applied to model');
#465=(
NAMED_UNIT(*)
SI_UNIT($,.STERADIAN.)
SOLID_ANGLE_UNIT()
);
#466=(
CONVERSION_BASED_UNIT('DEGREE',#468)
NAMED_UNIT(#467)
PLANE_ANGLE_UNIT()
);
#467=DIMENSIONAL_EXPONENTS(0.,0.,0.,0.,0.,0.,0.);
#468=PLANE_ANGLE_MEASURE_WITH_UNIT(PLANE_ANGLE_MEASURE(0.0174532925),#469);
#469=(
NAMED_UNIT(*)
PLANE_ANGLE_UNIT()
SI_UNIT($,.RADIAN.)
);
#470=(
LENGTH_UNIT()
NAMED_UNIT(*)
SI_UNIT(.MILLI.,.METRE.)
);
ENDSEC;
END-ISO-10303-21;
