ISO-10303-21;
HEADER;
/* Generated by software containing ST-Developer
 * from STEP Tools, Inc. (www.steptools.com) 
 */
/* OPTION: using custom schema-name function */

FILE_DESCRIPTION(
/* description */ (''),
/* implementation_level */ '2;1');

FILE_NAME(
/* name */ 'model1.stp',
/* time_stamp */ '2023-11-02T16:03:53+03:00',
/* author */ (''),
/* organization */ (''),
/* preprocessor_version */ 'ST-DEVELOPER v19.4',
/* originating_system */ 'SIEMENS PLM Software NX2306.3001',
/* authorisation */ '');

FILE_SCHEMA (('AUTOMOTIVE_DESIGN { 1 0 10303 214 3 1 1 1 }'));
ENDSEC;

DATA;
#10=PROPERTY_DEFINITION_REPRESENTATION(#14,#12);
#11=PROPERTY_DEFINITION_REPRESENTATION(#15,#13);
#12=REPRESENTATION('',(#16),#490);
#13=REPRESENTATION('',(#17),#490);
#14=PROPERTY_DEFINITION('pmi validation property','',#21);
#15=PROPERTY_DEFINITION('pmi validation property','',#21);
#16=VALUE_REPRESENTATION_ITEM('number of annotations',COUNT_MEASURE(0.));
#17=VALUE_REPRESENTATION_ITEM('number of views',COUNT_MEASURE(0.));
#18=SHAPE_REPRESENTATION_RELATIONSHIP('None',
'relationship between model1_objects-None and model1_objects-None',#30,
#19);
#19=ADVANCED_BREP_SHAPE_REPRESENTATION('model1_objects-None',(#133,#134),
#490);
#20=SHAPE_DEFINITION_REPRESENTATION(#21,#30);
#21=PRODUCT_DEFINITION_SHAPE('','',#22);
#22=PRODUCT_DEFINITION(' ','',#24,#23);
#23=PRODUCT_DEFINITION_CONTEXT('part definition',#29,'design');
#24=PRODUCT_DEFINITION_FORMATION_WITH_SPECIFIED_SOURCE(' ',' ',#26,
 .NOT_KNOWN.);
#25=PRODUCT_RELATED_PRODUCT_CATEGORY('part','',(#26));
#26=PRODUCT('model1_objects','model1_objects',' ',(#27));
#27=PRODUCT_CONTEXT(' ',#29,'mechanical');
#28=APPLICATION_PROTOCOL_DEFINITION('international standard',
'automotive_design',2010,#29);
#29=APPLICATION_CONTEXT(
'core data for automotive mechanical design processes');
#30=SHAPE_REPRESENTATION('model1_objects-None',(#251),#490);
#31=OVER_RIDING_STYLED_ITEM('',(#62),#139,#59);
#32=OVER_RIDING_STYLED_ITEM('',(#63),#140,#59);
#33=OVER_RIDING_STYLED_ITEM('',(#64),#141,#59);
#34=OVER_RIDING_STYLED_ITEM('',(#65),#142,#59);
#35=OVER_RIDING_STYLED_ITEM('',(#66),#143,#59);
#36=OVER_RIDING_STYLED_ITEM('',(#67),#144,#59);
#37=OVER_RIDING_STYLED_ITEM('',(#68),#145,#59);
#38=OVER_RIDING_STYLED_ITEM('',(#69),#146,#59);
#39=OVER_RIDING_STYLED_ITEM('',(#70),#147,#59);
#40=OVER_RIDING_STYLED_ITEM('',(#71),#148,#59);
#41=COLOUR_RGB('Medium Steel',0.611764705882353,0.658823529411765,0.670588235294118);
#42=COLOUR_RGB('silver gray',0.6,0.6,0.6);
#43=VERTEX_LOOP('',#228);
#44=SURFACE_OF_REVOLUTION('',#46,#45);
#45=AXIS1_PLACEMENT('',#487,#312);
#46=B_SPLINE_CURVE_WITH_KNOTS('',3,(#423,#424,#425,#426,#427,#428,#429,
#430,#431,#432,#433,#434,#435,#436,#437,#438,#439,#440,#441,#442,#443,#444,
#445,#446,#447,#448,#449,#450,#451,#452,#453,#454,#455,#456,#457,#458,#459,
#460,#461,#462,#463,#464,#465,#466,#467,#468,#469,#470,#471,#472,#473,#474,
#475,#476,#477,#478,#479,#480,#481,#482,#483,#484,#485,#486),
 .UNSPECIFIED.,.T.,.F.,(2,2,2,2,2,2,2,2,2,2,2,2,2,2,2,2,2,2,2,2,2,2,2,2,
2,2,2,2,2,2,2,2,2,2),(-0.03125,0.,0.0625,0.09375,0.125,0.15625,0.1875,0.21875,
0.25,0.28125,0.3125,0.34375,0.375,0.40625,0.4375,0.46875,0.5,0.53125,0.5625,
0.59375,0.625,0.65625,0.6875,0.71875,0.75,0.78125,0.8125,0.84375,0.875,
0.90625,0.9375,0.96875,1.,1.0625),.UNSPECIFIED.);
#47=CONICAL_SURFACE('',#261,24.,30.);
#48=CONICAL_SURFACE('',#271,22.8165690846287,75.0000000000002);
#49=TOROIDAL_SURFACE('',#259,22.5,1.5);
#50=TOROIDAL_SURFACE('',#265,77.8,54.);
#51=TOROIDAL_SURFACE('',#267,24.5,5.);
#52=PLANE('',#258);
#53=FACE_OUTER_BOUND('',#179,.T.);
#54=CYLINDRICAL_SURFACE('',#256,24.);
#55=CYLINDRICAL_SURFACE('',#263,23.8);
#56=CYLINDRICAL_SURFACE('',#269,29.5);
#57=PRESENTATION_LAYER_ASSIGNMENT('1','Layer 1',(#133,#134));
#58=STYLED_ITEM('',(#60),#133);
#59=STYLED_ITEM('',(#61),#134);
#60=PRESENTATION_STYLE_ASSIGNMENT((#72));
#61=PRESENTATION_STYLE_ASSIGNMENT((#73));
#62=PRESENTATION_STYLE_ASSIGNMENT((#74));
#63=PRESENTATION_STYLE_ASSIGNMENT((#75));
#64=PRESENTATION_STYLE_ASSIGNMENT((#76));
#65=PRESENTATION_STYLE_ASSIGNMENT((#77));
#66=PRESENTATION_STYLE_ASSIGNMENT((#78));
#67=PRESENTATION_STYLE_ASSIGNMENT((#79));
#68=PRESENTATION_STYLE_ASSIGNMENT((#80));
#69=PRESENTATION_STYLE_ASSIGNMENT((#81));
#70=PRESENTATION_STYLE_ASSIGNMENT((#82));
#71=PRESENTATION_STYLE_ASSIGNMENT((#83));
#72=SURFACE_STYLE_USAGE(.BOTH.,#84);
#73=SURFACE_STYLE_USAGE(.BOTH.,#85);
#74=SURFACE_STYLE_USAGE(.BOTH.,#86);
#75=SURFACE_STYLE_USAGE(.BOTH.,#87);
#76=SURFACE_STYLE_USAGE(.BOTH.,#88);
#77=SURFACE_STYLE_USAGE(.BOTH.,#89);
#78=SURFACE_STYLE_USAGE(.BOTH.,#90);
#79=SURFACE_STYLE_USAGE(.BOTH.,#91);
#80=SURFACE_STYLE_USAGE(.BOTH.,#92);
#81=SURFACE_STYLE_USAGE(.BOTH.,#93);
#82=SURFACE_STYLE_USAGE(.BOTH.,#94);
#83=SURFACE_STYLE_USAGE(.BOTH.,#95);
#84=SURFACE_SIDE_STYLE('',(#96));
#85=SURFACE_SIDE_STYLE('',(#97));
#86=SURFACE_SIDE_STYLE('',(#98));
#87=SURFACE_SIDE_STYLE('',(#99));
#88=SURFACE_SIDE_STYLE('',(#100));
#89=SURFACE_SIDE_STYLE('',(#101));
#90=SURFACE_SIDE_STYLE('',(#102));
#91=SURFACE_SIDE_STYLE('',(#103));
#92=SURFACE_SIDE_STYLE('',(#104));
#93=SURFACE_SIDE_STYLE('',(#105));
#94=SURFACE_SIDE_STYLE('',(#106));
#95=SURFACE_SIDE_STYLE('',(#107));
#96=SURFACE_STYLE_FILL_AREA(#108);
#97=SURFACE_STYLE_FILL_AREA(#109);
#98=SURFACE_STYLE_FILL_AREA(#110);
#99=SURFACE_STYLE_FILL_AREA(#111);
#100=SURFACE_STYLE_FILL_AREA(#112);
#101=SURFACE_STYLE_FILL_AREA(#113);
#102=SURFACE_STYLE_FILL_AREA(#114);
#103=SURFACE_STYLE_FILL_AREA(#115);
#104=SURFACE_STYLE_FILL_AREA(#116);
#105=SURFACE_STYLE_FILL_AREA(#117);
#106=SURFACE_STYLE_FILL_AREA(#118);
#107=SURFACE_STYLE_FILL_AREA(#119);
#108=FILL_AREA_STYLE('',(#120));
#109=FILL_AREA_STYLE('',(#121));
#110=FILL_AREA_STYLE('',(#122));
#111=FILL_AREA_STYLE('',(#123));
#112=FILL_AREA_STYLE('',(#124));
#113=FILL_AREA_STYLE('',(#125));
#114=FILL_AREA_STYLE('',(#126));
#115=FILL_AREA_STYLE('',(#127));
#116=FILL_AREA_STYLE('',(#128));
#117=FILL_AREA_STYLE('',(#129));
#118=FILL_AREA_STYLE('',(#130));
#119=FILL_AREA_STYLE('',(#131));
#120=FILL_AREA_STYLE_COLOUR('',#132);
#121=FILL_AREA_STYLE_COLOUR('',#41);
#122=FILL_AREA_STYLE_COLOUR('',#42);
#123=FILL_AREA_STYLE_COLOUR('',#42);
#124=FILL_AREA_STYLE_COLOUR('',#42);
#125=FILL_AREA_STYLE_COLOUR('',#42);
#126=FILL_AREA_STYLE_COLOUR('',#42);
#127=FILL_AREA_STYLE_COLOUR('',#42);
#128=FILL_AREA_STYLE_COLOUR('',#42);
#129=FILL_AREA_STYLE_COLOUR('',#42);
#130=FILL_AREA_STYLE_COLOUR('',#42);
#131=FILL_AREA_STYLE_COLOUR('',#42);
#132=DRAUGHTING_PRE_DEFINED_COLOUR('yellow');
#133=MANIFOLD_SOLID_BREP('',#135);
#134=MANIFOLD_SOLID_BREP('',#136);
#135=CLOSED_SHELL('',(#137,#138));
#136=CLOSED_SHELL('',(#139,#140,#141,#142,#143,#144,#145,#146,#147,#148));
#137=ADVANCED_FACE('',(#151,#152),#149,.F.);
#138=ADVANCED_FACE('',(#153,#154),#150,.F.);
#139=ADVANCED_FACE('',(#155,#156),#54,.T.);
#140=ADVANCED_FACE('',(#53),#52,.F.);
#141=ADVANCED_FACE('',(#157,#158),#49,.T.);
#142=ADVANCED_FACE('',(#159,#160),#47,.T.);
#143=ADVANCED_FACE('',(#161,#162),#55,.T.);
#144=ADVANCED_FACE('',(#163,#164),#50,.F.);
#145=ADVANCED_FACE('',(#165,#166),#51,.T.);
#146=ADVANCED_FACE('',(#167,#168),#56,.T.);
#147=ADVANCED_FACE('',(#169,#170),#44,.T.);
#148=ADVANCED_FACE('',(#171,#172),#48,.F.);
#149=(
BOUNDED_SURFACE()
B_SPLINE_SURFACE(3,3,((#320,#321,#322,#323,#324,#325,#326),(#327,#328,#329,
#330,#331,#332,#333),(#334,#335,#336,#337,#338,#339,#340),(#341,#342,#343,
#344,#345,#346,#347),(#348,#349,#350,#351,#352,#353,#354),(#355,#356,#357,
#358,#359,#360,#361),(#362,#363,#364,#365,#366,#367,#368)),
 .UNSPECIFIED.,.T.,.F.,.F.)
B_SPLINE_SURFACE_WITH_KNOTS((1,3,3,3,1),(4,3,4),(-0.5,0.,0.5,1.,1.5),(0.,
0.5,1.),.UNSPECIFIED.)
GEOMETRIC_REPRESENTATION_ITEM()
RATIONAL_B_SPLINE_SURFACE(((1.,0.5942331404306,0.5942331404306,1.,0.5942331404306,
0.5942331404306,1.),(0.333333333333334,0.198077713476867,0.198077713476867,
0.333333333333334,0.198077713476867,0.198077713476867,0.333333333333334),
(0.333333333333334,0.198077713476867,0.198077713476867,0.333333333333334,
0.198077713476867,0.198077713476867,0.333333333333334),(1.,0.5942331404306,
0.5942331404306,1.,0.5942331404306,0.5942331404306,1.),(0.333333333333334,
0.198077713476867,0.198077713476867,0.333333333333334,0.198077713476867,
0.198077713476867,0.333333333333334),(0.333333333333334,0.198077713476867,
0.198077713476867,0.333333333333334,0.198077713476867,0.198077713476867,
0.333333333333334),(1.,0.5942331404306,0.5942331404306,1.,0.5942331404306,
0.5942331404306,1.)))
REPRESENTATION_ITEM('')
SURFACE()
);
#150=(
BOUNDED_SURFACE()
B_SPLINE_SURFACE(3,3,((#369,#370,#371,#372),(#373,#374,#375,#376),(#377,
#378,#379,#380),(#381,#382,#383,#384),(#385,#386,#387,#388),(#389,#390,
#391,#392),(#393,#394,#395,#396)),.UNSPECIFIED.,.T.,.F.,.F.)
B_SPLINE_SURFACE_WITH_KNOTS((1,3,3,3,1),(4,4),(-0.5,0.,0.5,1.,1.5),(0.,
1.),.UNSPECIFIED.)
GEOMETRIC_REPRESENTATION_ITEM()
RATIONAL_B_SPLINE_SURFACE(((1.,0.795793871969827,0.795793871969827,1.),
(0.333333333333334,0.265264623989942,0.265264623989942,0.333333333333334),
(0.333333333333334,0.265264623989942,0.265264623989942,0.333333333333334),
(1.,0.795793871969827,0.795793871969827,1.),(0.333333333333334,0.265264623989942,
0.265264623989942,0.333333333333334),(0.333333333333334,0.265264623989942,
0.265264623989942,0.333333333333334),(1.,0.795793871969827,0.795793871969827,
1.)))
REPRESENTATION_ITEM('')
SURFACE()
);
#151=FACE_BOUND('',#173,.T.);
#152=FACE_BOUND('',#174,.T.);
#153=FACE_BOUND('',#175,.T.);
#154=FACE_BOUND('',#176,.T.);
#155=FACE_BOUND('',#177,.T.);
#156=FACE_BOUND('',#178,.T.);
#157=FACE_BOUND('',#180,.T.);
#158=FACE_BOUND('',#181,.T.);
#159=FACE_BOUND('',#182,.T.);
#160=FACE_BOUND('',#183,.T.);
#161=FACE_BOUND('',#184,.T.);
#162=FACE_BOUND('',#185,.T.);
#163=FACE_BOUND('',#186,.T.);
#164=FACE_BOUND('',#187,.T.);
#165=FACE_BOUND('',#188,.T.);
#166=FACE_BOUND('',#189,.T.);
#167=FACE_BOUND('',#190,.T.);
#168=FACE_BOUND('',#191,.T.);
#169=FACE_BOUND('',#192,.T.);
#170=FACE_BOUND('',#193,.T.);
#171=FACE_BOUND('',#194,.T.);
#172=FACE_BOUND('',#43,.T.);
#173=EDGE_LOOP('',(#195));
#174=EDGE_LOOP('',(#196));
#175=EDGE_LOOP('',(#197));
#176=EDGE_LOOP('',(#198));
#177=EDGE_LOOP('',(#199));
#178=EDGE_LOOP('',(#200));
#179=EDGE_LOOP('',(#201));
#180=EDGE_LOOP('',(#202));
#181=EDGE_LOOP('',(#203));
#182=EDGE_LOOP('',(#204));
#183=EDGE_LOOP('',(#205));
#184=EDGE_LOOP('',(#206));
#185=EDGE_LOOP('',(#207));
#186=EDGE_LOOP('',(#208));
#187=EDGE_LOOP('',(#209));
#188=EDGE_LOOP('',(#210));
#189=EDGE_LOOP('',(#211));
#190=EDGE_LOOP('',(#212));
#191=EDGE_LOOP('',(#213));
#192=EDGE_LOOP('',(#214));
#193=EDGE_LOOP('',(#215));
#194=EDGE_LOOP('',(#216));
#195=ORIENTED_EDGE('',*,*,#229,.T.);
#196=ORIENTED_EDGE('',*,*,#230,.F.);
#197=ORIENTED_EDGE('',*,*,#230,.T.);
#198=ORIENTED_EDGE('',*,*,#229,.F.);
#199=ORIENTED_EDGE('',*,*,#231,.T.);
#200=ORIENTED_EDGE('',*,*,#232,.F.);
#201=ORIENTED_EDGE('',*,*,#233,.F.);
#202=ORIENTED_EDGE('',*,*,#233,.T.);
#203=ORIENTED_EDGE('',*,*,#231,.F.);
#204=ORIENTED_EDGE('',*,*,#234,.F.);
#205=ORIENTED_EDGE('',*,*,#232,.T.);
#206=ORIENTED_EDGE('',*,*,#235,.F.);
#207=ORIENTED_EDGE('',*,*,#234,.T.);
#208=ORIENTED_EDGE('',*,*,#236,.F.);
#209=ORIENTED_EDGE('',*,*,#235,.T.);
#210=ORIENTED_EDGE('',*,*,#237,.F.);
#211=ORIENTED_EDGE('',*,*,#236,.T.);
#212=ORIENTED_EDGE('',*,*,#238,.F.);
#213=ORIENTED_EDGE('',*,*,#237,.T.);
#214=ORIENTED_EDGE('',*,*,#239,.F.);
#215=ORIENTED_EDGE('',*,*,#238,.T.);
#216=ORIENTED_EDGE('',*,*,#239,.T.);
#217=VERTEX_POINT('',#317);
#218=VERTEX_POINT('',#319);
#219=VERTEX_POINT('',#398);
#220=VERTEX_POINT('',#400);
#221=VERTEX_POINT('',#403);
#222=VERTEX_POINT('',#407);
#223=VERTEX_POINT('',#410);
#224=VERTEX_POINT('',#413);
#225=VERTEX_POINT('',#416);
#226=VERTEX_POINT('',#419);
#227=VERTEX_POINT('',#422);
#228=VERTEX_POINT('',#488);
#229=EDGE_CURVE('',#217,#217,#240,.T.);
#230=EDGE_CURVE('',#218,#218,#241,.T.);
#231=EDGE_CURVE('',#219,#219,#242,.T.);
#232=EDGE_CURVE('',#220,#220,#243,.T.);
#233=EDGE_CURVE('',#221,#221,#244,.T.);
#234=EDGE_CURVE('',#222,#222,#245,.T.);
#235=EDGE_CURVE('',#223,#223,#246,.T.);
#236=EDGE_CURVE('',#224,#224,#247,.T.);
#237=EDGE_CURVE('',#225,#225,#248,.T.);
#238=EDGE_CURVE('',#226,#226,#249,.T.);
#239=EDGE_CURVE('',#227,#227,#250,.T.);
#240=CIRCLE('',#252,5.);
#241=CIRCLE('',#253,5.);
#242=CIRCLE('',#254,24.);
#243=CIRCLE('',#255,24.);
#244=CIRCLE('',#257,22.5);
#245=CIRCLE('',#260,23.8);
#246=CIRCLE('',#262,23.8);
#247=CIRCLE('',#264,29.0169491525424);
#248=CIRCLE('',#266,29.5);
#249=CIRCLE('',#268,29.5);
#250=CIRCLE('',#270,22.8165690846287);
#251=AXIS2_PLACEMENT_3D('',#315,#272,#273);
#252=AXIS2_PLACEMENT_3D('',#316,#274,#275);
#253=AXIS2_PLACEMENT_3D('',#318,#276,#277);
#254=AXIS2_PLACEMENT_3D('',#397,#278,#279);
#255=AXIS2_PLACEMENT_3D('',#399,#280,#281);
#256=AXIS2_PLACEMENT_3D('',#401,#282,#283);
#257=AXIS2_PLACEMENT_3D('',#402,#284,#285);
#258=AXIS2_PLACEMENT_3D('',#404,#286,#287);
#259=AXIS2_PLACEMENT_3D('',#405,#288,#289);
#260=AXIS2_PLACEMENT_3D('',#406,#290,#291);
#261=AXIS2_PLACEMENT_3D('',#408,#292,#293);
#262=AXIS2_PLACEMENT_3D('',#409,#294,#295);
#263=AXIS2_PLACEMENT_3D('',#411,#296,#297);
#264=AXIS2_PLACEMENT_3D('',#412,#298,#299);
#265=AXIS2_PLACEMENT_3D('',#414,#300,#301);
#266=AXIS2_PLACEMENT_3D('',#415,#302,#303);
#267=AXIS2_PLACEMENT_3D('',#417,#304,#305);
#268=AXIS2_PLACEMENT_3D('',#418,#306,#307);
#269=AXIS2_PLACEMENT_3D('',#420,#308,#309);
#270=AXIS2_PLACEMENT_3D('',#421,#310,#311);
#271=AXIS2_PLACEMENT_3D('',#489,#313,#314);
#272=DIRECTION('',(0.,0.,1.));
#273=DIRECTION('',(1.,0.,0.));
#274=DIRECTION('',(0.121869343405148,0.992031058946642,0.0319725073024096));
#275=DIRECTION('',(0.992510112580906,-0.122076179065843,0.00459161511031092));
#276=DIRECTION('',(0.121869343405148,-0.0692365195668007,0.990128359101119));
#277=DIRECTION('',(0.992510112580906,0.,-0.122162500075257));
#278=DIRECTION('',(-1.,0.,0.));
#279=DIRECTION('',(0.,0.,1.));
#280=DIRECTION('',(-1.,0.,0.));
#281=DIRECTION('',(0.,0.,1.));
#282=DIRECTION('',(-1.,0.,0.));
#283=DIRECTION('',(0.,0.,1.));
#284=DIRECTION('',(-1.,0.,0.));
#285=DIRECTION('',(0.,0.,1.));
#286=DIRECTION('',(-1.,0.,0.));
#287=DIRECTION('',(0.,0.,1.));
#288=DIRECTION('',(-1.,0.,0.));
#289=DIRECTION('',(0.,0.,1.));
#290=DIRECTION('',(-1.,0.,0.));
#291=DIRECTION('',(0.,0.,1.));
#292=DIRECTION('',(1.,0.,0.));
#293=DIRECTION('',(5.76942778562153E-17,0.,-1.));
#294=DIRECTION('',(-1.,0.,0.));
#295=DIRECTION('',(0.,0.,1.));
#296=DIRECTION('',(-1.,0.,0.));
#297=DIRECTION('',(0.,0.,1.));
#298=DIRECTION('',(-1.,0.,0.));
#299=DIRECTION('',(0.,0.,1.));
#300=DIRECTION('',(-1.,0.,0.));
#301=DIRECTION('',(0.,0.,1.));
#302=DIRECTION('',(-1.,0.,0.));
#303=DIRECTION('',(0.,0.,1.));
#304=DIRECTION('',(-1.,0.,0.));
#305=DIRECTION('',(0.,0.,1.));
#306=DIRECTION('',(-1.,0.,0.));
#307=DIRECTION('',(0.,0.,1.));
#308=DIRECTION('',(-1.,0.,0.));
#309=DIRECTION('',(0.,0.,1.));
#310=DIRECTION('',(-1.,0.,0.));
#311=DIRECTION('',(0.,0.,1.));
#312=DIRECTION('',(-1.,0.,0.));
#313=DIRECTION('',(-1.,0.,0.));
#314=DIRECTION('',(6.92989912278677E-19,0.,1.));
#315=CARTESIAN_POINT('',(0.,0.,0.));
#316=CARTESIAN_POINT('',(4.96273075820661,0.388508538684532,26.5017042892158));
#317=CARTESIAN_POINT('',(9.92528132111114,-0.221872356644684,26.5246623647674));
#318=CARTESIAN_POINT('',(4.96273075820661,-26.4975805017327,-0.607862379048722));
#319=CARTESIAN_POINT('',(9.92528132111114,-26.4975805017327,-1.218674879425));
#320=CARTESIAN_POINT('',(9.92528132111114,-26.4975805017327,-1.218674879425));
#321=CARTESIAN_POINT('',(9.92528132111114,-25.2394033370231,-28.5751513853376));
#322=CARTESIAN_POINT('',(9.92528132111114,0.427563557368633,-38.1232730350936));
#323=CARTESIAN_POINT('',(9.92528132111114,19.2589065272151,-18.240105818869));
#324=CARTESIAN_POINT('',(9.92528132111114,38.0902494970617,1.64306139735574));
#325=CARTESIAN_POINT('',(9.92528132111114,27.1625638473163,26.7537265206991));
#326=CARTESIAN_POINT('',(9.92528132111114,-0.221872356644686,26.5246623647674));
#327=CARTESIAN_POINT('',(10.009862384379,-16.5215777733937,-0.53149542112545));
#328=CARTESIAN_POINT('',(10.0098623843791,-15.9728543908922,-17.5886057549877));
#329=CARTESIAN_POINT('',(10.009862384379,-0.0614417198379625,-23.7589426261375));
#330=CARTESIAN_POINT('',(10.009862384379,11.8436883872296,-11.5313513904996));
#331=CARTESIAN_POINT('',(10.009862384379,23.7488184942972,0.696239845138234));
#332=CARTESIAN_POINT('',(10.009862384379,17.1555442684483,16.4371053002144));
#333=CARTESIAN_POINT('',(10.009862384379,0.0898622403907711,16.5298803468968));
#334=CARTESIAN_POINT('',(0.0847612585699754,-16.5215777733937,0.690129579627115));
#335=CARTESIAN_POINT('',(0.0847612585699757,-17.2340773025439,-16.3669807542351));
#336=CARTESIAN_POINT('',(0.0847612585699757,-1.81624385302466,-23.6979479648748));
#337=CARTESIAN_POINT('',(0.0847612585699754,10.9637849946376,-12.3787814242894));
#338=CARTESIAN_POINT('',(0.0847612585699757,23.7438138423,-1.05961488370397));
#339=CARTESIAN_POINT('',(0.0847612585699755,18.3289015759385,15.1308574277574));
#340=CARTESIAN_POINT('',(0.0847612585699754,1.31062403104921,16.4839641957937));
#341=CARTESIAN_POINT('',(0.000180195302076392,-26.4975805017327,0.002950121327561));
#342=CARTESIAN_POINT('',(0.000180195302076393,-26.5006262486749,-27.353526384585));
#343=CARTESIAN_POINT('',(0.000180195302076393,-1.32723857581806,-38.062278373831));
#344=CARTESIAN_POINT('',(0.000180195302076392,18.3790031346232,-19.0875358526587));
#345=CARTESIAN_POINT('',(0.000180195302076393,38.0852448450645,-0.112793331486453));
#346=CARTESIAN_POINT('',(0.000180195302076393,28.3359211548064,25.447478648242));
#347=CARTESIAN_POINT('',(0.000180195302076392,0.998889434013748,26.4787462136643));
#348=CARTESIAN_POINT('',(-0.0844008679658227,-36.4735832300718,-0.684229336971994));
#349=CARTESIAN_POINT('',(-0.0844008679658229,-35.7671751948059,-38.3400720149349));
#350=CARTESIAN_POINT('',(-0.0844008679658229,-0.83823329861147,-52.4266087827872));
#351=CARTESIAN_POINT('',(-0.0844008679658227,25.7942212746088,-25.7962902810281));
#352=CARTESIAN_POINT('',(-0.0844008679658229,52.4266758478291,0.834028220731057));
#353=CARTESIAN_POINT('',(-0.0844008679658229,38.3429407336744,35.7640998687267));
#354=CARTESIAN_POINT('',(-0.0844008679658227,0.68715483697829,36.4735282315347));
#355=CARTESIAN_POINT('',(9.84070025784323,-36.4735832300718,-1.90585433772456));
#356=CARTESIAN_POINT('',(9.84070025784327,-34.5059522831541,-39.5616970156874));
#357=CARTESIAN_POINT('',(9.84070025784324,0.916568834575223,-52.4876034440499));
#358=CARTESIAN_POINT('',(9.84070025784323,26.6741246672007,-24.9488602472383));
#359=CARTESIAN_POINT('',(9.84070025784324,52.4316804998263,2.58988294957326));
#360=CARTESIAN_POINT('',(9.84070025784324,37.1695834261843,37.0703477411837));
#361=CARTESIAN_POINT('',(9.84070025784323,-0.533606953680144,36.5194443826378));
#362=CARTESIAN_POINT('',(9.92528132111114,-26.4975805017327,-1.218674879425));
#363=CARTESIAN_POINT('',(9.92528132111114,-25.2394033370231,-28.5751513853376));
#364=CARTESIAN_POINT('',(9.92528132111114,0.427563557368633,-38.1232730350936));
#365=CARTESIAN_POINT('',(9.92528132111114,19.2589065272151,-18.240105818869));
#366=CARTESIAN_POINT('',(9.92528132111114,38.0902494970617,1.64306139735574));
#367=CARTESIAN_POINT('',(9.92528132111114,27.1625638473163,26.7537265206991));
#368=CARTESIAN_POINT('',(9.92528132111114,-0.221872356644686,26.5246623647674));
#369=CARTESIAN_POINT('',(9.92528132111114,-0.221872356644685,26.5246623647674));
#370=CARTESIAN_POINT('',(9.92528132111114,-16.2268508532169,26.3907846079745));
#371=CARTESIAN_POINT('',(9.92528132111114,-27.2329287965113,14.7699624238247));
#372=CARTESIAN_POINT('',(9.92528132111114,-26.4975805017327,-1.218674879425));
#373=CARTESIAN_POINT('',(10.009862384379,0.0898622403907725,16.5298803468968));
#374=CARTESIAN_POINT('',(10.009862384379,-9.88426583199555,16.5841032133495));
#375=CARTESIAN_POINT('',(10.009862384379,-16.8422820549094,9.43762287927748));
#376=CARTESIAN_POINT('',(10.009862384379,-16.5215777733937,-0.53149542112545));
#377=CARTESIAN_POINT('',(0.0847612585699754,1.31062403104921,16.4839641957937));
#378=CARTESIAN_POINT('',(0.0847612585699755,-8.63579824056405,17.274794599045));
#379=CARTESIAN_POINT('',(0.0847612585699755,-16.1051536572303,10.65924788003));
#380=CARTESIAN_POINT('',(0.0847612585699754,-16.5215777733937,0.690129579627117));
#381=CARTESIAN_POINT('',(0.000180195302076392,0.998889434013749,26.4787462136643));
#382=CARTESIAN_POINT('',(0.000180195302076393,-14.9783832617854,27.08147599367));
#383=CARTESIAN_POINT('',(0.000180195302076393,-26.4958003988322,15.9915874245772));
#384=CARTESIAN_POINT('',(0.000180195302076392,-26.4975805017327,0.00295012132756198));
#385=CARTESIAN_POINT('',(-0.0844008679658227,0.687154836978292,36.4735282315347));
#386=CARTESIAN_POINT('',(-0.0844008679658227,-21.3209682830067,36.8881573882949));
#387=CARTESIAN_POINT('',(-0.0844008679658227,-36.8864471404341,21.3239269691244));
#388=CARTESIAN_POINT('',(-0.0844008679658227,-36.4735832300718,-0.684229336971993));
#389=CARTESIAN_POINT('',(9.84070025784323,-0.533606953680141,36.5194443826378));
#390=CARTESIAN_POINT('',(9.84070025784323,-22.5694358744382,36.1974660025995));
#391=CARTESIAN_POINT('',(9.84070025784323,-37.6235755381132,20.1023019683719));
#392=CARTESIAN_POINT('',(9.84070025784323,-36.4735832300718,-1.90585433772456));
#393=CARTESIAN_POINT('',(9.92528132111114,-0.221872356644685,26.5246623647674));
#394=CARTESIAN_POINT('',(9.92528132111114,-16.2268508532169,26.3907846079745));
#395=CARTESIAN_POINT('',(9.92528132111114,-27.2329287965113,14.7699624238247));
#396=CARTESIAN_POINT('',(9.92528132111114,-26.4975805017327,-1.218674879425));
#397=CARTESIAN_POINT('',(48.5,0.,0.));
#398=CARTESIAN_POINT('',(48.5,0.,24.));
#399=CARTESIAN_POINT('',(42.,0.,0.));
#400=CARTESIAN_POINT('',(42.,0.,24.));
#401=CARTESIAN_POINT('',(0.,0.,0.));
#402=CARTESIAN_POINT('',(50.,0.,0.));
#403=CARTESIAN_POINT('',(50.,0.,22.5));
#404=CARTESIAN_POINT('',(50.,12.,0.));
#405=CARTESIAN_POINT('',(48.5,0.,0.));
#406=CARTESIAN_POINT('',(41.6535898384862,0.,0.));
#407=CARTESIAN_POINT('',(41.6535898384862,0.,23.8));
#408=CARTESIAN_POINT('',(42.,0.,0.));
#409=CARTESIAN_POINT('',(41.,0.,0.));
#410=CARTESIAN_POINT('',(41.,0.,23.8));
#411=CARTESIAN_POINT('',(0.,0.,0.));
#412=CARTESIAN_POINT('',(17.8437060388679,0.,0.));
#413=CARTESIAN_POINT('',(17.8437060388679,0.,29.0169491525424));
#414=CARTESIAN_POINT('',(41.,0.,0.));
#415=CARTESIAN_POINT('',(15.6996047461705,0.,0.));
#416=CARTESIAN_POINT('',(15.6996047461705,0.,29.5));
#417=CARTESIAN_POINT('',(15.6996047461705,0.,0.));
#418=CARTESIAN_POINT('',(7.33863184573942,0.,0.));
#419=CARTESIAN_POINT('',(7.33863184573942,0.,29.5));
#420=CARTESIAN_POINT('',(0.,0.,0.));
#421=CARTESIAN_POINT('',(3.,0.,0.));
#422=CARTESIAN_POINT('',(3.,0.,22.8165690846287));
#423=CARTESIAN_POINT('',(0.55532949432949,26.7451390186954,0.));
#424=CARTESIAN_POINT('',(0.562090476147133,25.9470150642538,0.));
#425=CARTESIAN_POINT('',(0.672405639052548,25.4192411571572,0.));
#426=CARTESIAN_POINT('',(0.97945959739257,24.6942532940219,0.));
#427=CARTESIAN_POINT('',(1.10713027549401,24.4597446696764,0.));
#428=CARTESIAN_POINT('',(1.40474836447703,24.0232180053533,0.));
#429=CARTESIAN_POINT('',(1.57329761786183,23.8220874357343,0.));
#430=CARTESIAN_POINT('',(1.94969418666077,23.453933552847,0.));
#431=CARTESIAN_POINT('',(2.15921455419169,23.2864853805629,0.));
#432=CARTESIAN_POINT('',(2.60038278343003,23.0010721602626,0.));
#433=CARTESIAN_POINT('',(2.83383592856821,22.8809039502783,0.));
#434=CARTESIAN_POINT('',(3.32718073246011,22.6868710804316,0.));
#435=CARTESIAN_POINT('',(3.58259571367064,22.6151888670418,0.));
#436=CARTESIAN_POINT('',(4.09908001825082,22.523891309541,0.));
#437=CARTESIAN_POINT('',(4.36412252472939,22.5036630184662,0.));
#438=CARTESIAN_POINT('',(4.89352836891287,22.5163056304449,0.));
#439=CARTESIAN_POINT('',(5.15394919513272,22.5486041309581,0.));
#440=CARTESIAN_POINT('',(5.66649887239661,22.6635041281281,0.));
#441=CARTESIAN_POINT('',(5.92110467343984,22.7475235002777,0.));
#442=CARTESIAN_POINT('',(6.40252833092342,22.960579122547,0.));
#443=CARTESIAN_POINT('',(6.63093988314297,23.0894083192291,0.));
#444=CARTESIAN_POINT('',(7.06317530559201,23.3916461474364,0.));
#445=CARTESIAN_POINT('',(7.2664668567077,23.565574775462,0.));
#446=CARTESIAN_POINT('',(7.63068297838915,23.9435995327923,0.));
#447=CARTESIAN_POINT('',(7.79413885471294,24.1492683795266,0.));
#448=CARTESIAN_POINT('',(8.08246336454228,24.5950646200517,0.));
#449=CARTESIAN_POINT('',(8.20367462467341,24.8299288283778,0.));
#450=CARTESIAN_POINT('',(8.39868421812026,25.3170470992764,0.));
#451=CARTESIAN_POINT('',(8.47347871398301,25.5726648520425,0.));
#452=CARTESIAN_POINT('',(8.5715729902671,26.0924712446258,0.));
#453=CARTESIAN_POINT('',(8.59489889384541,26.3539054496691,0.));
#454=CARTESIAN_POINT('',(8.59071566394844,26.8797997209925,0.));
#455=CARTESIAN_POINT('',(8.56234424989376,27.146508358195,0.));
#456=CARTESIAN_POINT('',(8.45546953869498,27.6615663910966,0.));
#457=CARTESIAN_POINT('',(8.37737383782009,27.9121354404267,0.));
#458=CARTESIAN_POINT('',(8.17079725575177,28.399052017145,0.));
#459=CARTESIAN_POINT('',(8.04280794492465,28.6327739663023,0.));
#460=CARTESIAN_POINT('',(7.74670821165195,29.0659685258748,0.));
#461=CARTESIAN_POINT('',(7.57658525736322,29.2688763664164,0.));
#462=CARTESIAN_POINT('',(7.19658973817267,29.6391918847768,0.));
#463=CARTESIAN_POINT('',(6.99109603096138,29.8027530324354,0.));
#464=CARTESIAN_POINT('',(6.55003173089655,30.0879573482203,0.));
#465=CARTESIAN_POINT('',(6.31158839174657,30.2104525182197,0.));
#466=CARTESIAN_POINT('',(5.82138545086954,30.4032363260675,0.));
#467=CARTESIAN_POINT('',(5.56901258081534,30.4746698032642,0.));
#468=CARTESIAN_POINT('',(5.04969427065903,30.5675177185466,0.));
#469=CARTESIAN_POINT('',(4.78292240291932,30.5881307330091,0.));
#470=CARTESIAN_POINT('',(4.25821742026395,30.5769392118929,0.));
#471=CARTESIAN_POINT('',(3.99730281140995,30.5458294822782,0.));
#472=CARTESIAN_POINT('',(3.47844685919048,30.4308520229623,0.));
#473=CARTESIAN_POINT('',(3.2279077391809,30.3484880190979,0.));
#474=CARTESIAN_POINT('',(2.74769815834203,30.1373910471734,0.));
#475=CARTESIAN_POINT('',(2.51520941461472,30.00691239427,0.));
#476=CARTESIAN_POINT('',(2.08182431500415,29.704162461039,0.));
#477=CARTESIAN_POINT('',(1.88243371136673,29.5336637881652,0.));
#478=CARTESIAN_POINT('',(1.51756293661659,29.1551855056262,0.));
#479=CARTESIAN_POINT('',(1.35107201039167,28.9449517653753,0.));
#480=CARTESIAN_POINT('',(1.06605302584232,28.5028371075163,0.));
#481=CARTESIAN_POINT('',(0.945737802283486,28.2697243096433,0.));
#482=CARTESIAN_POINT('',(0.750022051205545,27.7791019775078,0.));
#483=CARTESIAN_POINT('',(0.675744876996172,27.5226831823223,0.));
#484=CARTESIAN_POINT('',(0.578969401865031,27.0069902169414,0.));
#485=CARTESIAN_POINT('',(0.55532949432949,26.7451390186954,0.));
#486=CARTESIAN_POINT('',(0.562090476147133,25.9470150642538,0.));
#487=CARTESIAN_POINT('',(0.,0.,0.));
#488=CARTESIAN_POINT('',(9.11368126027512,0.,0.));
#489=CARTESIAN_POINT('',(3.,0.,0.));
#490=(
GEOMETRIC_REPRESENTATION_CONTEXT(3)
GLOBAL_UNCERTAINTY_ASSIGNED_CONTEXT((#491))
GLOBAL_UNIT_ASSIGNED_CONTEXT((#497,#493,#492))
REPRESENTATION_CONTEXT('model1','TOP_LEVEL_ASSEMBLY_PART')
);
#491=UNCERTAINTY_MEASURE_WITH_UNIT(LENGTH_MEASURE(2.E-5),#497,
'DISTANCE_ACCURACY_VALUE','Maximum Tolerance applied to model');
#492=(
NAMED_UNIT(*)
SI_UNIT($,.STERADIAN.)
SOLID_ANGLE_UNIT()
);
#493=(
CONVERSION_BASED_UNIT('DEGREE',#495)
NAMED_UNIT(#494)
PLANE_ANGLE_UNIT()
);
#494=DIMENSIONAL_EXPONENTS(0.,0.,0.,0.,0.,0.,0.);
#495=PLANE_ANGLE_MEASURE_WITH_UNIT(PLANE_ANGLE_MEASURE(0.0174532925),#496);
#496=(
NAMED_UNIT(*)
PLANE_ANGLE_UNIT()
SI_UNIT($,.RADIAN.)
);
#497=(
LENGTH_UNIT()
NAMED_UNIT(*)
SI_UNIT(.MILLI.,.METRE.)
);
ENDSEC;
END-ISO-10303-21;
