ISO-10303-21;
HEADER;
/* Generated by software containing ST-Developer
 * from STEP Tools, Inc. (www.steptools.com) 
 */
/* OPTION: using custom schema-name function */

FILE_DESCRIPTION(
/* description */ (''),
/* implementation_level */ '2;1');

FILE_NAME(
/* name */ 'model1.stp',
/* time_stamp */ '2023-11-02T15:26:00+03:00',
/* author */ (''),
/* organization */ (''),
/* preprocessor_version */ 'ST-DEVELOPER v19.4',
/* originating_system */ 'SIEMENS PLM Software NX2306.3001',
/* authorisation */ '');

FILE_SCHEMA (('AUTOMOTIVE_DESIGN { 1 0 10303 214 3 1 1 1 }'));
ENDSEC;

DATA;
#10=PROPERTY_DEFINITION_REPRESENTATION(#14,#12);
#11=PROPERTY_DEFINITION_REPRESENTATION(#15,#13);
#12=REPRESENTATION('',(#16),#519);
#13=REPRESENTATION('',(#17),#519);
#14=PROPERTY_DEFINITION('pmi validation property','',#21);
#15=PROPERTY_DEFINITION('pmi validation property','',#21);
#16=VALUE_REPRESENTATION_ITEM('number of annotations',COUNT_MEASURE(0.));
#17=VALUE_REPRESENTATION_ITEM('number of views',COUNT_MEASURE(0.));
#18=SHAPE_REPRESENTATION_RELATIONSHIP('None',
'relationship between model1_objects-None and model1_objects-None',#30,
#19);
#19=ADVANCED_BREP_SHAPE_REPRESENTATION('model1_objects-None',(#141,#142),
#519);
#20=SHAPE_DEFINITION_REPRESENTATION(#21,#30);
#21=PRODUCT_DEFINITION_SHAPE('','',#22);
#22=PRODUCT_DEFINITION(' ','',#24,#23);
#23=PRODUCT_DEFINITION_CONTEXT('part definition',#29,'design');
#24=PRODUCT_DEFINITION_FORMATION_WITH_SPECIFIED_SOURCE(' ',' ',#26,
 .NOT_KNOWN.);
#25=PRODUCT_RELATED_PRODUCT_CATEGORY('part','',(#26));
#26=PRODUCT('model1_objects','model1_objects',' ',(#27));
#27=PRODUCT_CONTEXT(' ',#29,'mechanical');
#28=APPLICATION_PROTOCOL_DEFINITION('international standard',
'automotive_design',2010,#29);
#29=APPLICATION_CONTEXT(
'core data for automotive mechanical design processes');
#30=SHAPE_REPRESENTATION('model1_objects-None',(#269),#519);
#31=OVER_RIDING_STYLED_ITEM('',(#64),#147,#61);
#32=OVER_RIDING_STYLED_ITEM('',(#65),#148,#61);
#33=OVER_RIDING_STYLED_ITEM('',(#66),#149,#61);
#34=OVER_RIDING_STYLED_ITEM('',(#67),#150,#61);
#35=OVER_RIDING_STYLED_ITEM('',(#68),#151,#61);
#36=OVER_RIDING_STYLED_ITEM('',(#69),#152,#61);
#37=OVER_RIDING_STYLED_ITEM('',(#70),#153,#61);
#38=OVER_RIDING_STYLED_ITEM('',(#71),#154,#61);
#39=OVER_RIDING_STYLED_ITEM('',(#72),#155,#61);
#40=OVER_RIDING_STYLED_ITEM('',(#73),#156,#61);
#41=OVER_RIDING_STYLED_ITEM('',(#74),#157,#61);
#42=COLOUR_RGB('Medium Steel',0.611764705882353,0.658823529411765,0.670588235294118);
#43=COLOUR_RGB('silver gray',0.6,0.6,0.6);
#44=SURFACE_OF_REVOLUTION('',#46,#45);
#45=AXIS1_PLACEMENT('',#517,#336);
#46=B_SPLINE_CURVE_WITH_KNOTS('',3,(#451,#452,#453,#454,#455,#456,#457,
#458,#459,#460,#461,#462,#463,#464,#465,#466,#467,#468,#469,#470,#471,#472,
#473,#474,#475,#476,#477,#478,#479,#480,#481,#482,#483,#484,#485,#486,#487,
#488,#489,#490,#491,#492,#493,#494,#495,#496,#497,#498,#499,#500,#501,#502,
#503,#504,#505,#506,#507,#508,#509,#510,#511,#512,#513,#514,#515,#516),
 .UNSPECIFIED.,.T.,.F.,(2,2,2,2,2,2,2,2,2,2,2,2,2,2,2,2,2,2,2,2,2,2,2,2,
2,2,2,2,2,2,2,2,2,2,2),(-0.03125,0.,0.03125,0.0625,0.09375,0.125,0.15625,
0.1875,0.21875,0.25,0.28125,0.3125,0.34375,0.375,0.40625,0.4375,0.46875,
0.5,0.53125,0.5625,0.59375,0.625,0.65625,0.6875,0.71875,0.75,0.78125,0.8125,
0.84375,0.875,0.90625,0.9375,0.96875,1.,1.03125),.UNSPECIFIED.);
#47=VERTEX_LOOP('',#243);
#48=CONICAL_SURFACE('',#282,34.6395555688103,40.0000000000001);
#49=CONICAL_SURFACE('',#287,32.5,29.9999999999995);
#50=CONICAL_SURFACE('',#289,41.334646699428,80.0000000000362);
#51=PLANE('',#277);
#52=FACE_OUTER_BOUND('',#192,.T.);
#53=TOROIDAL_SURFACE('',#276,30.5,2.);
#54=TOROIDAL_SURFACE('',#280,43.,5.);
#55=TOROIDAL_SURFACE('',#284,42.3,10.);
#56=CYLINDRICAL_SURFACE('',#274,32.5);
#57=CYLINDRICAL_SURFACE('',#286,32.3);
#58=CYLINDRICAL_SURFACE('',#291,48.);
#59=PRESENTATION_LAYER_ASSIGNMENT('1','Layer 1',(#141,#142));
#60=STYLED_ITEM('',(#62),#141);
#61=STYLED_ITEM('',(#63),#142);
#62=PRESENTATION_STYLE_ASSIGNMENT((#75));
#63=PRESENTATION_STYLE_ASSIGNMENT((#76));
#64=PRESENTATION_STYLE_ASSIGNMENT((#77));
#65=PRESENTATION_STYLE_ASSIGNMENT((#78));
#66=PRESENTATION_STYLE_ASSIGNMENT((#79));
#67=PRESENTATION_STYLE_ASSIGNMENT((#80));
#68=PRESENTATION_STYLE_ASSIGNMENT((#81));
#69=PRESENTATION_STYLE_ASSIGNMENT((#82));
#70=PRESENTATION_STYLE_ASSIGNMENT((#83));
#71=PRESENTATION_STYLE_ASSIGNMENT((#84));
#72=PRESENTATION_STYLE_ASSIGNMENT((#85));
#73=PRESENTATION_STYLE_ASSIGNMENT((#86));
#74=PRESENTATION_STYLE_ASSIGNMENT((#87));
#75=SURFACE_STYLE_USAGE(.BOTH.,#88);
#76=SURFACE_STYLE_USAGE(.BOTH.,#89);
#77=SURFACE_STYLE_USAGE(.BOTH.,#90);
#78=SURFACE_STYLE_USAGE(.BOTH.,#91);
#79=SURFACE_STYLE_USAGE(.BOTH.,#92);
#80=SURFACE_STYLE_USAGE(.BOTH.,#93);
#81=SURFACE_STYLE_USAGE(.BOTH.,#94);
#82=SURFACE_STYLE_USAGE(.BOTH.,#95);
#83=SURFACE_STYLE_USAGE(.BOTH.,#96);
#84=SURFACE_STYLE_USAGE(.BOTH.,#97);
#85=SURFACE_STYLE_USAGE(.BOTH.,#98);
#86=SURFACE_STYLE_USAGE(.BOTH.,#99);
#87=SURFACE_STYLE_USAGE(.BOTH.,#100);
#88=SURFACE_SIDE_STYLE('',(#101));
#89=SURFACE_SIDE_STYLE('',(#102));
#90=SURFACE_SIDE_STYLE('',(#103));
#91=SURFACE_SIDE_STYLE('',(#104));
#92=SURFACE_SIDE_STYLE('',(#105));
#93=SURFACE_SIDE_STYLE('',(#106));
#94=SURFACE_SIDE_STYLE('',(#107));
#95=SURFACE_SIDE_STYLE('',(#108));
#96=SURFACE_SIDE_STYLE('',(#109));
#97=SURFACE_SIDE_STYLE('',(#110));
#98=SURFACE_SIDE_STYLE('',(#111));
#99=SURFACE_SIDE_STYLE('',(#112));
#100=SURFACE_SIDE_STYLE('',(#113));
#101=SURFACE_STYLE_FILL_AREA(#114);
#102=SURFACE_STYLE_FILL_AREA(#115);
#103=SURFACE_STYLE_FILL_AREA(#116);
#104=SURFACE_STYLE_FILL_AREA(#117);
#105=SURFACE_STYLE_FILL_AREA(#118);
#106=SURFACE_STYLE_FILL_AREA(#119);
#107=SURFACE_STYLE_FILL_AREA(#120);
#108=SURFACE_STYLE_FILL_AREA(#121);
#109=SURFACE_STYLE_FILL_AREA(#122);
#110=SURFACE_STYLE_FILL_AREA(#123);
#111=SURFACE_STYLE_FILL_AREA(#124);
#112=SURFACE_STYLE_FILL_AREA(#125);
#113=SURFACE_STYLE_FILL_AREA(#126);
#114=FILL_AREA_STYLE('',(#127));
#115=FILL_AREA_STYLE('',(#128));
#116=FILL_AREA_STYLE('',(#129));
#117=FILL_AREA_STYLE('',(#130));
#118=FILL_AREA_STYLE('',(#131));
#119=FILL_AREA_STYLE('',(#132));
#120=FILL_AREA_STYLE('',(#133));
#121=FILL_AREA_STYLE('',(#134));
#122=FILL_AREA_STYLE('',(#135));
#123=FILL_AREA_STYLE('',(#136));
#124=FILL_AREA_STYLE('',(#137));
#125=FILL_AREA_STYLE('',(#138));
#126=FILL_AREA_STYLE('',(#139));
#127=FILL_AREA_STYLE_COLOUR('',#140);
#128=FILL_AREA_STYLE_COLOUR('',#42);
#129=FILL_AREA_STYLE_COLOUR('',#43);
#130=FILL_AREA_STYLE_COLOUR('',#43);
#131=FILL_AREA_STYLE_COLOUR('',#43);
#132=FILL_AREA_STYLE_COLOUR('',#43);
#133=FILL_AREA_STYLE_COLOUR('',#43);
#134=FILL_AREA_STYLE_COLOUR('',#43);
#135=FILL_AREA_STYLE_COLOUR('',#43);
#136=FILL_AREA_STYLE_COLOUR('',#43);
#137=FILL_AREA_STYLE_COLOUR('',#43);
#138=FILL_AREA_STYLE_COLOUR('',#43);
#139=FILL_AREA_STYLE_COLOUR('',#43);
#140=DRAUGHTING_PRE_DEFINED_COLOUR('yellow');
#141=MANIFOLD_SOLID_BREP('',#143);
#142=MANIFOLD_SOLID_BREP('',#144);
#143=CLOSED_SHELL('',(#145,#146));
#144=CLOSED_SHELL('',(#147,#148,#149,#150,#151,#152,#153,#154,#155,#156,
#157));
#145=ADVANCED_FACE('',(#160,#161),#158,.F.);
#146=ADVANCED_FACE('',(#162,#163),#159,.F.);
#147=ADVANCED_FACE('',(#164,#165),#56,.T.);
#148=ADVANCED_FACE('',(#166,#167),#53,.T.);
#149=ADVANCED_FACE('',(#52),#51,.F.);
#150=ADVANCED_FACE('',(#168,#169),#54,.T.);
#151=ADVANCED_FACE('',(#170,#171),#48,.T.);
#152=ADVANCED_FACE('',(#172,#173),#55,.F.);
#153=ADVANCED_FACE('',(#174,#175),#57,.T.);
#154=ADVANCED_FACE('',(#176,#177),#49,.T.);
#155=ADVANCED_FACE('',(#178,#179),#50,.F.);
#156=ADVANCED_FACE('',(#180,#181),#44,.T.);
#157=ADVANCED_FACE('',(#182,#183),#58,.T.);
#158=(
BOUNDED_SURFACE()
B_SPLINE_SURFACE(3,3,((#344,#345,#346,#347,#348,#349,#350),(#351,#352,#353,
#354,#355,#356,#357),(#358,#359,#360,#361,#362,#363,#364),(#365,#366,#367,
#368,#369,#370,#371),(#372,#373,#374,#375,#376,#377,#378),(#379,#380,#381,
#382,#383,#384,#385),(#386,#387,#388,#389,#390,#391,#392)),
 .UNSPECIFIED.,.T.,.F.,.F.)
B_SPLINE_SURFACE_WITH_KNOTS((1,3,3,3,1),(4,3,4),(-0.5,0.,0.5,1.,1.5),(0.,
0.5,1.),.UNSPECIFIED.)
GEOMETRIC_REPRESENTATION_ITEM()
RATIONAL_B_SPLINE_SURFACE(((1.,0.590956270117381,0.590956270117381,1.,0.590956270117381,
0.590956270117381,1.),(0.333333333333334,0.19698542337246,0.19698542337246,
0.333333333333334,0.19698542337246,0.19698542337246,0.333333333333334),
(0.333333333333334,0.19698542337246,0.19698542337246,0.333333333333334,
0.19698542337246,0.19698542337246,0.333333333333334),(1.,0.590956270117381,
0.590956270117381,1.,0.590956270117381,0.590956270117381,1.),(0.333333333333334,
0.19698542337246,0.19698542337246,0.333333333333334,0.19698542337246,0.19698542337246,
0.333333333333334),(0.333333333333334,0.19698542337246,0.19698542337246,
0.333333333333334,0.19698542337246,0.19698542337246,0.333333333333334),
(1.,0.590956270117381,0.590956270117381,1.,0.590956270117381,0.590956270117381,
1.)))
REPRESENTATION_ITEM('')
SURFACE()
);
#159=(
BOUNDED_SURFACE()
B_SPLINE_SURFACE(3,3,((#393,#394,#395,#396),(#397,#398,#399,#400),(#401,
#402,#403,#404),(#405,#406,#407,#408),(#409,#410,#411,#412),(#413,#414,
#415,#416),(#417,#418,#419,#420)),.UNSPECIFIED.,.T.,.F.,.F.)
B_SPLINE_SURFACE_WITH_KNOTS((1,3,3,3,1),(4,4),(-0.5,0.,0.5,1.,1.5),(0.,
1.),.UNSPECIFIED.)
GEOMETRIC_REPRESENTATION_ITEM()
RATIONAL_B_SPLINE_SURFACE(((1.,0.800891267328288,0.800891267328288,1.),
(0.333333333333334,0.266963755776096,0.266963755776096,0.333333333333334),
(0.333333333333334,0.266963755776096,0.266963755776096,0.333333333333334),
(1.,0.800891267328288,0.800891267328288,1.),(0.333333333333334,0.266963755776096,
0.266963755776096,0.333333333333334),(0.333333333333334,0.266963755776096,
0.266963755776096,0.333333333333334),(1.,0.800891267328288,0.800891267328288,
1.)))
REPRESENTATION_ITEM('')
SURFACE()
);
#160=FACE_BOUND('',#184,.T.);
#161=FACE_BOUND('',#185,.T.);
#162=FACE_BOUND('',#186,.T.);
#163=FACE_BOUND('',#187,.T.);
#164=FACE_BOUND('',#188,.T.);
#165=FACE_BOUND('',#189,.T.);
#166=FACE_BOUND('',#190,.T.);
#167=FACE_BOUND('',#191,.T.);
#168=FACE_BOUND('',#193,.T.);
#169=FACE_BOUND('',#194,.T.);
#170=FACE_BOUND('',#195,.T.);
#171=FACE_BOUND('',#196,.T.);
#172=FACE_BOUND('',#197,.T.);
#173=FACE_BOUND('',#198,.T.);
#174=FACE_BOUND('',#199,.T.);
#175=FACE_BOUND('',#200,.T.);
#176=FACE_BOUND('',#201,.T.);
#177=FACE_BOUND('',#202,.T.);
#178=FACE_BOUND('',#203,.T.);
#179=FACE_BOUND('',#47,.T.);
#180=FACE_BOUND('',#204,.T.);
#181=FACE_BOUND('',#205,.T.);
#182=FACE_BOUND('',#206,.T.);
#183=FACE_BOUND('',#207,.T.);
#184=EDGE_LOOP('',(#208));
#185=EDGE_LOOP('',(#209));
#186=EDGE_LOOP('',(#210));
#187=EDGE_LOOP('',(#211));
#188=EDGE_LOOP('',(#212));
#189=EDGE_LOOP('',(#213));
#190=EDGE_LOOP('',(#214));
#191=EDGE_LOOP('',(#215));
#192=EDGE_LOOP('',(#216));
#193=EDGE_LOOP('',(#217));
#194=EDGE_LOOP('',(#218));
#195=EDGE_LOOP('',(#219));
#196=EDGE_LOOP('',(#220));
#197=EDGE_LOOP('',(#221));
#198=EDGE_LOOP('',(#222));
#199=EDGE_LOOP('',(#223));
#200=EDGE_LOOP('',(#224));
#201=EDGE_LOOP('',(#225));
#202=EDGE_LOOP('',(#226));
#203=EDGE_LOOP('',(#227));
#204=EDGE_LOOP('',(#228));
#205=EDGE_LOOP('',(#229));
#206=EDGE_LOOP('',(#230));
#207=EDGE_LOOP('',(#231));
#208=ORIENTED_EDGE('',*,*,#245,.T.);
#209=ORIENTED_EDGE('',*,*,#246,.F.);
#210=ORIENTED_EDGE('',*,*,#246,.T.);
#211=ORIENTED_EDGE('',*,*,#245,.F.);
#212=ORIENTED_EDGE('',*,*,#247,.T.);
#213=ORIENTED_EDGE('',*,*,#248,.F.);
#214=ORIENTED_EDGE('',*,*,#249,.T.);
#215=ORIENTED_EDGE('',*,*,#247,.F.);
#216=ORIENTED_EDGE('',*,*,#249,.F.);
#217=ORIENTED_EDGE('',*,*,#250,.F.);
#218=ORIENTED_EDGE('',*,*,#251,.T.);
#219=ORIENTED_EDGE('',*,*,#251,.F.);
#220=ORIENTED_EDGE('',*,*,#252,.T.);
#221=ORIENTED_EDGE('',*,*,#252,.F.);
#222=ORIENTED_EDGE('',*,*,#253,.T.);
#223=ORIENTED_EDGE('',*,*,#253,.F.);
#224=ORIENTED_EDGE('',*,*,#254,.T.);
#225=ORIENTED_EDGE('',*,*,#254,.F.);
#226=ORIENTED_EDGE('',*,*,#248,.T.);
#227=ORIENTED_EDGE('',*,*,#255,.T.);
#228=ORIENTED_EDGE('',*,*,#255,.F.);
#229=ORIENTED_EDGE('',*,*,#256,.T.);
#230=ORIENTED_EDGE('',*,*,#256,.F.);
#231=ORIENTED_EDGE('',*,*,#250,.T.);
#232=VERTEX_POINT('',#341);
#233=VERTEX_POINT('',#343);
#234=VERTEX_POINT('',#422);
#235=VERTEX_POINT('',#424);
#236=VERTEX_POINT('',#427);
#237=VERTEX_POINT('',#431);
#238=VERTEX_POINT('',#433);
#239=VERTEX_POINT('',#436);
#240=VERTEX_POINT('',#439);
#241=VERTEX_POINT('',#442);
#242=VERTEX_POINT('',#446);
#243=VERTEX_POINT('',#447);
#244=VERTEX_POINT('',#450);
#245=EDGE_CURVE('',#232,#232,#257,.T.);
#246=EDGE_CURVE('',#233,#233,#258,.T.);
#247=EDGE_CURVE('',#234,#234,#259,.T.);
#248=EDGE_CURVE('',#235,#235,#260,.T.);
#249=EDGE_CURVE('',#236,#236,#261,.T.);
#250=EDGE_CURVE('',#237,#237,#262,.T.);
#251=EDGE_CURVE('',#238,#238,#263,.T.);
#252=EDGE_CURVE('',#239,#239,#264,.T.);
#253=EDGE_CURVE('',#240,#240,#265,.T.);
#254=EDGE_CURVE('',#241,#241,#266,.T.);
#255=EDGE_CURVE('',#242,#242,#267,.T.);
#256=EDGE_CURVE('',#244,#244,#268,.T.);
#257=CIRCLE('',#270,5.);
#258=CIRCLE('',#271,5.);
#259=CIRCLE('',#272,32.5);
#260=CIRCLE('',#273,32.5);
#261=CIRCLE('',#275,30.5);
#262=CIRCLE('',#278,48.);
#263=CIRCLE('',#279,46.8302222155949);
#264=CIRCLE('',#281,34.6395555688103);
#265=CIRCLE('',#283,32.3);
#266=CIRCLE('',#285,32.3);
#267=CIRCLE('',#288,41.334646699428);
#268=CIRCLE('',#290,48.);
#269=AXIS2_PLACEMENT_3D('',#339,#292,#293);
#270=AXIS2_PLACEMENT_3D('',#340,#294,#295);
#271=AXIS2_PLACEMENT_3D('',#342,#296,#297);
#272=AXIS2_PLACEMENT_3D('',#421,#298,#299);
#273=AXIS2_PLACEMENT_3D('',#423,#300,#301);
#274=AXIS2_PLACEMENT_3D('',#425,#302,#303);
#275=AXIS2_PLACEMENT_3D('',#426,#304,#305);
#276=AXIS2_PLACEMENT_3D('',#428,#306,#307);
#277=AXIS2_PLACEMENT_3D('',#429,#308,#309);
#278=AXIS2_PLACEMENT_3D('',#430,#310,#311);
#279=AXIS2_PLACEMENT_3D('',#432,#312,#313);
#280=AXIS2_PLACEMENT_3D('',#434,#314,#315);
#281=AXIS2_PLACEMENT_3D('',#435,#316,#317);
#282=AXIS2_PLACEMENT_3D('',#437,#318,#319);
#283=AXIS2_PLACEMENT_3D('',#438,#320,#321);
#284=AXIS2_PLACEMENT_3D('',#440,#322,#323);
#285=AXIS2_PLACEMENT_3D('',#441,#324,#325);
#286=AXIS2_PLACEMENT_3D('',#443,#326,#327);
#287=AXIS2_PLACEMENT_3D('',#444,#328,#329);
#288=AXIS2_PLACEMENT_3D('',#445,#330,#331);
#289=AXIS2_PLACEMENT_3D('',#448,#332,#333);
#290=AXIS2_PLACEMENT_3D('',#449,#334,#335);
#291=AXIS2_PLACEMENT_3D('',#518,#337,#338);
#292=DIRECTION('',(0.,0.,1.));
#293=DIRECTION('',(1.,0.,0.));
#294=DIRECTION('',(0.0871557427476584,0.99582133157637,0.0272718184866792));
#295=DIRECTION('',(0.996187485559768,-0.0872266197938423,0.00141789049178109));
#296=DIRECTION('',(0.0871557427476584,-0.0434534024273579,0.995246541477834));
#297=DIRECTION('',(0.996187485559768,0.,-0.0872381431147305));
#298=DIRECTION('',(-1.,0.,0.));
#299=DIRECTION('',(0.,0.,1.));
#300=DIRECTION('',(-1.,0.,0.));
#301=DIRECTION('',(0.,0.,1.));
#302=DIRECTION('',(-1.,0.,0.));
#303=DIRECTION('',(0.,0.,1.));
#304=DIRECTION('',(-1.,0.,0.));
#305=DIRECTION('',(0.,0.,1.));
#306=DIRECTION('',(-1.,0.,0.));
#307=DIRECTION('',(0.,0.,1.));
#308=DIRECTION('',(-1.,0.,0.));
#309=DIRECTION('',(0.,0.,1.));
#310=DIRECTION('',(-1.,0.,0.));
#311=DIRECTION('',(0.,0.,1.));
#312=DIRECTION('',(-1.,0.,0.));
#313=DIRECTION('',(0.,0.,1.));
#314=DIRECTION('',(-1.,0.,0.));
#315=DIRECTION('',(0.,0.,1.));
#316=DIRECTION('',(-1.,0.,0.));
#317=DIRECTION('',(0.,0.,1.));
#318=DIRECTION('',(-1.,0.,0.));
#319=DIRECTION('',(-2.38248232739171E-17,0.,1.));
#320=DIRECTION('',(-1.,0.,0.));
#321=DIRECTION('',(0.,0.,1.));
#322=DIRECTION('',(-1.,0.,0.));
#323=DIRECTION('',(0.,0.,1.));
#324=DIRECTION('',(-1.,0.,0.));
#325=DIRECTION('',(0.,0.,1.));
#326=DIRECTION('',(-1.,0.,0.));
#327=DIRECTION('',(0.,0.,1.));
#328=DIRECTION('',(1.,0.,0.));
#329=DIRECTION('',(5.6890143814545E-17,0.,-1.));
#330=DIRECTION('',(-1.,0.,0.));
#331=DIRECTION('',(0.,0.,1.));
#332=DIRECTION('',(-1.,0.,0.));
#333=DIRECTION('',(9.03404310693936E-18,0.,1.));
#334=DIRECTION('',(-1.,0.,0.));
#335=DIRECTION('',(0.,0.,1.));
#336=DIRECTION('',(-1.,0.,0.));
#337=DIRECTION('',(-1.,0.,0.));
#338=DIRECTION('',(0.,0.,1.));
#339=CARTESIAN_POINT('',(0.,0.,0.));
#340=CARTESIAN_POINT('',(4.98097349045873,0.296090794148609,45.0016006046737));
#341=CARTESIAN_POINT('',(9.96191091825757,-0.140042304820603,45.0086900571326));
#342=CARTESIAN_POINT('',(4.98097349045873,-45.0004687194799,-0.435363948963471));
#343=CARTESIAN_POINT('',(9.96191091825757,-45.0004687194799,-0.871554664537123));
#344=CARTESIAN_POINT('',(9.96191091825758,-45.0004687194799,-0.871554664537124));
#345=CARTESIAN_POINT('',(9.96191091825758,-44.0936338930221,-47.6936232073296));
#346=CARTESIAN_POINT('',(9.96191091825758,-0.55841694970566,-64.9508923344774));
#347=CARTESIAN_POINT('',(9.96191091825758,32.1817595512399,-31.4664288519104));
#348=CARTESIAN_POINT('',(9.96191091825758,64.9219360521855,2.01803463065662));
#349=CARTESIAN_POINT('',(9.96191091825758,46.6905803718741,45.1544012148558));
#350=CARTESIAN_POINT('',(9.96191091825758,-0.140042304820606,45.0086900571326));
#351=CARTESIAN_POINT('',(9.99981885965537,-35.0099141712204,-0.438677307505859));
#352=CARTESIAN_POINT('',(9.99981885965538,-34.5534793929908,-36.8657779055174));
#353=CARTESIAN_POINT('',(9.99981885965538,-0.779767058590871,-50.5214853510376));
#354=CARTESIAN_POINT('',(9.99981885965537,24.8664470362425,-24.6484551209621));
#355=CARTESIAN_POINT('',(9.99981885965538,50.5126611310759,1.22457510911331));
#356=CARTESIAN_POINT('',(9.99981885965538,36.5601077741863,34.8767406487569));
#357=CARTESIAN_POINT('',(9.99981885965537,0.130400365038804,35.0124195650791));
#358=CARTESIAN_POINT('',(0.0379440040576795,-35.0099141712204,0.433704123641446));
#359=CARTESIAN_POINT('',(0.0379440040576796,-35.4611744532193,-35.9933964743701));
#360=CARTESIAN_POINT('',(0.0379440040576796,-2.03822671950002,-50.4862864073281));
#361=CARTESIAN_POINT('',(0.0379440040576795,24.2445874159201,-25.2602884103663));
#362=CARTESIAN_POINT('',(0.0379440040576796,50.5274015513404,-0.0342904134045981));
#363=CARTESIAN_POINT('',(0.0379440040576796,37.4176211111698,33.9549865814108));
#364=CARTESIAN_POINT('',(0.0379440040576795,1.00266656297723,34.9982406601613));
#365=CARTESIAN_POINT('',(3.6062659880022E-5,-45.0004687194799,0.000826766610182014));
#366=CARTESIAN_POINT('',(3.60626598800221E-5,-45.0013289532506,-46.8212417761823));
#367=CARTESIAN_POINT('',(3.60626598800221E-5,-1.81687661061481,-64.915693390768));
#368=CARTESIAN_POINT('',(3.6062659880022E-5,31.5598999309176,-32.0782621413146));
#369=CARTESIAN_POINT('',(3.60626598800221E-5,64.9366764724499,0.759169108138724));
#370=CARTESIAN_POINT('',(3.60626598800221E-5,47.5480937088576,44.2326471475095));
#371=CARTESIAN_POINT('',(3.6062659880022E-5,0.732223893117816,44.9945111522148));
#372=CARTESIAN_POINT('',(-0.0378718787379195,-54.9910232677393,-0.432050590421082));
#373=CARTESIAN_POINT('',(-0.0378718787379195,-54.5414834532821,-57.6490870779947));
#374=CARTESIAN_POINT('',(-0.0378718787379195,-1.59552650172961,-79.345100374208));
#375=CARTESIAN_POINT('',(-0.0378718787379195,38.875212445915,-38.8962358722629));
#376=CARTESIAN_POINT('',(-0.0378718787379195,79.3459513935597,1.55262862968204));
#377=CARTESIAN_POINT('',(-0.0378718787379195,57.6785663065455,54.5103077136085));
#378=CARTESIAN_POINT('',(-0.0378718787379195,0.461781223258407,54.9907816442682));
#379=CARTESIAN_POINT('',(9.92400297685978,-54.9910232677393,-1.30443202156839));
#380=CARTESIAN_POINT('',(9.92400297685979,-53.6337883930536,-58.521468509142));
#381=CARTESIAN_POINT('',(9.92400297685979,-0.337066840820466,-79.3802993179174));
#382=CARTESIAN_POINT('',(9.92400297685978,39.4970720662374,-38.2844025828587));
#383=CARTESIAN_POINT('',(9.92400297685979,79.3312109732954,2.81149415219994));
#384=CARTESIAN_POINT('',(9.92400297685979,56.821052969562,55.4320617809547));
#385=CARTESIAN_POINT('',(9.92400297685978,-0.410484974680016,55.0049605491861));
#386=CARTESIAN_POINT('',(9.96191091825758,-45.0004687194799,-0.871554664537124));
#387=CARTESIAN_POINT('',(9.96191091825758,-44.0936338930221,-47.6936232073296));
#388=CARTESIAN_POINT('',(9.96191091825758,-0.55841694970566,-64.9508923344774));
#389=CARTESIAN_POINT('',(9.96191091825758,32.1817595512399,-31.4664288519104));
#390=CARTESIAN_POINT('',(9.96191091825758,64.9219360521855,2.01803463065662));
#391=CARTESIAN_POINT('',(9.96191091825758,46.6905803718741,45.1544012148558));
#392=CARTESIAN_POINT('',(9.96191091825758,-0.140042304820606,45.0086900571326));
#393=CARTESIAN_POINT('',(9.96191091825758,-0.140042304820603,45.0086900571326));
#394=CARTESIAN_POINT('',(9.96191091825758,-26.8465745762133,44.9255940077185));
#395=CARTESIAN_POINT('',(9.96191091825758,-45.5176178021392,25.8300993618087));
#396=CARTESIAN_POINT('',(9.96191091825757,-45.0004687194799,-0.871554664537123));
#397=CARTESIAN_POINT('',(9.99981885965537,0.130400365038809,35.0124195650791));
#398=CARTESIAN_POINT('',(9.99981885965539,-20.6447057717403,35.0897944354139));
#399=CARTESIAN_POINT('',(9.99981885965537,-35.2702094531928,20.3349422189797));
#400=CARTESIAN_POINT('',(9.99981885965537,-35.0099141712204,-0.438677307505859));
#401=CARTESIAN_POINT('',(0.0379440040576795,1.00266656297723,34.9982406601613));
#402=CARTESIAN_POINT('',(0.0379440040576796,-19.7640263233545,35.5931868113958));
#403=CARTESIAN_POINT('',(0.0379440040576796,-34.7525697970659,21.207323650127));
#404=CARTESIAN_POINT('',(0.0379440040576795,-35.0099141712204,0.433704123641447));
#405=CARTESIAN_POINT('',(3.6062659880022E-5,0.73222389311782,44.9945111522148));
#406=CARTESIAN_POINT('',(3.60626598800221E-5,-25.9658951278274,45.4289863837004));
#407=CARTESIAN_POINT('',(3.60626598800221E-5,-44.9999781460122,26.702480792956));
#408=CARTESIAN_POINT('',(3.6062659880022E-5,-45.0004687194799,0.000826766610182556));
#409=CARTESIAN_POINT('',(-0.0378718787379195,0.461781223258407,54.9907816442682));
#410=CARTESIAN_POINT('',(-0.0378718787379195,-32.1677639323003,55.2647859560049));
#411=CARTESIAN_POINT('',(-0.0378718787379195,-55.2473864949586,32.1976379357851));
#412=CARTESIAN_POINT('',(-0.0378718787379195,-54.9910232677393,-0.432050590421082));
#413=CARTESIAN_POINT('',(9.92400297685978,-0.410484974680016,55.0049605491861));
#414=CARTESIAN_POINT('',(9.92400297685978,-33.0484433806862,54.761393580023));
#415=CARTESIAN_POINT('',(9.92400297685978,-55.7650261510856,31.3252565046377));
#416=CARTESIAN_POINT('',(9.92400297685976,-54.9910232677393,-1.30443202156839));
#417=CARTESIAN_POINT('',(9.96191091825758,-0.140042304820603,45.0086900571326));
#418=CARTESIAN_POINT('',(9.96191091825758,-26.8465745762133,44.9255940077185));
#419=CARTESIAN_POINT('',(9.96191091825758,-45.5176178021392,25.8300993618087));
#420=CARTESIAN_POINT('',(9.96191091825757,-45.0004687194799,-0.871554664537123));
#421=CARTESIAN_POINT('',(48.,0.,0.));
#422=CARTESIAN_POINT('',(48.,0.,32.5));
#423=CARTESIAN_POINT('',(40.,0.,0.));
#424=CARTESIAN_POINT('',(40.,0.,32.5));
#425=CARTESIAN_POINT('',(0.,0.,0.));
#426=CARTESIAN_POINT('',(50.,0.,0.));
#427=CARTESIAN_POINT('',(50.,0.,30.5));
#428=CARTESIAN_POINT('',(48.,0.,0.));
#429=CARTESIAN_POINT('',(50.,17.2,0.));
#430=CARTESIAN_POINT('',(14.8299150822779,0.,0.));
#431=CARTESIAN_POINT('',(14.8299150822779,0.,48.));
#432=CARTESIAN_POINT('',(18.0438531307106,0.,0.));
#433=CARTESIAN_POINT('',(18.0438531307106,0.,46.8302222155949));
#434=CARTESIAN_POINT('',(14.8299150822779,0.,0.));
#435=CARTESIAN_POINT('',(32.5721239031346,0.,0.));
#436=CARTESIAN_POINT('',(32.5721239031346,0.,34.6395555688103));
#437=CARTESIAN_POINT('',(32.5721239031346,0.,0.));
#438=CARTESIAN_POINT('',(39.,0.,0.));
#439=CARTESIAN_POINT('',(39.,0.,32.3));
#440=CARTESIAN_POINT('',(39.,0.,0.));
#441=CARTESIAN_POINT('',(39.6535898384862,0.,0.));
#442=CARTESIAN_POINT('',(39.6535898384862,0.,32.3));
#443=CARTESIAN_POINT('',(0.,0.,0.));
#444=CARTESIAN_POINT('',(40.,0.,0.));
#445=CARTESIAN_POINT('',(3.00000000001938,0.,0.));
#446=CARTESIAN_POINT('',(3.00000000001938,0.,41.334646699428));
#447=CARTESIAN_POINT('',(10.2884134511537,0.,0.));
#448=CARTESIAN_POINT('',(3.00000000001938,0.,0.));
#449=CARTESIAN_POINT('',(7.42581209912732,0.,0.));
#450=CARTESIAN_POINT('',(7.42581209912732,0.,48.));
#451=CARTESIAN_POINT('',(0.670317557494745,45.2464582942088,0.));
#452=CARTESIAN_POINT('',(0.672341282271926,44.7128333956336,0.));
#453=CARTESIAN_POINT('',(0.699390546307424,44.4488373360994,0.));
#454=CARTESIAN_POINT('',(0.805480993366067,43.9264945076498,0.));
#455=CARTESIAN_POINT('',(0.8835834707261,43.6735535487798,0.));
#456=CARTESIAN_POINT('',(1.08673098508775,43.1881264784014,0.));
#457=CARTESIAN_POINT('',(1.21350735979865,42.9526585013188,0.));
#458=CARTESIAN_POINT('',(1.50985968606095,42.5130671995133,0.));
#459=CARTESIAN_POINT('',(1.67772335230975,42.3104056921876,0.));
#460=CARTESIAN_POINT('',(2.05235527200994,41.9389415563869,0.));
#461=CARTESIAN_POINT('',(2.26116275796999,41.7693352877785,0.));
#462=CARTESIAN_POINT('',(2.70127469116126,41.4790165087092,0.));
#463=CARTESIAN_POINT('',(2.93409326411897,41.3562665013091,0.));
#464=CARTESIAN_POINT('',(3.42578478084428,41.1565143796267,0.));
#465=CARTESIAN_POINT('',(3.68186149656683,41.0812187342017,0.));
#466=CARTESIAN_POINT('',(4.19868455261624,40.9829834113152,0.));
#467=CARTESIAN_POINT('',(4.46323323223923,40.9591062448803,0.));
#468=CARTESIAN_POINT('',(4.9951668079364,40.9643302756303,0.));
#469=CARTESIAN_POINT('',(5.25693421511845,40.9930574488265,0.));
#470=CARTESIAN_POINT('',(5.77234347757369,41.1010430728845,0.));
#471=CARTESIAN_POINT('',(6.02864981922837,41.1816945551629,0.));
#472=CARTESIAN_POINT('',(6.51459394254783,41.389180537069,0.));
#473=CARTESIAN_POINT('',(6.74524391545739,41.5155643531392,0.));
#474=CARTESIAN_POINT('',(7.18193149764803,41.8135551801394,0.));
#475=CARTESIAN_POINT('',(7.38777253989604,41.9859682634685,0.));
#476=CARTESIAN_POINT('',(7.75658958256127,42.3617032370618,0.));
#477=CARTESIAN_POINT('',(7.92216806875484,42.5665661392984,0.));
#478=CARTESIAN_POINT('',(8.21446541235145,43.011365459581,0.));
#479=CARTESIAN_POINT('',(8.33760310527921,43.2463121413618,0.));
#480=CARTESIAN_POINT('',(8.53585746076724,43.7336423808511,0.));
#481=CARTESIAN_POINT('',(8.61208933610747,43.9894975736332,0.));
#482=CARTESIAN_POINT('',(8.71283955313967,44.5104476638751,0.));
#483=CARTESIAN_POINT('',(8.73730573212068,44.7725041538582,0.));
#484=CARTESIAN_POINT('',(8.73530854051802,45.2997258023777,0.));
#485=CARTESIAN_POINT('',(8.70798898558468,45.5672929400329,0.));
#486=CARTESIAN_POINT('',(8.60312241072675,46.0843857602088,0.));
#487=CARTESIAN_POINT('',(8.52602350186692,46.3359725054461,0.));
#488=CARTESIAN_POINT('',(8.32170023480438,46.825002572497,0.));
#489=CARTESIAN_POINT('',(8.19462558610348,47.0604641450182,0.));
#490=CARTESIAN_POINT('',(7.90061415435944,47.4968918626824,0.));
#491=CARTESIAN_POINT('',(7.73208090613457,47.7010529417907,0.));
#492=CARTESIAN_POINT('',(7.3536406488933,48.0760633667983,0.));
#493=CARTESIAN_POINT('',(7.14893732073246,48.2419953832492,0.));
#494=CARTESIAN_POINT('',(6.70961403627724,48.5321757006963,0.));
#495=CARTESIAN_POINT('',(6.47209653242019,48.6573945621206,0.));
#496=CARTESIAN_POINT('',(5.98217988637317,48.8563472904225,0.));
#497=CARTESIAN_POINT('',(5.72991812575623,48.9308714093715,0.));
#498=CARTESIAN_POINT('',(5.21081862122117,49.0301206992076,0.));
#499=CARTESIAN_POINT('',(4.94323660471957,49.0541634309418,0.));
#500=CARTESIAN_POINT('',(4.41668424921364,49.0494997349641,0.));
#501=CARTESIAN_POINT('',(4.15478218525447,49.0215787770791,0.));
#502=CARTESIAN_POINT('',(3.63380957248012,48.9130076386507,0.));
#503=CARTESIAN_POINT('',(3.3806816666942,48.8333129094065,0.));
#504=CARTESIAN_POINT('',(2.89658805266902,48.6274446826896,0.));
#505=CARTESIAN_POINT('',(2.66228852722312,48.4995814606017,0.));
#506=CARTESIAN_POINT('',(2.22386566975479,48.2006102735167,0.));
#507=CARTESIAN_POINT('',(2.02205263927908,48.0317118886224,0.));
#508=CARTESIAN_POINT('',(1.65245399198033,47.6559479984322,0.));
#509=CARTESIAN_POINT('',(1.48351056133055,47.446697912116,0.));
#510=CARTESIAN_POINT('',(1.19377655443244,47.0056604676796,0.));
#511=CARTESIAN_POINT('',(1.07129934168424,46.7728437714863,0.));
#512=CARTESIAN_POINT('',(0.871571913285136,46.2823686804565,0.));
#513=CARTESIAN_POINT('',(0.795394872862838,46.0255710057141,0.));
#514=CARTESIAN_POINT('',(0.695366424295757,45.5089328855431,0.));
#515=CARTESIAN_POINT('',(0.670317557494745,45.2464582942088,0.));
#516=CARTESIAN_POINT('',(0.672341282271926,44.7128333956336,0.));
#517=CARTESIAN_POINT('',(0.,0.,0.));
#518=CARTESIAN_POINT('',(0.,0.,0.));
#519=(
GEOMETRIC_REPRESENTATION_CONTEXT(3)
GLOBAL_UNCERTAINTY_ASSIGNED_CONTEXT((#520))
GLOBAL_UNIT_ASSIGNED_CONTEXT((#526,#522,#521))
REPRESENTATION_CONTEXT('model1','TOP_LEVEL_ASSEMBLY_PART')
);
#520=UNCERTAINTY_MEASURE_WITH_UNIT(LENGTH_MEASURE(2.E-5),#526,
'DISTANCE_ACCURACY_VALUE','Maximum Tolerance applied to model');
#521=(
NAMED_UNIT(*)
SI_UNIT($,.STERADIAN.)
SOLID_ANGLE_UNIT()
);
#522=(
CONVERSION_BASED_UNIT('DEGREE',#524)
NAMED_UNIT(#523)
PLANE_ANGLE_UNIT()
);
#523=DIMENSIONAL_EXPONENTS(0.,0.,0.,0.,0.,0.,0.);
#524=PLANE_ANGLE_MEASURE_WITH_UNIT(PLANE_ANGLE_MEASURE(0.0174532925),#525);
#525=(
NAMED_UNIT(*)
PLANE_ANGLE_UNIT()
SI_UNIT($,.RADIAN.)
);
#526=(
LENGTH_UNIT()
NAMED_UNIT(*)
SI_UNIT(.MILLI.,.METRE.)
);
ENDSEC;
END-ISO-10303-21;
