ISO-10303-21;
HEADER;
/* Generated by software containing ST-Developer
 * from STEP Tools, Inc. (www.steptools.com) 
 */
/* OPTION: using custom schema-name function */

FILE_DESCRIPTION(
/* description */ (''),
/* implementation_level */ '2;1');

FILE_NAME(
/* name */ 'model1.stp',
/* time_stamp */ '2023-11-02T17:48:01+03:00',
/* author */ (''),
/* organization */ (''),
/* preprocessor_version */ 'ST-DEVELOPER v19.4',
/* originating_system */ 'SIEMENS PLM Software NX2306.3001',
/* authorisation */ '');

FILE_SCHEMA (('AUTOMOTIVE_DESIGN { 1 0 10303 214 3 1 1 1 }'));
ENDSEC;

DATA;
#10=PROPERTY_DEFINITION_REPRESENTATION(#14,#12);
#11=PROPERTY_DEFINITION_REPRESENTATION(#15,#13);
#12=REPRESENTATION('',(#16),#490);
#13=REPRESENTATION('',(#17),#490);
#14=PROPERTY_DEFINITION('pmi validation property','',#21);
#15=PROPERTY_DEFINITION('pmi validation property','',#21);
#16=VALUE_REPRESENTATION_ITEM('number of annotations',COUNT_MEASURE(0.));
#17=VALUE_REPRESENTATION_ITEM('number of views',COUNT_MEASURE(0.));
#18=SHAPE_REPRESENTATION_RELATIONSHIP('None',
'relationship between model1_objects-None and model1_objects-None',#30,
#19);
#19=ADVANCED_BREP_SHAPE_REPRESENTATION('model1_objects-None',(#133,#134),
#490);
#20=SHAPE_DEFINITION_REPRESENTATION(#21,#30);
#21=PRODUCT_DEFINITION_SHAPE('','',#22);
#22=PRODUCT_DEFINITION(' ','',#24,#23);
#23=PRODUCT_DEFINITION_CONTEXT('part definition',#29,'design');
#24=PRODUCT_DEFINITION_FORMATION_WITH_SPECIFIED_SOURCE(' ',' ',#26,
 .NOT_KNOWN.);
#25=PRODUCT_RELATED_PRODUCT_CATEGORY('part','',(#26));
#26=PRODUCT('model1_objects','model1_objects',' ',(#27));
#27=PRODUCT_CONTEXT(' ',#29,'mechanical');
#28=APPLICATION_PROTOCOL_DEFINITION('international standard',
'automotive_design',2010,#29);
#29=APPLICATION_CONTEXT(
'core data for automotive mechanical design processes');
#30=SHAPE_REPRESENTATION('model1_objects-None',(#251),#490);
#31=OVER_RIDING_STYLED_ITEM('',(#62),#139,#59);
#32=OVER_RIDING_STYLED_ITEM('',(#63),#140,#59);
#33=OVER_RIDING_STYLED_ITEM('',(#64),#141,#59);
#34=OVER_RIDING_STYLED_ITEM('',(#65),#142,#59);
#35=OVER_RIDING_STYLED_ITEM('',(#66),#143,#59);
#36=OVER_RIDING_STYLED_ITEM('',(#67),#144,#59);
#37=OVER_RIDING_STYLED_ITEM('',(#68),#145,#59);
#38=OVER_RIDING_STYLED_ITEM('',(#69),#146,#59);
#39=OVER_RIDING_STYLED_ITEM('',(#70),#147,#59);
#40=OVER_RIDING_STYLED_ITEM('',(#71),#148,#59);
#41=COLOUR_RGB('Medium Steel',0.611764705882353,0.658823529411765,0.670588235294118);
#42=COLOUR_RGB('silver gray',0.6,0.6,0.6);
#43=CONICAL_SURFACE('',#271,17.6930492024627,75.0000000004228);
#44=VERTEX_LOOP('',#228);
#45=SURFACE_OF_REVOLUTION('',#47,#46);
#46=AXIS1_PLACEMENT('',#487,#312);
#47=B_SPLINE_CURVE_WITH_KNOTS('',3,(#423,#424,#425,#426,#427,#428,#429,
#430,#431,#432,#433,#434,#435,#436,#437,#438,#439,#440,#441,#442,#443,#444,
#445,#446,#447,#448,#449,#450,#451,#452,#453,#454,#455,#456,#457,#458,#459,
#460,#461,#462,#463,#464,#465,#466,#467,#468,#469,#470,#471,#472,#473,#474,
#475,#476,#477,#478,#479,#480,#481,#482,#483,#484,#485,#486),
 .UNSPECIFIED.,.T.,.F.,(2,2,2,2,2,2,2,2,2,2,2,2,2,2,2,2,2,2,2,2,2,2,2,2,
2,2,2,2,2,2,2,2,2,2),(-0.03125,0.,0.0625,0.09375,0.125,0.15625,0.1875,0.21875,
0.25,0.28125,0.3125,0.34375,0.375,0.40625,0.4375,0.46875,0.5,0.53125,0.5625,
0.59375,0.625,0.65625,0.6875,0.71875,0.75,0.78125,0.8125,0.84375,0.875,
0.90625,0.9375,0.96875,1.,1.0625),.UNSPECIFIED.);
#48=TOROIDAL_SURFACE('',#259,19.5,1.5);
#49=TOROIDAL_SURFACE('',#261,16.,5.);
#50=TOROIDAL_SURFACE('',#263,60.2,40.);
#51=TOROIDAL_SURFACE('',#265,19.,5.);
#52=TOROIDAL_SURFACE('',#269,26.0000000002907,2.00000000014561);
#53=PLANE('',#258);
#54=FACE_OUTER_BOUND('',#179,.T.);
#55=CYLINDRICAL_SURFACE('',#256,21.);
#56=CYLINDRICAL_SURFACE('',#267,24.);
#57=PRESENTATION_LAYER_ASSIGNMENT('1','Layer 1',(#133,#134));
#58=STYLED_ITEM('',(#60),#133);
#59=STYLED_ITEM('',(#61),#134);
#60=PRESENTATION_STYLE_ASSIGNMENT((#72));
#61=PRESENTATION_STYLE_ASSIGNMENT((#73));
#62=PRESENTATION_STYLE_ASSIGNMENT((#74));
#63=PRESENTATION_STYLE_ASSIGNMENT((#75));
#64=PRESENTATION_STYLE_ASSIGNMENT((#76));
#65=PRESENTATION_STYLE_ASSIGNMENT((#77));
#66=PRESENTATION_STYLE_ASSIGNMENT((#78));
#67=PRESENTATION_STYLE_ASSIGNMENT((#79));
#68=PRESENTATION_STYLE_ASSIGNMENT((#80));
#69=PRESENTATION_STYLE_ASSIGNMENT((#81));
#70=PRESENTATION_STYLE_ASSIGNMENT((#82));
#71=PRESENTATION_STYLE_ASSIGNMENT((#83));
#72=SURFACE_STYLE_USAGE(.BOTH.,#84);
#73=SURFACE_STYLE_USAGE(.BOTH.,#85);
#74=SURFACE_STYLE_USAGE(.BOTH.,#86);
#75=SURFACE_STYLE_USAGE(.BOTH.,#87);
#76=SURFACE_STYLE_USAGE(.BOTH.,#88);
#77=SURFACE_STYLE_USAGE(.BOTH.,#89);
#78=SURFACE_STYLE_USAGE(.BOTH.,#90);
#79=SURFACE_STYLE_USAGE(.BOTH.,#91);
#80=SURFACE_STYLE_USAGE(.BOTH.,#92);
#81=SURFACE_STYLE_USAGE(.BOTH.,#93);
#82=SURFACE_STYLE_USAGE(.BOTH.,#94);
#83=SURFACE_STYLE_USAGE(.BOTH.,#95);
#84=SURFACE_SIDE_STYLE('',(#96));
#85=SURFACE_SIDE_STYLE('',(#97));
#86=SURFACE_SIDE_STYLE('',(#98));
#87=SURFACE_SIDE_STYLE('',(#99));
#88=SURFACE_SIDE_STYLE('',(#100));
#89=SURFACE_SIDE_STYLE('',(#101));
#90=SURFACE_SIDE_STYLE('',(#102));
#91=SURFACE_SIDE_STYLE('',(#103));
#92=SURFACE_SIDE_STYLE('',(#104));
#93=SURFACE_SIDE_STYLE('',(#105));
#94=SURFACE_SIDE_STYLE('',(#106));
#95=SURFACE_SIDE_STYLE('',(#107));
#96=SURFACE_STYLE_FILL_AREA(#108);
#97=SURFACE_STYLE_FILL_AREA(#109);
#98=SURFACE_STYLE_FILL_AREA(#110);
#99=SURFACE_STYLE_FILL_AREA(#111);
#100=SURFACE_STYLE_FILL_AREA(#112);
#101=SURFACE_STYLE_FILL_AREA(#113);
#102=SURFACE_STYLE_FILL_AREA(#114);
#103=SURFACE_STYLE_FILL_AREA(#115);
#104=SURFACE_STYLE_FILL_AREA(#116);
#105=SURFACE_STYLE_FILL_AREA(#117);
#106=SURFACE_STYLE_FILL_AREA(#118);
#107=SURFACE_STYLE_FILL_AREA(#119);
#108=FILL_AREA_STYLE('',(#120));
#109=FILL_AREA_STYLE('',(#121));
#110=FILL_AREA_STYLE('',(#122));
#111=FILL_AREA_STYLE('',(#123));
#112=FILL_AREA_STYLE('',(#124));
#113=FILL_AREA_STYLE('',(#125));
#114=FILL_AREA_STYLE('',(#126));
#115=FILL_AREA_STYLE('',(#127));
#116=FILL_AREA_STYLE('',(#128));
#117=FILL_AREA_STYLE('',(#129));
#118=FILL_AREA_STYLE('',(#130));
#119=FILL_AREA_STYLE('',(#131));
#120=FILL_AREA_STYLE_COLOUR('',#132);
#121=FILL_AREA_STYLE_COLOUR('',#41);
#122=FILL_AREA_STYLE_COLOUR('',#42);
#123=FILL_AREA_STYLE_COLOUR('',#42);
#124=FILL_AREA_STYLE_COLOUR('',#42);
#125=FILL_AREA_STYLE_COLOUR('',#42);
#126=FILL_AREA_STYLE_COLOUR('',#42);
#127=FILL_AREA_STYLE_COLOUR('',#42);
#128=FILL_AREA_STYLE_COLOUR('',#42);
#129=FILL_AREA_STYLE_COLOUR('',#42);
#130=FILL_AREA_STYLE_COLOUR('',#42);
#131=FILL_AREA_STYLE_COLOUR('',#42);
#132=DRAUGHTING_PRE_DEFINED_COLOUR('yellow');
#133=MANIFOLD_SOLID_BREP('',#135);
#134=MANIFOLD_SOLID_BREP('',#136);
#135=CLOSED_SHELL('',(#137,#138));
#136=CLOSED_SHELL('',(#139,#140,#141,#142,#143,#144,#145,#146,#147,#148));
#137=ADVANCED_FACE('',(#151,#152),#149,.F.);
#138=ADVANCED_FACE('',(#153,#154),#150,.F.);
#139=ADVANCED_FACE('',(#155,#156),#55,.T.);
#140=ADVANCED_FACE('',(#54),#53,.F.);
#141=ADVANCED_FACE('',(#157,#158),#48,.T.);
#142=ADVANCED_FACE('',(#159,#160),#49,.T.);
#143=ADVANCED_FACE('',(#161,#162),#50,.F.);
#144=ADVANCED_FACE('',(#163,#164),#51,.T.);
#145=ADVANCED_FACE('',(#165,#166),#56,.T.);
#146=ADVANCED_FACE('',(#167,#168),#52,.F.);
#147=ADVANCED_FACE('',(#169,#170),#45,.T.);
#148=ADVANCED_FACE('',(#171,#172),#43,.F.);
#149=(
BOUNDED_SURFACE()
B_SPLINE_SURFACE(3,3,((#320,#321,#322,#323,#324,#325,#326),(#327,#328,#329,
#330,#331,#332,#333),(#334,#335,#336,#337,#338,#339,#340),(#341,#342,#343,
#344,#345,#346,#347),(#348,#349,#350,#351,#352,#353,#354),(#355,#356,#357,
#358,#359,#360,#361),(#362,#363,#364,#365,#366,#367,#368)),
 .UNSPECIFIED.,.T.,.F.,.F.)
B_SPLINE_SURFACE_WITH_KNOTS((1,3,3,3,1),(4,3,4),(-0.5,0.,0.5,1.,1.5),(0.,
0.5,1.),.UNSPECIFIED.)
GEOMETRIC_REPRESENTATION_ITEM()
RATIONAL_B_SPLINE_SURFACE(((1.,0.595866944045909,0.595866944045909,1.,0.595866944045909,
0.595866944045909,1.),(0.333333333333334,0.198622314681969,0.198622314681969,
0.333333333333334,0.198622314681969,0.198622314681969,0.333333333333334),
(0.333333333333334,0.198622314681969,0.198622314681969,0.333333333333334,
0.198622314681969,0.198622314681969,0.333333333333334),(1.,0.595866944045909,
0.595866944045909,1.,0.595866944045909,0.595866944045909,1.),(0.333333333333334,
0.198622314681969,0.198622314681969,0.333333333333334,0.198622314681969,
0.198622314681969,0.333333333333334),(0.333333333333334,0.198622314681969,
0.198622314681969,0.333333333333334,0.198622314681969,0.198622314681969,
0.333333333333334),(1.,0.595866944045909,0.595866944045909,1.,0.595866944045909,
0.595866944045909,1.)))
REPRESENTATION_ITEM('')
SURFACE()
);
#150=(
BOUNDED_SURFACE()
B_SPLINE_SURFACE(3,3,((#369,#370,#371,#372),(#373,#374,#375,#376),(#377,
#378,#379,#380),(#381,#382,#383,#384),(#385,#386,#387,#388),(#389,#390,
#391,#392),(#393,#394,#395,#396)),.UNSPECIFIED.,.T.,.F.,.F.)
B_SPLINE_SURFACE_WITH_KNOTS((1,3,3,3,1),(4,4),(-0.5,0.,0.5,1.,1.5),(0.,
1.),.UNSPECIFIED.)
GEOMETRIC_REPRESENTATION_ITEM()
RATIONAL_B_SPLINE_SURFACE(((1.,0.793228309738654,0.793228309738654,1.),
(0.333333333333334,0.264409436579552,0.264409436579552,0.333333333333334),
(0.333333333333334,0.264409436579552,0.264409436579552,0.333333333333334),
(1.,0.793228309738654,0.793228309738654,1.),(0.333333333333334,0.264409436579552,
0.264409436579552,0.333333333333334),(0.333333333333334,0.264409436579552,
0.264409436579552,0.333333333333334),(1.,0.793228309738654,0.793228309738654,
1.)))
REPRESENTATION_ITEM('')
SURFACE()
);
#151=FACE_BOUND('',#173,.T.);
#152=FACE_BOUND('',#174,.T.);
#153=FACE_BOUND('',#175,.T.);
#154=FACE_BOUND('',#176,.T.);
#155=FACE_BOUND('',#177,.T.);
#156=FACE_BOUND('',#178,.T.);
#157=FACE_BOUND('',#180,.T.);
#158=FACE_BOUND('',#181,.T.);
#159=FACE_BOUND('',#182,.T.);
#160=FACE_BOUND('',#183,.T.);
#161=FACE_BOUND('',#184,.T.);
#162=FACE_BOUND('',#185,.T.);
#163=FACE_BOUND('',#186,.T.);
#164=FACE_BOUND('',#187,.T.);
#165=FACE_BOUND('',#188,.T.);
#166=FACE_BOUND('',#189,.T.);
#167=FACE_BOUND('',#190,.T.);
#168=FACE_BOUND('',#191,.T.);
#169=FACE_BOUND('',#192,.T.);
#170=FACE_BOUND('',#193,.T.);
#171=FACE_BOUND('',#194,.T.);
#172=FACE_BOUND('',#44,.T.);
#173=EDGE_LOOP('',(#195));
#174=EDGE_LOOP('',(#196));
#175=EDGE_LOOP('',(#197));
#176=EDGE_LOOP('',(#198));
#177=EDGE_LOOP('',(#199));
#178=EDGE_LOOP('',(#200));
#179=EDGE_LOOP('',(#201));
#180=EDGE_LOOP('',(#202));
#181=EDGE_LOOP('',(#203));
#182=EDGE_LOOP('',(#204));
#183=EDGE_LOOP('',(#205));
#184=EDGE_LOOP('',(#206));
#185=EDGE_LOOP('',(#207));
#186=EDGE_LOOP('',(#208));
#187=EDGE_LOOP('',(#209));
#188=EDGE_LOOP('',(#210));
#189=EDGE_LOOP('',(#211));
#190=EDGE_LOOP('',(#212));
#191=EDGE_LOOP('',(#213));
#192=EDGE_LOOP('',(#214));
#193=EDGE_LOOP('',(#215));
#194=EDGE_LOOP('',(#216));
#195=ORIENTED_EDGE('',*,*,#229,.T.);
#196=ORIENTED_EDGE('',*,*,#230,.F.);
#197=ORIENTED_EDGE('',*,*,#230,.T.);
#198=ORIENTED_EDGE('',*,*,#229,.F.);
#199=ORIENTED_EDGE('',*,*,#231,.T.);
#200=ORIENTED_EDGE('',*,*,#232,.F.);
#201=ORIENTED_EDGE('',*,*,#233,.F.);
#202=ORIENTED_EDGE('',*,*,#231,.F.);
#203=ORIENTED_EDGE('',*,*,#233,.T.);
#204=ORIENTED_EDGE('',*,*,#234,.F.);
#205=ORIENTED_EDGE('',*,*,#232,.T.);
#206=ORIENTED_EDGE('',*,*,#235,.F.);
#207=ORIENTED_EDGE('',*,*,#234,.T.);
#208=ORIENTED_EDGE('',*,*,#236,.F.);
#209=ORIENTED_EDGE('',*,*,#235,.T.);
#210=ORIENTED_EDGE('',*,*,#237,.F.);
#211=ORIENTED_EDGE('',*,*,#236,.T.);
#212=ORIENTED_EDGE('',*,*,#238,.F.);
#213=ORIENTED_EDGE('',*,*,#237,.T.);
#214=ORIENTED_EDGE('',*,*,#239,.F.);
#215=ORIENTED_EDGE('',*,*,#238,.T.);
#216=ORIENTED_EDGE('',*,*,#239,.T.);
#217=VERTEX_POINT('',#317);
#218=VERTEX_POINT('',#319);
#219=VERTEX_POINT('',#398);
#220=VERTEX_POINT('',#400);
#221=VERTEX_POINT('',#403);
#222=VERTEX_POINT('',#407);
#223=VERTEX_POINT('',#410);
#224=VERTEX_POINT('',#413);
#225=VERTEX_POINT('',#416);
#226=VERTEX_POINT('',#419);
#227=VERTEX_POINT('',#422);
#228=VERTEX_POINT('',#488);
#229=EDGE_CURVE('',#217,#217,#240,.T.);
#230=EDGE_CURVE('',#218,#218,#241,.T.);
#231=EDGE_CURVE('',#219,#219,#242,.T.);
#232=EDGE_CURVE('',#220,#220,#243,.T.);
#233=EDGE_CURVE('',#221,#221,#244,.T.);
#234=EDGE_CURVE('',#222,#222,#245,.T.);
#235=EDGE_CURVE('',#223,#223,#246,.T.);
#236=EDGE_CURVE('',#224,#224,#247,.T.);
#237=EDGE_CURVE('',#225,#225,#248,.T.);
#238=EDGE_CURVE('',#226,#226,#249,.T.);
#239=EDGE_CURVE('',#227,#227,#250,.T.);
#240=CIRCLE('',#252,5.);
#241=CIRCLE('',#253,5.);
#242=CIRCLE('',#254,21.);
#243=CIRCLE('',#255,21.);
#244=CIRCLE('',#257,19.5);
#245=CIRCLE('',#260,20.9111111111111);
#246=CIRCLE('',#262,23.5777777777778);
#247=CIRCLE('',#264,24.);
#248=CIRCLE('',#266,24.);
#249=CIRCLE('',#268,24.1817497105451);
#250=CIRCLE('',#270,17.6930492024627);
#251=AXIS2_PLACEMENT_3D('',#315,#272,#273);
#252=AXIS2_PLACEMENT_3D('',#316,#274,#275);
#253=AXIS2_PLACEMENT_3D('',#318,#276,#277);
#254=AXIS2_PLACEMENT_3D('',#397,#278,#279);
#255=AXIS2_PLACEMENT_3D('',#399,#280,#281);
#256=AXIS2_PLACEMENT_3D('',#401,#282,#283);
#257=AXIS2_PLACEMENT_3D('',#402,#284,#285);
#258=AXIS2_PLACEMENT_3D('',#404,#286,#287);
#259=AXIS2_PLACEMENT_3D('',#405,#288,#289);
#260=AXIS2_PLACEMENT_3D('',#406,#290,#291);
#261=AXIS2_PLACEMENT_3D('',#408,#292,#293);
#262=AXIS2_PLACEMENT_3D('',#409,#294,#295);
#263=AXIS2_PLACEMENT_3D('',#411,#296,#297);
#264=AXIS2_PLACEMENT_3D('',#412,#298,#299);
#265=AXIS2_PLACEMENT_3D('',#414,#300,#301);
#266=AXIS2_PLACEMENT_3D('',#415,#302,#303);
#267=AXIS2_PLACEMENT_3D('',#417,#304,#305);
#268=AXIS2_PLACEMENT_3D('',#418,#306,#307);
#269=AXIS2_PLACEMENT_3D('',#420,#308,#309);
#270=AXIS2_PLACEMENT_3D('',#421,#310,#311);
#271=AXIS2_PLACEMENT_3D('',#489,#313,#314);
#272=DIRECTION('',(0.,0.,1.));
#273=DIRECTION('',(1.,0.,0.));
#274=DIRECTION('',(0.121869343405148,0.99231548262432,0.0213973382003933));
#275=DIRECTION('',(0.992510112580906,-0.122020306238703,0.00589247741194232));
#276=DIRECTION('',(0.121869343405148,-0.0692365195668007,0.990128359101119));
#277=DIRECTION('',(0.992510112580906,0.,-0.122162500075257));
#278=DIRECTION('',(-1.,0.,0.));
#279=DIRECTION('',(0.,0.,1.));
#280=DIRECTION('',(-1.,0.,0.));
#281=DIRECTION('',(0.,0.,1.));
#282=DIRECTION('',(-1.,0.,0.));
#283=DIRECTION('',(0.,0.,1.));
#284=DIRECTION('',(-1.,0.,0.));
#285=DIRECTION('',(0.,0.,1.));
#286=DIRECTION('',(-1.,0.,0.));
#287=DIRECTION('',(0.,0.,1.));
#288=DIRECTION('',(-1.,0.,0.));
#289=DIRECTION('',(0.,0.,1.));
#290=DIRECTION('',(-1.,0.,0.));
#291=DIRECTION('',(0.,0.,1.));
#292=DIRECTION('',(-1.,0.,0.));
#293=DIRECTION('',(0.,0.,1.));
#294=DIRECTION('',(-1.,0.,0.));
#295=DIRECTION('',(0.,0.,1.));
#296=DIRECTION('',(-1.,0.,0.));
#297=DIRECTION('',(0.,0.,1.));
#298=DIRECTION('',(-1.,0.,0.));
#299=DIRECTION('',(0.,0.,1.));
#300=DIRECTION('',(-1.,0.,0.));
#301=DIRECTION('',(0.,0.,1.));
#302=DIRECTION('',(-1.,0.,0.));
#303=DIRECTION('',(0.,0.,1.));
#304=DIRECTION('',(-1.,0.,0.));
#305=DIRECTION('',(0.,0.,1.));
#306=DIRECTION('',(-1.,0.,0.));
#307=DIRECTION('',(0.,0.,1.));
#308=DIRECTION('',(-1.,0.,0.));
#309=DIRECTION('',(0.,0.,1.));
#310=DIRECTION('',(-1.,0.,0.));
#311=DIRECTION('',(0.,0.,1.));
#312=DIRECTION('',(-1.,0.,0.));
#313=DIRECTION('',(-1.,0.,0.));
#314=DIRECTION('',(-6.3610872382409E-18,0.,1.));
#315=CARTESIAN_POINT('',(0.,0.,0.));
#316=CARTESIAN_POINT('',(4.96273075820661,0.405653994856585,21.0023736968115));
#317=CARTESIAN_POINT('',(9.92528132111114,-0.204447536336929,21.0318360838712));
#318=CARTESIAN_POINT('',(4.96273075820661,-20.9974941217327,-0.607862379048722));
#319=CARTESIAN_POINT('',(9.92528132111114,-20.9974941217327,-1.218674879425));
#320=CARTESIAN_POINT('',(9.92528132111114,-20.9974941217327,-1.218674879425));
#321=CARTESIAN_POINT('',(9.92528132111113,-19.7441930284933,-22.8127708785748));
#322=CARTESIAN_POINT('',(9.92528132111113,0.59856349390869,-30.1645055528598));
#323=CARTESIAN_POINT('',(9.92528132111114,15.3672343656882,-14.3606419008327));
#324=CARTESIAN_POINT('',(9.92528132111113,30.1359052374677,1.44322175119441));
#325=CARTESIAN_POINT('',(9.92528132111113,21.4249661832474,21.2420925888072));
#326=CARTESIAN_POINT('',(9.92528132111114,-0.204447536336928,21.0318360838712));
#327=CARTESIAN_POINT('',(10.009862384379,-11.0214913933937,-0.53149542112545));
#328=CARTESIAN_POINT('',(10.0098623843791,-10.4748945909204,-11.8661404898632));
#329=CARTESIAN_POINT('',(10.0098623843791,0.159115532290224,-15.8272988555675));
#330=CARTESIAN_POINT('',(10.009862384379,7.98787395181855,-7.61246541188775));
#331=CARTESIAN_POINT('',(10.0098623843791,15.8166323713469,0.602368031791966));
#332=CARTESIAN_POINT('',(10.0098623843791,11.348558893962,11.0335360536112));
#333=CARTESIAN_POINT('',(10.009862384379,0.000742085592881497,11.0342992240848));
#334=CARTESIAN_POINT('',(0.0847612585699754,-11.0214913933937,0.690129579627115));
#335=CARTESIAN_POINT('',(0.0847612585699755,-11.7312296272954,-10.6445154891106));
#336=CARTESIAN_POINT('',(0.0847612585699755,-1.59196476413124,-15.7604919579312));
#337=CARTESIAN_POINT('',(0.0847612585699754,7.10346691326343,-8.45519421323362));
#338=CARTESIAN_POINT('',(0.0847612585699755,15.7988985906581,-1.14989646853604));
#339=CARTESIAN_POINT('',(0.0847612585699755,12.5081629524067,9.71973858302225));
#340=CARTESIAN_POINT('',(0.0847612585699754,1.22094514797991,10.9753744499653));
#341=CARTESIAN_POINT('',(0.000180195302076392,-20.9974941217327,0.00295012132756122));
#342=CARTESIAN_POINT('',(0.000180195302076392,-21.0005280648683,-21.5911458778222));
#343=CARTESIAN_POINT('',(0.000180195302076392,-1.15251680251277,-30.0976986552236));
#344=CARTESIAN_POINT('',(0.000180195302076392,14.4828273271331,-15.2033707021786));
#345=CARTESIAN_POINT('',(0.000180195302076392,30.1181714567789,-0.309042749133592));
#346=CARTESIAN_POINT('',(0.000180195302076392,22.5845702416921,19.9282951182182));
#347=CARTESIAN_POINT('',(0.000180195302076392,1.0157555260501,20.9729113097518));
#348=CARTESIAN_POINT('',(-0.0844008679658227,-30.9734968500717,-0.684229336971993));
#349=CARTESIAN_POINT('',(-0.0844008679658227,-30.2698265024413,-32.5377762665339));
#350=CARTESIAN_POINT('',(-0.0844008679658227,-0.713068840894307,-44.4349053525161));
#351=CARTESIAN_POINT('',(-0.0844008679658227,21.8621877410027,-21.9515471911236));
#352=CARTESIAN_POINT('',(-0.0844008679658227,44.4374443228998,0.531810970268845));
#353=CARTESIAN_POINT('',(-0.0844008679658227,32.6609775309776,30.1368516534142));
#354=CARTESIAN_POINT('',(-0.0844008679658227,0.810565904120289,30.9704481695382));
#355=CARTESIAN_POINT('',(9.84070025784323,-30.9734968500717,-1.90585433772456));
#356=CARTESIAN_POINT('',(9.84070025784325,-29.0134914660662,-33.7594012672865));
#357=CARTESIAN_POINT('',(9.84070025784325,1.03801145552716,-44.5017122501523));
#358=CARTESIAN_POINT('',(9.84070025784323,22.7465947795578,-21.1088183897777));
#359=CARTESIAN_POINT('',(9.84070025784325,44.4551781035886,2.28407547059684));
#360=CARTESIAN_POINT('',(9.84070025784325,31.5013734725329,31.4506491240032));
#361=CARTESIAN_POINT('',(9.84070025784323,-0.409637158266737,31.0293729436577));
#362=CARTESIAN_POINT('',(9.92528132111114,-20.9974941217327,-1.218674879425));
#363=CARTESIAN_POINT('',(9.92528132111113,-19.7441930284933,-22.8127708785748));
#364=CARTESIAN_POINT('',(9.92528132111113,0.59856349390869,-30.1645055528598));
#365=CARTESIAN_POINT('',(9.92528132111114,15.3672343656882,-14.3606419008327));
#366=CARTESIAN_POINT('',(9.92528132111113,30.1359052374677,1.44322175119441));
#367=CARTESIAN_POINT('',(9.92528132111113,21.4249661832474,21.2420925888072));
#368=CARTESIAN_POINT('',(9.92528132111114,-0.204447536336928,21.0318360838712));
#369=CARTESIAN_POINT('',(9.92528132111114,-0.204447536336929,21.0318360838713));
#370=CARTESIAN_POINT('',(9.92528132111115,-13.0012657927396,20.9074400038029));
#371=CARTESIAN_POINT('',(9.92528132111115,-21.738996712541,11.5572480140477));
#372=CARTESIAN_POINT('',(9.92528132111114,-20.9974941217327,-1.21867487942501));
#373=CARTESIAN_POINT('',(10.009862384379,0.000742085592880927,11.0342992240848));
#374=CARTESIAN_POINT('',(10.009862384379,-6.71307601351559,11.0347507459788));
#375=CARTESIAN_POINT('',(10.009862384379,-11.344879721504,6.17452975486596));
#376=CARTESIAN_POINT('',(10.009862384379,-11.0214913933937,-0.531495421125451));
#377=CARTESIAN_POINT('',(0.0847612585699754,1.22094514797991,10.9753744499653));
#378=CARTESIAN_POINT('',(0.0847612585699755,-5.4570201790644,11.7182583854158));
#379=CARTESIAN_POINT('',(0.0847612585699755,-10.6015821297118,7.39615475561853));
#380=CARTESIAN_POINT('',(0.0847612585699754,-11.0214913933937,0.690129579627115));
#381=CARTESIAN_POINT('',(0.000180195302076392,1.0157555260501,20.9729113097518));
#382=CARTESIAN_POINT('',(0.000180195302076393,-11.7452099582884,21.5909476432399));
#383=CARTESIAN_POINT('',(0.000180195302076393,-20.9956991207488,12.7788730148003));
#384=CARTESIAN_POINT('',(0.000180195302076392,-20.9974941217327,0.00295012132755959));
#385=CARTESIAN_POINT('',(-0.0844008679658227,0.810565904120289,30.9704481695382));
#386=CARTESIAN_POINT('',(-0.0844008679658227,-18.0333997375123,31.4636369010641));
#387=CARTESIAN_POINT('',(-0.0844008679658227,-31.3898161117859,18.161591273982));
#388=CARTESIAN_POINT('',(-0.0844008679658227,-30.9734968500717,-0.684229336971996));
#389=CARTESIAN_POINT('',(9.84070025784323,-0.40963715826674,31.0293729436577));
#390=CARTESIAN_POINT('',(9.84070025784325,-19.2894555719635,30.780129261627));
#391=CARTESIAN_POINT('',(9.84070025784325,-32.133113703578,16.9399662732295));
#392=CARTESIAN_POINT('',(9.84070025784323,-30.9734968500717,-1.90585433772456));
#393=CARTESIAN_POINT('',(9.92528132111114,-0.204447536336929,21.0318360838713));
#394=CARTESIAN_POINT('',(9.92528132111115,-13.0012657927396,20.9074400038029));
#395=CARTESIAN_POINT('',(9.92528132111115,-21.738996712541,11.5572480140477));
#396=CARTESIAN_POINT('',(9.92528132111114,-20.9974941217327,-1.21867487942501));
#397=CARTESIAN_POINT('',(48.5,0.,0.));
#398=CARTESIAN_POINT('',(48.5,0.,21.));
#399=CARTESIAN_POINT('',(42.,0.,0.));
#400=CARTESIAN_POINT('',(42.,0.,21.));
#401=CARTESIAN_POINT('',(0.,0.,0.));
#402=CARTESIAN_POINT('',(50.,0.,0.));
#403=CARTESIAN_POINT('',(50.,0.,19.5));
#404=CARTESIAN_POINT('',(50.,12.,0.));
#405=CARTESIAN_POINT('',(48.5,0.,0.));
#406=CARTESIAN_POINT('',(41.0613905741359,0.,0.));
#407=CARTESIAN_POINT('',(41.0613905741359,0.,20.9111111111111));
#408=CARTESIAN_POINT('',(42.,0.,0.));
#409=CARTESIAN_POINT('',(17.4648540722665,0.,0.));
#410=CARTESIAN_POINT('',(17.4648540722665,0.,23.5777777777778));
#411=CARTESIAN_POINT('',(33.5525151672229,0.,0.));
#412=CARTESIAN_POINT('',(15.453896435397,0.,0.));
#413=CARTESIAN_POINT('',(15.453896435397,0.,24.));
#414=CARTESIAN_POINT('',(15.453896435397,0.,0.));
#415=CARTESIAN_POINT('',(7.73943822557928,0.,0.));
#416=CARTESIAN_POINT('',(7.73943822557928,0.,24.));
#417=CARTESIAN_POINT('',(0.,0.,0.));
#418=CARTESIAN_POINT('',(6.9063920777444,0.,0.));
#419=CARTESIAN_POINT('',(6.9063920777444,0.,24.1817497105451));
#420=CARTESIAN_POINT('',(7.73943822557928,0.,0.));
#421=CARTESIAN_POINT('',(3.00000000007153,0.,0.));
#422=CARTESIAN_POINT('',(3.00000000007153,0.,17.6930492024627));
#423=CARTESIAN_POINT('',(0.669259943023692,21.3696515013068,0.));
#424=CARTESIAN_POINT('',(0.675682445944021,20.6162872659785,0.));
#425=CARTESIAN_POINT('',(0.780706518316211,20.1183379031934,0.));
#426=CARTESIAN_POINT('',(1.07467224542111,19.4353476989092,0.));
#427=CARTESIAN_POINT('',(1.19732305868611,19.2143168637262,0.));
#428=CARTESIAN_POINT('',(1.48182500941578,18.8058718720869,0.));
#429=CARTESIAN_POINT('',(1.64309747981407,18.6179591439771,0.));
#430=CARTESIAN_POINT('',(2.00383461117888,18.2748811534747,0.));
#431=CARTESIAN_POINT('',(2.20381500132717,18.1202974425509,0.));
#432=CARTESIAN_POINT('',(2.62424371561369,17.8584113213496,0.));
#433=CARTESIAN_POINT('',(2.8467390453973,17.7489214044666,0.));
#434=CARTESIAN_POINT('',(3.31701852852585,17.5741176129568,0.));
#435=CARTESIAN_POINT('',(3.55785884550237,17.5115161885745,0.));
#436=CARTESIAN_POINT('',(4.04665063009729,17.4342061668199,0.));
#437=CARTESIAN_POINT('',(4.29767839422699,17.4194420390512,0.));
#438=CARTESIAN_POINT('',(4.79641988321303,17.4391514804652,0.));
#439=CARTESIAN_POINT('',(5.04166236159333,17.4729834357029,0.));
#440=CARTESIAN_POINT('',(5.52416554703949,17.5870059862346,0.));
#441=CARTESIAN_POINT('',(5.76364468833761,17.6684991464034,0.));
#442=CARTESIAN_POINT('',(6.21662931468988,17.8727068997238,0.));
#443=CARTESIAN_POINT('',(6.43168634768286,17.9952987621006,0.));
#444=CARTESIAN_POINT('',(6.83886609147449,18.281572696977,0.));
#445=CARTESIAN_POINT('',(7.0306434495484,18.4458278867858,0.));
#446=CARTESIAN_POINT('',(7.37478882733808,18.802516225365,0.));
#447=CARTESIAN_POINT('',(7.5294714359694,18.9963804841775,0.));
#448=CARTESIAN_POINT('',(7.80259068101495,19.4164573708222,0.));
#449=CARTESIAN_POINT('',(7.91766324661888,19.6378777175555,0.));
#450=CARTESIAN_POINT('',(8.10287847588301,20.0973743848502,0.));
#451=CARTESIAN_POINT('',(8.17399525272659,20.3387835465352,0.));
#452=CARTESIAN_POINT('',(8.26690033722604,20.8291004418665,0.));
#453=CARTESIAN_POINT('',(8.28884700053383,21.0758726310543,0.));
#454=CARTESIAN_POINT('',(8.28389212133318,21.5726337223744,0.));
#455=CARTESIAN_POINT('',(8.25615596060774,21.8243024150939,0.));
#456=CARTESIAN_POINT('',(8.15270614297404,22.3095452239254,0.));
#457=CARTESIAN_POINT('',(8.07730223531923,22.5456356404877,0.));
#458=CARTESIAN_POINT('',(7.87775194793563,23.0043726411584,0.));
#459=CARTESIAN_POINT('',(7.75501278575168,23.2227943679489,0.));
#460=CARTESIAN_POINT('',(7.47068241069264,23.6281988791564,0.));
#461=CARTESIAN_POINT('',(7.30667460074417,23.818442387977,0.));
#462=CARTESIAN_POINT('',(6.94384859584185,24.1618877965407,0.));
#463=CARTESIAN_POINT('',(6.7477645173066,24.3131917314843,0.));
#464=CARTESIAN_POINT('',(6.32700945464338,24.576013192519,0.));
#465=CARTESIAN_POINT('',(6.09990226231196,24.688060029769,0.));
#466=CARTESIAN_POINT('',(5.6350535112615,24.8624047970157,0.));
#467=CARTESIAN_POINT('',(5.39585751051977,24.9261387870806,0.));
#468=CARTESIAN_POINT('',(4.90385625658074,25.0065015295616,0.));
#469=CARTESIAN_POINT('',(4.65232555774114,25.0222846278044,0.));
#470=CARTESIAN_POINT('',(4.15751079791069,25.0052046425,0.));
#471=CARTESIAN_POINT('',(3.91154162643058,24.9728751491183,0.));
#472=CARTESIAN_POINT('',(3.42258151427424,24.8589530498942,0.));
#473=CARTESIAN_POINT('',(3.18744742768898,24.779164012011,0.));
#474=CARTESIAN_POINT('',(2.73581522042202,24.576330296771,0.));
#475=CARTESIAN_POINT('',(2.51715922515787,24.4517317896498,0.));
#476=CARTESIAN_POINT('',(2.10965773219706,24.1639701293362,0.));
#477=CARTESIAN_POINT('',(1.92204434463315,24.0023549521865,0.));
#478=CARTESIAN_POINT('',(1.57853287313788,23.6442706789453,0.));
#479=CARTESIAN_POINT('',(1.42167826786161,23.4456994704513,0.));
#480=CARTESIAN_POINT('',(1.15278375220195,23.0282463130435,0.));
#481=CARTESIAN_POINT('',(1.03910970575345,22.8082443171666,0.));
#482=CARTESIAN_POINT('',(0.853994455863053,22.3453169114754,0.));
#483=CARTESIAN_POINT('',(0.783598916436333,22.1033895851879,0.));
#484=CARTESIAN_POINT('',(0.691772091973929,21.6167663109965,0.));
#485=CARTESIAN_POINT('',(0.669259943023692,21.3696515013068,0.));
#486=CARTESIAN_POINT('',(0.675682445944021,20.6162872659785,0.));
#487=CARTESIAN_POINT('',(0.,0.,0.));
#488=CARTESIAN_POINT('',(7.74083824537559,0.,0.));
#489=CARTESIAN_POINT('',(3.00000000007153,0.,0.));
#490=(
GEOMETRIC_REPRESENTATION_CONTEXT(3)
GLOBAL_UNCERTAINTY_ASSIGNED_CONTEXT((#491))
GLOBAL_UNIT_ASSIGNED_CONTEXT((#497,#493,#492))
REPRESENTATION_CONTEXT('model1','TOP_LEVEL_ASSEMBLY_PART')
);
#491=UNCERTAINTY_MEASURE_WITH_UNIT(LENGTH_MEASURE(2.E-5),#497,
'DISTANCE_ACCURACY_VALUE','Maximum Tolerance applied to model');
#492=(
NAMED_UNIT(*)
SI_UNIT($,.STERADIAN.)
SOLID_ANGLE_UNIT()
);
#493=(
CONVERSION_BASED_UNIT('DEGREE',#495)
NAMED_UNIT(#494)
PLANE_ANGLE_UNIT()
);
#494=DIMENSIONAL_EXPONENTS(0.,0.,0.,0.,0.,0.,0.);
#495=PLANE_ANGLE_MEASURE_WITH_UNIT(PLANE_ANGLE_MEASURE(0.0174532925),#496);
#496=(
NAMED_UNIT(*)
PLANE_ANGLE_UNIT()
SI_UNIT($,.RADIAN.)
);
#497=(
LENGTH_UNIT()
NAMED_UNIT(*)
SI_UNIT(.MILLI.,.METRE.)
);
ENDSEC;
END-ISO-10303-21;
