ISO-10303-21;
HEADER;
/* Generated by software containing ST-Developer
 * from STEP Tools, Inc. (www.steptools.com) 
 */
/* OPTION: using custom schema-name function */

FILE_DESCRIPTION(
/* description */ (''),
/* implementation_level */ '2;1');

FILE_NAME(
/* name */ 'model1.stp',
/* time_stamp */ '2023-11-03T09:21:14+03:00',
/* author */ (''),
/* organization */ (''),
/* preprocessor_version */ 'ST-DEVELOPER v19.4',
/* originating_system */ 'SIEMENS PLM Software NX2306.3001',
/* authorisation */ '');

FILE_SCHEMA (('AUTOMOTIVE_DESIGN { 1 0 10303 214 3 1 1 1 }'));
ENDSEC;

DATA;
#10=PROPERTY_DEFINITION_REPRESENTATION(#14,#12);
#11=PROPERTY_DEFINITION_REPRESENTATION(#15,#13);
#12=REPRESENTATION('',(#16),#490);
#13=REPRESENTATION('',(#17),#490);
#14=PROPERTY_DEFINITION('pmi validation property','',#21);
#15=PROPERTY_DEFINITION('pmi validation property','',#21);
#16=VALUE_REPRESENTATION_ITEM('number of annotations',COUNT_MEASURE(0.));
#17=VALUE_REPRESENTATION_ITEM('number of views',COUNT_MEASURE(0.));
#18=SHAPE_REPRESENTATION_RELATIONSHIP('None',
'relationship between model1_objects-None and model1_objects-None',#30,
#19);
#19=ADVANCED_BREP_SHAPE_REPRESENTATION('model1_objects-None',(#133,#134),
#490);
#20=SHAPE_DEFINITION_REPRESENTATION(#21,#30);
#21=PRODUCT_DEFINITION_SHAPE('','',#22);
#22=PRODUCT_DEFINITION(' ','',#24,#23);
#23=PRODUCT_DEFINITION_CONTEXT('part definition',#29,'design');
#24=PRODUCT_DEFINITION_FORMATION_WITH_SPECIFIED_SOURCE(' ',' ',#26,
 .NOT_KNOWN.);
#25=PRODUCT_RELATED_PRODUCT_CATEGORY('part','',(#26));
#26=PRODUCT('model1_objects','model1_objects',' ',(#27));
#27=PRODUCT_CONTEXT(' ',#29,'mechanical');
#28=APPLICATION_PROTOCOL_DEFINITION('international standard',
'automotive_design',2010,#29);
#29=APPLICATION_CONTEXT(
'core data for automotive mechanical design processes');
#30=SHAPE_REPRESENTATION('model1_objects-None',(#251),#490);
#31=OVER_RIDING_STYLED_ITEM('',(#62),#139,#59);
#32=OVER_RIDING_STYLED_ITEM('',(#63),#140,#59);
#33=OVER_RIDING_STYLED_ITEM('',(#64),#141,#59);
#34=OVER_RIDING_STYLED_ITEM('',(#65),#142,#59);
#35=OVER_RIDING_STYLED_ITEM('',(#66),#143,#59);
#36=OVER_RIDING_STYLED_ITEM('',(#67),#144,#59);
#37=OVER_RIDING_STYLED_ITEM('',(#68),#145,#59);
#38=OVER_RIDING_STYLED_ITEM('',(#69),#146,#59);
#39=OVER_RIDING_STYLED_ITEM('',(#70),#147,#59);
#40=OVER_RIDING_STYLED_ITEM('',(#71),#148,#59);
#41=COLOUR_RGB('Medium Steel',0.611764705882353,0.658823529411765,0.670588235294118);
#42=COLOUR_RGB('silver gray',0.6,0.6,0.6);
#43=SURFACE_OF_REVOLUTION('',#45,#44);
#44=AXIS1_PLACEMENT('',#476,#296);
#45=B_SPLINE_CURVE_WITH_KNOTS('',3,(#412,#413,#414,#415,#416,#417,#418,
#419,#420,#421,#422,#423,#424,#425,#426,#427,#428,#429,#430,#431,#432,#433,
#434,#435,#436,#437,#438,#439,#440,#441,#442,#443,#444,#445,#446,#447,#448,
#449,#450,#451,#452,#453,#454,#455,#456,#457,#458,#459,#460,#461,#462,#463,
#464,#465,#466,#467,#468,#469,#470,#471,#472,#473,#474,#475),
 .UNSPECIFIED.,.T.,.F.,(2,2,2,2,2,2,2,2,2,2,2,2,2,2,2,2,2,2,2,2,2,2,2,2,
2,2,2,2,2,2,2,2,2,2),(-0.03125,0.,0.0625,0.09375,0.125,0.15625,0.1875,0.21875,
0.25,0.28125,0.3125,0.34375,0.375,0.40625,0.4375,0.46875,0.5,0.53125,0.5625,
0.59375,0.625,0.65625,0.6875,0.71875,0.75,0.78125,0.8125,0.84375,0.875,
0.90625,0.9375,0.96875,1.,1.0625),.UNSPECIFIED.);
#46=CONICAL_SURFACE('',#261,23.0780255004314,75.0000000000118);
#47=CONICAL_SURFACE('',#271,24.,30.);
#48=VERTEX_LOOP('',#223);
#49=PLANE('',#259);
#50=FACE_OUTER_BOUND('',#181,.T.);
#51=TOROIDAL_SURFACE('',#258,22.5,1.5);
#52=TOROIDAL_SURFACE('',#266,24.5,5.);
#53=TOROIDAL_SURFACE('',#268,78.8,55.);
#54=CYLINDRICAL_SURFACE('',#256,24.);
#55=CYLINDRICAL_SURFACE('',#264,29.5);
#56=CYLINDRICAL_SURFACE('',#270,23.8);
#57=PRESENTATION_LAYER_ASSIGNMENT('1','Layer 1',(#133,#134));
#58=STYLED_ITEM('',(#60),#133);
#59=STYLED_ITEM('',(#61),#134);
#60=PRESENTATION_STYLE_ASSIGNMENT((#72));
#61=PRESENTATION_STYLE_ASSIGNMENT((#73));
#62=PRESENTATION_STYLE_ASSIGNMENT((#74));
#63=PRESENTATION_STYLE_ASSIGNMENT((#75));
#64=PRESENTATION_STYLE_ASSIGNMENT((#76));
#65=PRESENTATION_STYLE_ASSIGNMENT((#77));
#66=PRESENTATION_STYLE_ASSIGNMENT((#78));
#67=PRESENTATION_STYLE_ASSIGNMENT((#79));
#68=PRESENTATION_STYLE_ASSIGNMENT((#80));
#69=PRESENTATION_STYLE_ASSIGNMENT((#81));
#70=PRESENTATION_STYLE_ASSIGNMENT((#82));
#71=PRESENTATION_STYLE_ASSIGNMENT((#83));
#72=SURFACE_STYLE_USAGE(.BOTH.,#84);
#73=SURFACE_STYLE_USAGE(.BOTH.,#85);
#74=SURFACE_STYLE_USAGE(.BOTH.,#86);
#75=SURFACE_STYLE_USAGE(.BOTH.,#87);
#76=SURFACE_STYLE_USAGE(.BOTH.,#88);
#77=SURFACE_STYLE_USAGE(.BOTH.,#89);
#78=SURFACE_STYLE_USAGE(.BOTH.,#90);
#79=SURFACE_STYLE_USAGE(.BOTH.,#91);
#80=SURFACE_STYLE_USAGE(.BOTH.,#92);
#81=SURFACE_STYLE_USAGE(.BOTH.,#93);
#82=SURFACE_STYLE_USAGE(.BOTH.,#94);
#83=SURFACE_STYLE_USAGE(.BOTH.,#95);
#84=SURFACE_SIDE_STYLE('',(#96));
#85=SURFACE_SIDE_STYLE('',(#97));
#86=SURFACE_SIDE_STYLE('',(#98));
#87=SURFACE_SIDE_STYLE('',(#99));
#88=SURFACE_SIDE_STYLE('',(#100));
#89=SURFACE_SIDE_STYLE('',(#101));
#90=SURFACE_SIDE_STYLE('',(#102));
#91=SURFACE_SIDE_STYLE('',(#103));
#92=SURFACE_SIDE_STYLE('',(#104));
#93=SURFACE_SIDE_STYLE('',(#105));
#94=SURFACE_SIDE_STYLE('',(#106));
#95=SURFACE_SIDE_STYLE('',(#107));
#96=SURFACE_STYLE_FILL_AREA(#108);
#97=SURFACE_STYLE_FILL_AREA(#109);
#98=SURFACE_STYLE_FILL_AREA(#110);
#99=SURFACE_STYLE_FILL_AREA(#111);
#100=SURFACE_STYLE_FILL_AREA(#112);
#101=SURFACE_STYLE_FILL_AREA(#113);
#102=SURFACE_STYLE_FILL_AREA(#114);
#103=SURFACE_STYLE_FILL_AREA(#115);
#104=SURFACE_STYLE_FILL_AREA(#116);
#105=SURFACE_STYLE_FILL_AREA(#117);
#106=SURFACE_STYLE_FILL_AREA(#118);
#107=SURFACE_STYLE_FILL_AREA(#119);
#108=FILL_AREA_STYLE('',(#120));
#109=FILL_AREA_STYLE('',(#121));
#110=FILL_AREA_STYLE('',(#122));
#111=FILL_AREA_STYLE('',(#123));
#112=FILL_AREA_STYLE('',(#124));
#113=FILL_AREA_STYLE('',(#125));
#114=FILL_AREA_STYLE('',(#126));
#115=FILL_AREA_STYLE('',(#127));
#116=FILL_AREA_STYLE('',(#128));
#117=FILL_AREA_STYLE('',(#129));
#118=FILL_AREA_STYLE('',(#130));
#119=FILL_AREA_STYLE('',(#131));
#120=FILL_AREA_STYLE_COLOUR('',#132);
#121=FILL_AREA_STYLE_COLOUR('',#41);
#122=FILL_AREA_STYLE_COLOUR('',#42);
#123=FILL_AREA_STYLE_COLOUR('',#42);
#124=FILL_AREA_STYLE_COLOUR('',#42);
#125=FILL_AREA_STYLE_COLOUR('',#42);
#126=FILL_AREA_STYLE_COLOUR('',#42);
#127=FILL_AREA_STYLE_COLOUR('',#42);
#128=FILL_AREA_STYLE_COLOUR('',#42);
#129=FILL_AREA_STYLE_COLOUR('',#42);
#130=FILL_AREA_STYLE_COLOUR('',#42);
#131=FILL_AREA_STYLE_COLOUR('',#42);
#132=DRAUGHTING_PRE_DEFINED_COLOUR('yellow');
#133=MANIFOLD_SOLID_BREP('',#135);
#134=MANIFOLD_SOLID_BREP('',#136);
#135=CLOSED_SHELL('',(#137,#138));
#136=CLOSED_SHELL('',(#139,#140,#141,#142,#143,#144,#145,#146,#147,#148));
#137=ADVANCED_FACE('',(#151,#152),#149,.F.);
#138=ADVANCED_FACE('',(#153,#154),#150,.F.);
#139=ADVANCED_FACE('',(#155,#156),#54,.T.);
#140=ADVANCED_FACE('',(#157,#158),#51,.T.);
#141=ADVANCED_FACE('',(#50),#49,.F.);
#142=ADVANCED_FACE('',(#159,#160),#46,.F.);
#143=ADVANCED_FACE('',(#161,#162),#43,.T.);
#144=ADVANCED_FACE('',(#163,#164),#55,.T.);
#145=ADVANCED_FACE('',(#165,#166),#52,.T.);
#146=ADVANCED_FACE('',(#167,#168),#53,.F.);
#147=ADVANCED_FACE('',(#169,#170),#56,.T.);
#148=ADVANCED_FACE('',(#171,#172),#47,.T.);
#149=(
BOUNDED_SURFACE()
B_SPLINE_SURFACE(3,3,((#320,#321,#322,#323,#324,#325,#326),(#327,#328,#329,
#330,#331,#332,#333),(#334,#335,#336,#337,#338,#339,#340),(#341,#342,#343,
#344,#345,#346,#347),(#348,#349,#350,#351,#352,#353,#354),(#355,#356,#357,
#358,#359,#360,#361),(#362,#363,#364,#365,#366,#367,#368)),
 .UNSPECIFIED.,.T.,.F.,.F.)
B_SPLINE_SURFACE_WITH_KNOTS((1,3,3,3,1),(4,3,4),(-0.5,0.,0.5,1.,1.5),(0.,
0.5,1.),.UNSPECIFIED.)
GEOMETRIC_REPRESENTATION_ITEM()
RATIONAL_B_SPLINE_SURFACE(((1.,0.594019828326139,0.594019828326139,1.,0.594019828326139,
0.594019828326139,1.),(0.333333333333334,0.198006609442047,0.198006609442047,
0.333333333333334,0.198006609442047,0.198006609442047,0.333333333333334),
(0.333333333333334,0.198006609442047,0.198006609442047,0.333333333333334,
0.198006609442047,0.198006609442047,0.333333333333334),(1.,0.594019828326139,
0.594019828326139,1.,0.594019828326139,0.594019828326139,1.),(0.333333333333334,
0.198006609442047,0.198006609442047,0.333333333333334,0.198006609442047,
0.198006609442047,0.333333333333334),(0.333333333333334,0.198006609442047,
0.198006609442047,0.333333333333334,0.198006609442047,0.198006609442047,
0.333333333333334),(1.,0.594019828326139,0.594019828326139,1.,0.594019828326139,
0.594019828326139,1.)))
REPRESENTATION_ITEM('')
SURFACE()
);
#150=(
BOUNDED_SURFACE()
B_SPLINE_SURFACE(3,3,((#369,#370,#371,#372),(#373,#374,#375,#376),(#377,
#378,#379,#380),(#381,#382,#383,#384),(#385,#386,#387,#388),(#389,#390,
#391,#392),(#393,#394,#395,#396)),.UNSPECIFIED.,.T.,.F.,.F.)
B_SPLINE_SURFACE_WITH_KNOTS((1,3,3,3,1),(4,4),(-0.5,0.,0.5,1.,1.5),(0.,
1.),.UNSPECIFIED.)
GEOMETRIC_REPRESENTATION_ITEM()
RATIONAL_B_SPLINE_SURFACE(((1.,0.796127653985097,0.796127653985097,1.),
(0.333333333333334,0.265375884661699,0.265375884661699,0.333333333333334),
(0.333333333333334,0.265375884661699,0.265375884661699,0.333333333333334),
(1.,0.796127653985097,0.796127653985097,1.),(0.333333333333334,0.265375884661699,
0.265375884661699,0.333333333333334),(0.333333333333334,0.265375884661699,
0.265375884661699,0.333333333333334),(1.,0.796127653985097,0.796127653985097,
1.)))
REPRESENTATION_ITEM('')
SURFACE()
);
#151=FACE_BOUND('',#173,.T.);
#152=FACE_BOUND('',#174,.T.);
#153=FACE_BOUND('',#175,.T.);
#154=FACE_BOUND('',#176,.T.);
#155=FACE_BOUND('',#177,.T.);
#156=FACE_BOUND('',#178,.T.);
#157=FACE_BOUND('',#179,.T.);
#158=FACE_BOUND('',#180,.T.);
#159=FACE_BOUND('',#182,.T.);
#160=FACE_BOUND('',#48,.T.);
#161=FACE_BOUND('',#183,.T.);
#162=FACE_BOUND('',#184,.T.);
#163=FACE_BOUND('',#185,.T.);
#164=FACE_BOUND('',#186,.T.);
#165=FACE_BOUND('',#187,.T.);
#166=FACE_BOUND('',#188,.T.);
#167=FACE_BOUND('',#189,.T.);
#168=FACE_BOUND('',#190,.T.);
#169=FACE_BOUND('',#191,.T.);
#170=FACE_BOUND('',#192,.T.);
#171=FACE_BOUND('',#193,.T.);
#172=FACE_BOUND('',#194,.T.);
#173=EDGE_LOOP('',(#195));
#174=EDGE_LOOP('',(#196));
#175=EDGE_LOOP('',(#197));
#176=EDGE_LOOP('',(#198));
#177=EDGE_LOOP('',(#199));
#178=EDGE_LOOP('',(#200));
#179=EDGE_LOOP('',(#201));
#180=EDGE_LOOP('',(#202));
#181=EDGE_LOOP('',(#203));
#182=EDGE_LOOP('',(#204));
#183=EDGE_LOOP('',(#205));
#184=EDGE_LOOP('',(#206));
#185=EDGE_LOOP('',(#207));
#186=EDGE_LOOP('',(#208));
#187=EDGE_LOOP('',(#209));
#188=EDGE_LOOP('',(#210));
#189=EDGE_LOOP('',(#211));
#190=EDGE_LOOP('',(#212));
#191=EDGE_LOOP('',(#213));
#192=EDGE_LOOP('',(#214));
#193=EDGE_LOOP('',(#215));
#194=EDGE_LOOP('',(#216));
#195=ORIENTED_EDGE('',*,*,#229,.T.);
#196=ORIENTED_EDGE('',*,*,#230,.F.);
#197=ORIENTED_EDGE('',*,*,#230,.T.);
#198=ORIENTED_EDGE('',*,*,#229,.F.);
#199=ORIENTED_EDGE('',*,*,#231,.T.);
#200=ORIENTED_EDGE('',*,*,#232,.F.);
#201=ORIENTED_EDGE('',*,*,#231,.F.);
#202=ORIENTED_EDGE('',*,*,#233,.T.);
#203=ORIENTED_EDGE('',*,*,#233,.F.);
#204=ORIENTED_EDGE('',*,*,#234,.T.);
#205=ORIENTED_EDGE('',*,*,#234,.F.);
#206=ORIENTED_EDGE('',*,*,#235,.T.);
#207=ORIENTED_EDGE('',*,*,#235,.F.);
#208=ORIENTED_EDGE('',*,*,#236,.T.);
#209=ORIENTED_EDGE('',*,*,#236,.F.);
#210=ORIENTED_EDGE('',*,*,#237,.T.);
#211=ORIENTED_EDGE('',*,*,#237,.F.);
#212=ORIENTED_EDGE('',*,*,#238,.T.);
#213=ORIENTED_EDGE('',*,*,#238,.F.);
#214=ORIENTED_EDGE('',*,*,#239,.T.);
#215=ORIENTED_EDGE('',*,*,#239,.F.);
#216=ORIENTED_EDGE('',*,*,#232,.T.);
#217=VERTEX_POINT('',#317);
#218=VERTEX_POINT('',#319);
#219=VERTEX_POINT('',#398);
#220=VERTEX_POINT('',#400);
#221=VERTEX_POINT('',#403);
#222=VERTEX_POINT('',#407);
#223=VERTEX_POINT('',#408);
#224=VERTEX_POINT('',#411);
#225=VERTEX_POINT('',#478);
#226=VERTEX_POINT('',#481);
#227=VERTEX_POINT('',#484);
#228=VERTEX_POINT('',#487);
#229=EDGE_CURVE('',#217,#217,#240,.T.);
#230=EDGE_CURVE('',#218,#218,#241,.T.);
#231=EDGE_CURVE('',#219,#219,#242,.T.);
#232=EDGE_CURVE('',#220,#220,#243,.T.);
#233=EDGE_CURVE('',#221,#221,#244,.T.);
#234=EDGE_CURVE('',#222,#222,#245,.T.);
#235=EDGE_CURVE('',#224,#224,#246,.T.);
#236=EDGE_CURVE('',#225,#225,#247,.T.);
#237=EDGE_CURVE('',#226,#226,#248,.T.);
#238=EDGE_CURVE('',#227,#227,#249,.T.);
#239=EDGE_CURVE('',#228,#228,#250,.T.);
#240=CIRCLE('',#252,5.);
#241=CIRCLE('',#253,5.);
#242=CIRCLE('',#254,24.);
#243=CIRCLE('',#255,24.);
#244=CIRCLE('',#257,22.5);
#245=CIRCLE('',#260,23.0780255004314);
#246=CIRCLE('',#262,29.5);
#247=CIRCLE('',#263,29.5);
#248=CIRCLE('',#265,29.025);
#249=CIRCLE('',#267,23.8);
#250=CIRCLE('',#269,23.8);
#251=AXIS2_PLACEMENT_3D('',#315,#272,#273);
#252=AXIS2_PLACEMENT_3D('',#316,#274,#275);
#253=AXIS2_PLACEMENT_3D('',#318,#276,#277);
#254=AXIS2_PLACEMENT_3D('',#397,#278,#279);
#255=AXIS2_PLACEMENT_3D('',#399,#280,#281);
#256=AXIS2_PLACEMENT_3D('',#401,#282,#283);
#257=AXIS2_PLACEMENT_3D('',#402,#284,#285);
#258=AXIS2_PLACEMENT_3D('',#404,#286,#287);
#259=AXIS2_PLACEMENT_3D('',#405,#288,#289);
#260=AXIS2_PLACEMENT_3D('',#406,#290,#291);
#261=AXIS2_PLACEMENT_3D('',#409,#292,#293);
#262=AXIS2_PLACEMENT_3D('',#410,#294,#295);
#263=AXIS2_PLACEMENT_3D('',#477,#297,#298);
#264=AXIS2_PLACEMENT_3D('',#479,#299,#300);
#265=AXIS2_PLACEMENT_3D('',#480,#301,#302);
#266=AXIS2_PLACEMENT_3D('',#482,#303,#304);
#267=AXIS2_PLACEMENT_3D('',#483,#305,#306);
#268=AXIS2_PLACEMENT_3D('',#485,#307,#308);
#269=AXIS2_PLACEMENT_3D('',#486,#309,#310);
#270=AXIS2_PLACEMENT_3D('',#488,#311,#312);
#271=AXIS2_PLACEMENT_3D('',#489,#313,#314);
#272=DIRECTION('',(0.,0.,1.));
#273=DIRECTION('',(1.,0.,0.));
#274=DIRECTION('',(0.121869343405148,0.991985635570801,0.0333520907769148));
#275=DIRECTION('',(0.992510112580906,-0.122082446560149,0.00442183972182639));
#276=DIRECTION('',(0.121869343405148,-0.0692365195668007,0.990128359101119));
#277=DIRECTION('',(0.992510112580906,0.,-0.122162500075257));
#278=DIRECTION('',(-1.,0.,0.));
#279=DIRECTION('',(0.,0.,1.));
#280=DIRECTION('',(-1.,0.,0.));
#281=DIRECTION('',(0.,0.,1.));
#282=DIRECTION('',(-1.,0.,0.));
#283=DIRECTION('',(0.,0.,1.));
#284=DIRECTION('',(-1.,0.,0.));
#285=DIRECTION('',(0.,0.,1.));
#286=DIRECTION('',(-1.,0.,0.));
#287=DIRECTION('',(0.,0.,1.));
#288=DIRECTION('',(-1.,0.,0.));
#289=DIRECTION('',(0.,0.,1.));
#290=DIRECTION('',(-1.,0.,0.));
#291=DIRECTION('',(0.,0.,1.));
#292=DIRECTION('',(-1.,0.,0.));
#293=DIRECTION('',(-1.40898137904908E-17,0.,1.));
#294=DIRECTION('',(-1.,0.,0.));
#295=DIRECTION('',(0.,0.,1.));
#296=DIRECTION('',(-1.,0.,0.));
#297=DIRECTION('',(-1.,0.,0.));
#298=DIRECTION('',(0.,0.,1.));
#299=DIRECTION('',(-1.,0.,0.));
#300=DIRECTION('',(0.,0.,1.));
#301=DIRECTION('',(-1.,0.,0.));
#302=DIRECTION('',(0.,0.,1.));
#303=DIRECTION('',(-1.,0.,0.));
#304=DIRECTION('',(0.,0.,1.));
#305=DIRECTION('',(-1.,0.,0.));
#306=DIRECTION('',(0.,0.,1.));
#307=DIRECTION('',(-1.,0.,0.));
#308=DIRECTION('',(0.,0.,1.));
#309=DIRECTION('',(-1.,0.,0.));
#310=DIRECTION('',(0.,0.,1.));
#311=DIRECTION('',(-1.,0.,0.));
#312=DIRECTION('',(0.,0.,1.));
#313=DIRECTION('',(1.,0.,0.));
#314=DIRECTION('',(5.76942778562153E-17,0.,-1.));
#315=CARTESIAN_POINT('',(0.,0.,0.));
#316=CARTESIAN_POINT('',(4.96273075820661,0.351652328351512,26.5022189591294));
#317=CARTESIAN_POINT('',(9.92528132111114,-0.258759904449231,26.5243281577385));
#318=CARTESIAN_POINT('',(4.96273075820661,-26.4975805017327,-0.607862379048722));
#319=CARTESIAN_POINT('',(9.92528132111114,-26.4975805017327,-1.218674879425));
#320=CARTESIAN_POINT('',(9.92528132111114,-26.4975805017327,-1.218674879425));
#321=CARTESIAN_POINT('',(9.92528132111115,-25.2387655081722,-28.5890196627656));
#322=CARTESIAN_POINT('',(9.92528132111115,0.444532939514981,-38.1330528560223));
#323=CARTESIAN_POINT('',(9.92528132111114,19.2715851024996,-18.2267097564168));
#324=CARTESIAN_POINT('',(9.92528132111115,38.0986372654843,1.67963334318856));
#325=CARTESIAN_POINT('',(9.92528132111115,27.1392135360428,26.7916109687263));
#326=CARTESIAN_POINT('',(9.92528132111114,-0.25875990444923,26.5243281577385));
#327=CARTESIAN_POINT('',(10.009862384379,-16.5215777733937,-0.53149542112545));
#328=CARTESIAN_POINT('',(10.009862384379,-15.9725762173452,-17.5972528019924));
#329=CARTESIAN_POINT('',(10.009862384379,-0.0509519140909631,-23.765182538718));
#330=CARTESIAN_POINT('',(10.009862384379,11.8517038324835,-11.5231131111376));
#331=CARTESIAN_POINT('',(10.009862384379,23.7543595790579,0.718956316442823));
#332=CARTESIAN_POINT('',(10.009862384379,17.141320098845,16.4609125647719));
#333=CARTESIAN_POINT('',(10.009862384379,0.0668741022333934,16.5299893333125));
#334=CARTESIAN_POINT('',(0.0847612585699754,-16.5215777733937,0.690129579627115));
#335=CARTESIAN_POINT('',(0.0847612585699755,-17.2344385018795,-16.3756278012399));
#336=CARTESIAN_POINT('',(0.0847612585699755,-1.80623988280348,-23.7049478768796));
#337=CARTESIAN_POINT('',(0.0847612585699754,10.9723899118616,-12.3711547796093));
#338=CARTESIAN_POINT('',(0.0847612585699755,23.7510197065267,-1.03736168233905));
#339=CARTESIAN_POINT('',(0.0847612585699755,18.3164697233964,15.1556587858037));
#340=CARTESIAN_POINT('',(0.0847612585699754,1.28769856783488,16.4857709360942));
#341=CARTESIAN_POINT('',(0.000180195302076392,-26.4975805017327,0.002950121327561));
#342=CARTESIAN_POINT('',(0.000180195302076393,-26.5006277927065,-27.3673946620131));
#343=CARTESIAN_POINT('',(0.000180195302076393,-1.31075502919754,-38.0728181941839));
#344=CARTESIAN_POINT('',(0.000180195302076392,18.3922711818778,-19.0747514248886));
#345=CARTESIAN_POINT('',(0.000180195302076393,38.0952973929532,-0.0766846555933129));
#346=CARTESIAN_POINT('',(0.000180195302076393,28.3143631605941,25.4863571897582));
#347=CARTESIAN_POINT('',(0.000180195302076392,0.96206456115226,26.4801097605202));
#348=CARTESIAN_POINT('',(-0.0844008679658227,-36.4735832300718,-0.684229336971994));
#349=CARTESIAN_POINT('',(-0.0844008679658227,-35.7668170835334,-38.3591615227862));
#350=CARTESIAN_POINT('',(-0.0844008679658227,-0.815270175591589,-52.4406885114881));
#351=CARTESIAN_POINT('',(-0.0844008679658227,25.812152451894,-25.7783480701679));
#352=CARTESIAN_POINT('',(-0.0844008679658227,52.4395750793794,0.883992371152436));
#353=CARTESIAN_POINT('',(-0.0844008679658227,38.3122565977918,35.8170555937126));
#354=CARTESIAN_POINT('',(-0.0844008679658227,0.636430554469633,36.4744485849462));
#355=CARTESIAN_POINT('',(9.84070025784323,-36.4735832300718,-1.90585433772456));
#356=CARTESIAN_POINT('',(9.84070025784325,-34.5049547989991,-39.5807865235388));
#357=CARTESIAN_POINT('',(9.84070025784325,0.94001779312092,-52.5009231733266));
#358=CARTESIAN_POINT('',(9.84070025784323,26.6914663725158,-24.9303064016961));
#359=CARTESIAN_POINT('',(9.84070025784325,52.4429149519107,2.64031036993431));
#360=CARTESIAN_POINT('',(9.84070025784325,37.1371069732404,37.1223093726807));
#361=CARTESIAN_POINT('',(9.84070025784323,-0.584393911131856,36.5186669821644));
#362=CARTESIAN_POINT('',(9.92528132111114,-26.4975805017327,-1.218674879425));
#363=CARTESIAN_POINT('',(9.92528132111115,-25.2387655081722,-28.5890196627656));
#364=CARTESIAN_POINT('',(9.92528132111115,0.444532939514981,-38.1330528560223));
#365=CARTESIAN_POINT('',(9.92528132111114,19.2715851024996,-18.2267097564168));
#366=CARTESIAN_POINT('',(9.92528132111115,38.0986372654843,1.67963334318856));
#367=CARTESIAN_POINT('',(9.92528132111115,27.1392135360428,26.7916109687263));
#368=CARTESIAN_POINT('',(9.92528132111114,-0.25875990444923,26.5243281577385));
#369=CARTESIAN_POINT('',(9.92528132111114,-0.258759904449232,26.5243281577385));
#370=CARTESIAN_POINT('',(9.92528132111114,-16.2461090735979,26.36836247526));
#371=CARTESIAN_POINT('',(9.92528132111114,-27.2321280727465,14.7525523312908));
#372=CARTESIAN_POINT('',(9.92528132111114,-26.4975805017327,-1.218674879425));
#373=CARTESIAN_POINT('',(10.009862384379,0.0668741022333939,16.5299893333125));
#374=CARTESIAN_POINT('',(10.0098623843791,-9.89645879209551,16.5702972203368));
#375=CARTESIAN_POINT('',(10.0098623843791,-16.841932838706,9.42676746559841));
#376=CARTESIAN_POINT('',(10.009862384379,-16.5215777733937,-0.53149542112545));
#377=CARTESIAN_POINT('',(0.0847612585699754,1.28769856783488,16.4857709360942));
#378=CARTESIAN_POINT('',(0.0847612585699756,-8.64898200369722,17.2619220418323));
#379=CARTESIAN_POINT('',(0.0847612585699756,-16.1056071031531,10.648392466351));
#380=CARTESIAN_POINT('',(0.0847612585699754,-16.5215777733937,0.690129579627117));
#381=CARTESIAN_POINT('',(0.000180195302076392,0.962064561152255,26.4801097605202));
#382=CARTESIAN_POINT('',(0.000180195302076393,-14.9986322851996,27.0599872967555));
#383=CARTESIAN_POINT('',(0.000180195302076393,-26.4958023371935,15.9741773320433));
#384=CARTESIAN_POINT('',(0.000180195302076392,-26.4975805017327,0.00295012132756339));
#385=CARTESIAN_POINT('',(-0.0844008679658227,0.636430554469629,36.4744485849462));
#386=CARTESIAN_POINT('',(-0.0844008679658229,-21.348282566702,36.8580525516786));
#387=CARTESIAN_POINT('',(-0.0844008679658229,-36.8859975712341,21.2999621977357));
#388=CARTESIAN_POINT('',(-0.0844008679658227,-36.4735832300717,-0.68422933697199));
#389=CARTESIAN_POINT('',(9.84070025784323,-0.584393911131858,36.5186669821644));
#390=CARTESIAN_POINT('',(9.84070025784326,-22.5957593551003,36.1664277301831));
#391=CARTESIAN_POINT('',(9.84070025784326,-37.6223233067869,20.0783371969831));
#392=CARTESIAN_POINT('',(9.84070025784323,-36.4735832300717,-1.90585433772456));
#393=CARTESIAN_POINT('',(9.92528132111114,-0.258759904449232,26.5243281577385));
#394=CARTESIAN_POINT('',(9.92528132111114,-16.2461090735979,26.36836247526));
#395=CARTESIAN_POINT('',(9.92528132111114,-27.2321280727465,14.7525523312908));
#396=CARTESIAN_POINT('',(9.92528132111114,-26.4975805017327,-1.218674879425));
#397=CARTESIAN_POINT('',(48.5,0.,0.));
#398=CARTESIAN_POINT('',(48.5,0.,24.));
#399=CARTESIAN_POINT('',(42.,0.,0.));
#400=CARTESIAN_POINT('',(42.,0.,24.));
#401=CARTESIAN_POINT('',(0.,0.,0.));
#402=CARTESIAN_POINT('',(50.,0.,0.));
#403=CARTESIAN_POINT('',(50.,0.,22.5));
#404=CARTESIAN_POINT('',(48.5,0.,0.));
#405=CARTESIAN_POINT('',(50.,12.,0.));
#406=CARTESIAN_POINT('',(3.00000000000328,0.,0.));
#407=CARTESIAN_POINT('',(3.00000000000328,0.,23.0780255004314));
#408=CARTESIAN_POINT('',(9.18373829574366,0.,0.));
#409=CARTESIAN_POINT('',(3.00000000000328,0.,0.));
#410=CARTESIAN_POINT('',(7.00468639759984,0.,0.));
#411=CARTESIAN_POINT('',(7.00468639759984,0.,29.5));
#412=CARTESIAN_POINT('',(0.669263071615816,26.7885008408056,0.));
#413=CARTESIAN_POINT('',(0.675676188759771,26.0330572249211,0.));
#414=CARTESIAN_POINT('',(0.780409026256848,25.5335859430954,0.));
#415=CARTESIAN_POINT('',(1.0725271829621,24.8478642855497,0.));
#416=CARTESIAN_POINT('',(1.19416267953426,24.625979967088,0.));
#417=CARTESIAN_POINT('',(1.47715170274929,24.214116961027,0.));
#418=CARTESIAN_POINT('',(1.63747090918792,24.0244483044304,0.));
#419=CARTESIAN_POINT('',(1.99570016977977,23.6775861091172,0.));
#420=CARTESIAN_POINT('',(2.19485670046224,23.5203164568211,0.));
#421=CARTESIAN_POINT('',(2.61388257838344,23.2528915667845,0.));
#422=CARTESIAN_POINT('',(2.83562895027465,23.140573011088,0.));
#423=CARTESIAN_POINT('',(3.30428427200208,22.9599403431459,0.));
#424=CARTESIAN_POINT('',(3.54598041170668,22.8939401431481,0.));
#425=CARTESIAN_POINT('',(4.03533690591371,22.8107971736483,0.));
#426=CARTESIAN_POINT('',(4.28658804879331,22.7932639613489,0.));
#427=CARTESIAN_POINT('',(4.78728396475975,22.8081931335264,0.));
#428=CARTESIAN_POINT('',(5.0335550524274,22.8400639874976,0.));
#429=CARTESIAN_POINT('',(5.51820267989803,22.9510665683842,0.));
#430=CARTESIAN_POINT('',(5.75886103034318,23.0315287056658,0.));
#431=CARTESIAN_POINT('',(6.21385055791548,23.2345815813365,0.));
#432=CARTESIAN_POINT('',(6.42976357944358,23.3570242315879,0.));
#433=CARTESIAN_POINT('',(6.83841057774908,23.6437700581502,0.));
#434=CARTESIAN_POINT('',(7.03064796270198,23.8085559769559,0.));
#435=CARTESIAN_POINT('',(7.3752472656744,24.1665432705634,0.));
#436=CARTESIAN_POINT('',(7.52997603109271,24.3612197419555,0.));
#437=CARTESIAN_POINT('',(7.80299621212153,24.7830946966229,0.));
#438=CARTESIAN_POINT('',(7.91783983293924,25.0053317524772,0.));
#439=CARTESIAN_POINT('',(8.10266349263705,25.4663571989873,0.));
#440=CARTESIAN_POINT('',(8.17358501900349,25.7083653117791,0.));
#441=CARTESIAN_POINT('',(8.26649104476585,26.2002637523151,0.));
#442=CARTESIAN_POINT('',(8.28854789926409,26.4477192795433,0.));
#443=CARTESIAN_POINT('',(8.28428575866968,26.9456172337324,0.));
#444=CARTESIAN_POINT('',(8.2571430768746,27.1980481149232,0.));
#445=CARTESIAN_POINT('',(8.1551922045,27.6852626996038,0.));
#446=CARTESIAN_POINT('',(8.08074294715647,27.9223046557981,0.));
#447=CARTESIAN_POINT('',(7.88372856499185,28.3829311578297,0.));
#448=CARTESIAN_POINT('',(7.76194524297149,28.6034301798813,0.));
#449=CARTESIAN_POINT('',(7.48004555103909,29.0122782819249,0.));
#450=CARTESIAN_POINT('',(7.31778264141821,29.2039606144657,0.));
#451=CARTESIAN_POINT('',(6.95666984761769,29.5522904690205,0.));
#452=CARTESIAN_POINT('',(6.76140915884658,29.7059946027682,0.));
#453=CARTESIAN_POINT('',(6.34229521602027,29.9736167602014,0.));
#454=CARTESIAN_POINT('',(6.11579796335929,30.0882457936984,0.));
#455=CARTESIAN_POINT('',(5.65100854448702,30.2678085612589,0.));
#456=CARTESIAN_POINT('',(5.41174976348446,30.3339935915591,0.));
#457=CARTESIAN_POINT('',(4.91945858489171,30.4190146228617,0.));
#458=CARTESIAN_POINT('',(4.667053803182,30.4370476762495,0.));
#459=CARTESIAN_POINT('',(4.17059828267221,30.4237943032557,0.));
#460=CARTESIAN_POINT('',(3.92375704561054,30.3931165717474,0.));
#461=CARTESIAN_POINT('',(3.43294342926082,30.2819970457987,0.));
#462=CARTESIAN_POINT('',(3.19640964588164,30.2031585916438,0.));
#463=CARTESIAN_POINT('',(2.7425986883585,30.0017733694833,0.));
#464=CARTESIAN_POINT('',(2.52287955665108,29.877607565517,0.));
#465=CARTESIAN_POINT('',(2.11341925080698,29.5901276372169,0.));
#466=CARTESIAN_POINT('',(1.92498362904905,29.428416649036,0.));
#467=CARTESIAN_POINT('',(1.58008400616456,29.0697335929364,0.));
#468=CARTESIAN_POINT('',(1.42267091542944,28.8706464322044,0.));
#469=CARTESIAN_POINT('',(1.15305486180279,28.4520650809297,0.));
#470=CARTESIAN_POINT('',(1.03917451015248,28.2314097538137,0.));
#471=CARTESIAN_POINT('',(0.853846339742412,27.7670563610118,0.));
#472=CARTESIAN_POINT('',(0.783459934912364,27.5243929351819,0.));
#473=CARTESIAN_POINT('',(0.691707919348727,27.0363304163262,0.));
#474=CARTESIAN_POINT('',(0.669263071615816,26.7885008408056,0.));
#475=CARTESIAN_POINT('',(0.675676188759771,26.0330572249211,0.));
#476=CARTESIAN_POINT('',(0.,0.,0.));
#477=CARTESIAN_POINT('',(15.475306074313,0.,0.));
#478=CARTESIAN_POINT('',(15.475306074313,0.,29.5));
#479=CARTESIAN_POINT('',(0.,0.,0.));
#480=CARTESIAN_POINT('',(17.6023639014536,0.,0.));
#481=CARTESIAN_POINT('',(17.6023639014536,0.,29.025));
#482=CARTESIAN_POINT('',(15.475306074313,0.,0.));
#483=CARTESIAN_POINT('',(41.,0.,0.));
#484=CARTESIAN_POINT('',(41.,0.,23.8));
#485=CARTESIAN_POINT('',(41.,0.,0.));
#486=CARTESIAN_POINT('',(41.6535898384862,0.,0.));
#487=CARTESIAN_POINT('',(41.6535898384862,0.,23.8));
#488=CARTESIAN_POINT('',(0.,0.,0.));
#489=CARTESIAN_POINT('',(42.,0.,0.));
#490=(
GEOMETRIC_REPRESENTATION_CONTEXT(3)
GLOBAL_UNCERTAINTY_ASSIGNED_CONTEXT((#491))
GLOBAL_UNIT_ASSIGNED_CONTEXT((#497,#493,#492))
REPRESENTATION_CONTEXT('model1','TOP_LEVEL_ASSEMBLY_PART')
);
#491=UNCERTAINTY_MEASURE_WITH_UNIT(LENGTH_MEASURE(2.E-5),#497,
'DISTANCE_ACCURACY_VALUE','Maximum Tolerance applied to model');
#492=(
NAMED_UNIT(*)
SI_UNIT($,.STERADIAN.)
SOLID_ANGLE_UNIT()
);
#493=(
CONVERSION_BASED_UNIT('DEGREE',#495)
NAMED_UNIT(#494)
PLANE_ANGLE_UNIT()
);
#494=DIMENSIONAL_EXPONENTS(0.,0.,0.,0.,0.,0.,0.);
#495=PLANE_ANGLE_MEASURE_WITH_UNIT(PLANE_ANGLE_MEASURE(0.0174532925),#496);
#496=(
NAMED_UNIT(*)
PLANE_ANGLE_UNIT()
SI_UNIT($,.RADIAN.)
);
#497=(
LENGTH_UNIT()
NAMED_UNIT(*)
SI_UNIT(.MILLI.,.METRE.)
);
ENDSEC;
END-ISO-10303-21;
