ISO-10303-21;
HEADER;
/* Generated by software containing ST-Developer
 * from STEP Tools, Inc. (www.steptools.com) 
 */
/* OPTION: using custom schema-name function */

FILE_DESCRIPTION(
/* description */ (''),
/* implementation_level */ '2;1');

FILE_NAME(
/* name */ 'model1.stp',
/* time_stamp */ '2023-11-03T11:15:25+03:00',
/* author */ (''),
/* organization */ (''),
/* preprocessor_version */ 'ST-DEVELOPER v19.4',
/* originating_system */ 'SIEMENS PLM Software NX2306.3001',
/* authorisation */ '');

FILE_SCHEMA (('AUTOMOTIVE_DESIGN { 1 0 10303 214 3 1 1 1 }'));
ENDSEC;

DATA;
#10=PROPERTY_DEFINITION_REPRESENTATION(#14,#12);
#11=PROPERTY_DEFINITION_REPRESENTATION(#15,#13);
#12=REPRESENTATION('',(#16),#465);
#13=REPRESENTATION('',(#17),#465);
#14=PROPERTY_DEFINITION('pmi validation property','',#21);
#15=PROPERTY_DEFINITION('pmi validation property','',#21);
#16=VALUE_REPRESENTATION_ITEM('number of annotations',COUNT_MEASURE(0.));
#17=VALUE_REPRESENTATION_ITEM('number of views',COUNT_MEASURE(0.));
#18=SHAPE_REPRESENTATION_RELATIONSHIP('None',
'relationship between model1_objects-None and model1_objects-None',#30,
#19);
#19=ADVANCED_BREP_SHAPE_REPRESENTATION('model1_objects-None',(#125,#126),
#465);
#20=SHAPE_DEFINITION_REPRESENTATION(#21,#30);
#21=PRODUCT_DEFINITION_SHAPE('','',#22);
#22=PRODUCT_DEFINITION(' ','',#24,#23);
#23=PRODUCT_DEFINITION_CONTEXT('part definition',#29,'design');
#24=PRODUCT_DEFINITION_FORMATION_WITH_SPECIFIED_SOURCE(' ',' ',#26,
 .NOT_KNOWN.);
#25=PRODUCT_RELATED_PRODUCT_CATEGORY('part','',(#26));
#26=PRODUCT('model1_objects','model1_objects',' ',(#27));
#27=PRODUCT_CONTEXT(' ',#29,'mechanical');
#28=APPLICATION_PROTOCOL_DEFINITION('international standard',
'automotive_design',2010,#29);
#29=APPLICATION_CONTEXT(
'core data for automotive mechanical design processes');
#30=SHAPE_REPRESENTATION('model1_objects-None',(#233),#465);
#31=OVER_RIDING_STYLED_ITEM('',(#60),#131,#57);
#32=OVER_RIDING_STYLED_ITEM('',(#61),#132,#57);
#33=OVER_RIDING_STYLED_ITEM('',(#62),#133,#57);
#34=OVER_RIDING_STYLED_ITEM('',(#63),#134,#57);
#35=OVER_RIDING_STYLED_ITEM('',(#64),#135,#57);
#36=OVER_RIDING_STYLED_ITEM('',(#65),#136,#57);
#37=OVER_RIDING_STYLED_ITEM('',(#66),#137,#57);
#38=OVER_RIDING_STYLED_ITEM('',(#67),#138,#57);
#39=OVER_RIDING_STYLED_ITEM('',(#68),#139,#57);
#40=COLOUR_RGB('Medium Steel',0.611764705882353,0.658823529411765,0.670588235294118);
#41=COLOUR_RGB('silver gray',0.6,0.6,0.6);
#42=SURFACE_OF_REVOLUTION('',#44,#43);
#43=AXIS1_PLACEMENT('',#457,#280);
#44=B_SPLINE_CURVE_WITH_KNOTS('',3,(#391,#392,#393,#394,#395,#396,#397,
#398,#399,#400,#401,#402,#403,#404,#405,#406,#407,#408,#409,#410,#411,#412,
#413,#414,#415,#416,#417,#418,#419,#420,#421,#422,#423,#424,#425,#426,#427,
#428,#429,#430,#431,#432,#433,#434,#435,#436,#437,#438,#439,#440,#441,#442,
#443,#444,#445,#446,#447,#448,#449,#450,#451,#452,#453,#454,#455,#456),
 .UNSPECIFIED.,.T.,.F.,(2,2,2,2,2,2,2,2,2,2,2,2,2,2,2,2,2,2,2,2,2,2,2,2,
2,2,2,2,2,2,2,2,2,2,2),(-0.03125,0.,0.03125,0.0625,0.09375,0.125,0.15625,
0.1875,0.21875,0.25,0.28125,0.3125,0.34375,0.375,0.40625,0.4375,0.46875,
0.5,0.53125,0.5625,0.59375,0.625,0.65625,0.6875,0.71875,0.75,0.78125,0.8125,
0.84375,0.875,0.90625,0.9375,0.96875,1.,1.03125),.UNSPECIFIED.);
#45=CONICAL_SURFACE('',#245,10.1757572642863,70.0000000000922);
#46=VERTEX_LOOP('',#209);
#47=PLANE('',#243);
#48=FACE_OUTER_BOUND('',#172,.T.);
#49=TOROIDAL_SURFACE('',#240,16.5,1.5);
#50=TOROIDAL_SURFACE('',#242,13.,5.);
#51=TOROIDAL_SURFACE('',#250,13.,5.);
#52=TOROIDAL_SURFACE('',#251,57.,40.);
#53=CYLINDRICAL_SURFACE('',#238,18.);
#54=CYLINDRICAL_SURFACE('',#248,18.);
#55=PRESENTATION_LAYER_ASSIGNMENT('1','Layer 1',(#125,#126));
#56=STYLED_ITEM('',(#58),#125);
#57=STYLED_ITEM('',(#59),#126);
#58=PRESENTATION_STYLE_ASSIGNMENT((#69));
#59=PRESENTATION_STYLE_ASSIGNMENT((#70));
#60=PRESENTATION_STYLE_ASSIGNMENT((#71));
#61=PRESENTATION_STYLE_ASSIGNMENT((#72));
#62=PRESENTATION_STYLE_ASSIGNMENT((#73));
#63=PRESENTATION_STYLE_ASSIGNMENT((#74));
#64=PRESENTATION_STYLE_ASSIGNMENT((#75));
#65=PRESENTATION_STYLE_ASSIGNMENT((#76));
#66=PRESENTATION_STYLE_ASSIGNMENT((#77));
#67=PRESENTATION_STYLE_ASSIGNMENT((#78));
#68=PRESENTATION_STYLE_ASSIGNMENT((#79));
#69=SURFACE_STYLE_USAGE(.BOTH.,#80);
#70=SURFACE_STYLE_USAGE(.BOTH.,#81);
#71=SURFACE_STYLE_USAGE(.BOTH.,#82);
#72=SURFACE_STYLE_USAGE(.BOTH.,#83);
#73=SURFACE_STYLE_USAGE(.BOTH.,#84);
#74=SURFACE_STYLE_USAGE(.BOTH.,#85);
#75=SURFACE_STYLE_USAGE(.BOTH.,#86);
#76=SURFACE_STYLE_USAGE(.BOTH.,#87);
#77=SURFACE_STYLE_USAGE(.BOTH.,#88);
#78=SURFACE_STYLE_USAGE(.BOTH.,#89);
#79=SURFACE_STYLE_USAGE(.BOTH.,#90);
#80=SURFACE_SIDE_STYLE('',(#91));
#81=SURFACE_SIDE_STYLE('',(#92));
#82=SURFACE_SIDE_STYLE('',(#93));
#83=SURFACE_SIDE_STYLE('',(#94));
#84=SURFACE_SIDE_STYLE('',(#95));
#85=SURFACE_SIDE_STYLE('',(#96));
#86=SURFACE_SIDE_STYLE('',(#97));
#87=SURFACE_SIDE_STYLE('',(#98));
#88=SURFACE_SIDE_STYLE('',(#99));
#89=SURFACE_SIDE_STYLE('',(#100));
#90=SURFACE_SIDE_STYLE('',(#101));
#91=SURFACE_STYLE_FILL_AREA(#102);
#92=SURFACE_STYLE_FILL_AREA(#103);
#93=SURFACE_STYLE_FILL_AREA(#104);
#94=SURFACE_STYLE_FILL_AREA(#105);
#95=SURFACE_STYLE_FILL_AREA(#106);
#96=SURFACE_STYLE_FILL_AREA(#107);
#97=SURFACE_STYLE_FILL_AREA(#108);
#98=SURFACE_STYLE_FILL_AREA(#109);
#99=SURFACE_STYLE_FILL_AREA(#110);
#100=SURFACE_STYLE_FILL_AREA(#111);
#101=SURFACE_STYLE_FILL_AREA(#112);
#102=FILL_AREA_STYLE('',(#113));
#103=FILL_AREA_STYLE('',(#114));
#104=FILL_AREA_STYLE('',(#115));
#105=FILL_AREA_STYLE('',(#116));
#106=FILL_AREA_STYLE('',(#117));
#107=FILL_AREA_STYLE('',(#118));
#108=FILL_AREA_STYLE('',(#119));
#109=FILL_AREA_STYLE('',(#120));
#110=FILL_AREA_STYLE('',(#121));
#111=FILL_AREA_STYLE('',(#122));
#112=FILL_AREA_STYLE('',(#123));
#113=FILL_AREA_STYLE_COLOUR('',#124);
#114=FILL_AREA_STYLE_COLOUR('',#40);
#115=FILL_AREA_STYLE_COLOUR('',#41);
#116=FILL_AREA_STYLE_COLOUR('',#41);
#117=FILL_AREA_STYLE_COLOUR('',#41);
#118=FILL_AREA_STYLE_COLOUR('',#41);
#119=FILL_AREA_STYLE_COLOUR('',#41);
#120=FILL_AREA_STYLE_COLOUR('',#41);
#121=FILL_AREA_STYLE_COLOUR('',#41);
#122=FILL_AREA_STYLE_COLOUR('',#41);
#123=FILL_AREA_STYLE_COLOUR('',#41);
#124=DRAUGHTING_PRE_DEFINED_COLOUR('yellow');
#125=MANIFOLD_SOLID_BREP('',#127);
#126=MANIFOLD_SOLID_BREP('',#128);
#127=CLOSED_SHELL('',(#129,#130));
#128=CLOSED_SHELL('',(#131,#132,#133,#134,#135,#136,#137,#138,#139));
#129=ADVANCED_FACE('',(#142,#143),#140,.F.);
#130=ADVANCED_FACE('',(#144,#145),#141,.F.);
#131=ADVANCED_FACE('',(#146,#147),#53,.T.);
#132=ADVANCED_FACE('',(#148,#149),#49,.T.);
#133=ADVANCED_FACE('',(#150,#151),#50,.T.);
#134=ADVANCED_FACE('',(#48),#47,.F.);
#135=ADVANCED_FACE('',(#152,#153),#45,.F.);
#136=ADVANCED_FACE('',(#154,#155),#42,.T.);
#137=ADVANCED_FACE('',(#156,#157),#54,.T.);
#138=ADVANCED_FACE('',(#158,#159),#51,.T.);
#139=ADVANCED_FACE('',(#160,#161),#52,.F.);
#140=(
BOUNDED_SURFACE()
B_SPLINE_SURFACE(3,3,((#296,#297,#298,#299,#300,#301,#302),(#303,#304,#305,
#306,#307,#308,#309),(#310,#311,#312,#313,#314,#315,#316),(#317,#318,#319,
#320,#321,#322,#323),(#324,#325,#326,#327,#328,#329,#330),(#331,#332,#333,
#334,#335,#336,#337),(#338,#339,#340,#341,#342,#343,#344)),
 .UNSPECIFIED.,.T.,.F.,.F.)
B_SPLINE_SURFACE_WITH_KNOTS((1,3,3,3,1),(4,3,4),(-0.5,0.,0.5,1.,1.5),(0.,
0.5,1.),.UNSPECIFIED.)
GEOMETRIC_REPRESENTATION_ITEM()
RATIONAL_B_SPLINE_SURFACE(((1.,0.591399270753629,0.591399270753629,1.,0.591399270753629,
0.591399270753629,1.),(0.333333333333334,0.19713309025121,0.19713309025121,
0.333333333333334,0.19713309025121,0.19713309025121,0.333333333333334),
(0.333333333333334,0.19713309025121,0.19713309025121,0.333333333333334,
0.19713309025121,0.19713309025121,0.333333333333334),(1.,0.591399270753629,
0.591399270753629,1.,0.591399270753629,0.591399270753629,1.),(0.333333333333334,
0.19713309025121,0.19713309025121,0.333333333333334,0.19713309025121,0.19713309025121,
0.333333333333334),(0.333333333333334,0.19713309025121,0.19713309025121,
0.333333333333334,0.19713309025121,0.19713309025121,0.333333333333334),
(1.,0.591399270753629,0.591399270753629,1.,0.591399270753629,0.591399270753629,
1.)))
REPRESENTATION_ITEM('')
SURFACE()
);
#141=(
BOUNDED_SURFACE()
B_SPLINE_SURFACE(3,3,((#345,#346,#347,#348),(#349,#350,#351,#352),(#353,
#354,#355,#356),(#357,#358,#359,#360),(#361,#362,#363,#364),(#365,#366,
#367,#368),(#369,#370,#371,#372)),.UNSPECIFIED.,.T.,.F.,.F.)
B_SPLINE_SURFACE_WITH_KNOTS((1,3,3,3,1),(4,4),(-0.5,0.,0.5,1.,1.5),(0.,
1.),.UNSPECIFIED.)
GEOMETRIC_REPRESENTATION_ITEM()
RATIONAL_B_SPLINE_SURFACE(((1.,0.800205915830153,0.800205915830153,1.),
(0.333333333333334,0.266735305276717,0.266735305276717,0.333333333333334),
(0.333333333333334,0.266735305276717,0.266735305276717,0.333333333333334),
(1.,0.800205915830153,0.800205915830153,1.),(0.333333333333334,0.266735305276717,
0.266735305276717,0.333333333333334),(0.333333333333334,0.266735305276717,
0.266735305276717,0.333333333333334),(1.,0.800205915830153,0.800205915830153,
1.)))
REPRESENTATION_ITEM('')
SURFACE()
);
#142=FACE_BOUND('',#162,.T.);
#143=FACE_BOUND('',#163,.T.);
#144=FACE_BOUND('',#164,.T.);
#145=FACE_BOUND('',#165,.T.);
#146=FACE_BOUND('',#166,.T.);
#147=FACE_BOUND('',#167,.T.);
#148=FACE_BOUND('',#168,.T.);
#149=FACE_BOUND('',#169,.T.);
#150=FACE_BOUND('',#170,.T.);
#151=FACE_BOUND('',#171,.T.);
#152=FACE_BOUND('',#173,.T.);
#153=FACE_BOUND('',#46,.T.);
#154=FACE_BOUND('',#174,.T.);
#155=FACE_BOUND('',#175,.T.);
#156=FACE_BOUND('',#176,.T.);
#157=FACE_BOUND('',#177,.T.);
#158=FACE_BOUND('',#178,.T.);
#159=FACE_BOUND('',#179,.T.);
#160=FACE_BOUND('',#180,.T.);
#161=FACE_BOUND('',#181,.T.);
#162=EDGE_LOOP('',(#182));
#163=EDGE_LOOP('',(#183));
#164=EDGE_LOOP('',(#184));
#165=EDGE_LOOP('',(#185));
#166=EDGE_LOOP('',(#186));
#167=EDGE_LOOP('',(#187));
#168=EDGE_LOOP('',(#188));
#169=EDGE_LOOP('',(#189));
#170=EDGE_LOOP('',(#190));
#171=EDGE_LOOP('',(#191));
#172=EDGE_LOOP('',(#192));
#173=EDGE_LOOP('',(#193));
#174=EDGE_LOOP('',(#194));
#175=EDGE_LOOP('',(#195));
#176=EDGE_LOOP('',(#196));
#177=EDGE_LOOP('',(#197));
#178=EDGE_LOOP('',(#198));
#179=EDGE_LOOP('',(#199));
#180=EDGE_LOOP('',(#200));
#181=EDGE_LOOP('',(#201));
#182=ORIENTED_EDGE('',*,*,#213,.T.);
#183=ORIENTED_EDGE('',*,*,#214,.F.);
#184=ORIENTED_EDGE('',*,*,#214,.T.);
#185=ORIENTED_EDGE('',*,*,#213,.F.);
#186=ORIENTED_EDGE('',*,*,#215,.T.);
#187=ORIENTED_EDGE('',*,*,#216,.F.);
#188=ORIENTED_EDGE('',*,*,#217,.T.);
#189=ORIENTED_EDGE('',*,*,#215,.F.);
#190=ORIENTED_EDGE('',*,*,#218,.F.);
#191=ORIENTED_EDGE('',*,*,#216,.T.);
#192=ORIENTED_EDGE('',*,*,#217,.F.);
#193=ORIENTED_EDGE('',*,*,#219,.T.);
#194=ORIENTED_EDGE('',*,*,#219,.F.);
#195=ORIENTED_EDGE('',*,*,#220,.T.);
#196=ORIENTED_EDGE('',*,*,#220,.F.);
#197=ORIENTED_EDGE('',*,*,#221,.T.);
#198=ORIENTED_EDGE('',*,*,#221,.F.);
#199=ORIENTED_EDGE('',*,*,#222,.T.);
#200=ORIENTED_EDGE('',*,*,#222,.F.);
#201=ORIENTED_EDGE('',*,*,#218,.T.);
#202=VERTEX_POINT('',#293);
#203=VERTEX_POINT('',#295);
#204=VERTEX_POINT('',#374);
#205=VERTEX_POINT('',#376);
#206=VERTEX_POINT('',#379);
#207=VERTEX_POINT('',#382);
#208=VERTEX_POINT('',#386);
#209=VERTEX_POINT('',#387);
#210=VERTEX_POINT('',#390);
#211=VERTEX_POINT('',#459);
#212=VERTEX_POINT('',#462);
#213=EDGE_CURVE('',#202,#202,#223,.T.);
#214=EDGE_CURVE('',#203,#203,#224,.T.);
#215=EDGE_CURVE('',#204,#204,#225,.T.);
#216=EDGE_CURVE('',#205,#205,#226,.T.);
#217=EDGE_CURVE('',#206,#206,#227,.T.);
#218=EDGE_CURVE('',#207,#207,#228,.T.);
#219=EDGE_CURVE('',#208,#208,#229,.T.);
#220=EDGE_CURVE('',#210,#210,#230,.T.);
#221=EDGE_CURVE('',#211,#211,#231,.T.);
#222=EDGE_CURVE('',#212,#212,#232,.T.);
#223=CIRCLE('',#234,6.);
#224=CIRCLE('',#235,6.);
#225=CIRCLE('',#236,18.);
#226=CIRCLE('',#237,18.);
#227=CIRCLE('',#239,16.5);
#228=CIRCLE('',#241,17.8888888888889);
#229=CIRCLE('',#244,10.1757572642863);
#230=CIRCLE('',#246,18.);
#231=CIRCLE('',#247,18.);
#232=CIRCLE('',#249,17.8888888888889);
#233=AXIS2_PLACEMENT_3D('',#291,#252,#253);
#234=AXIS2_PLACEMENT_3D('',#292,#254,#255);
#235=AXIS2_PLACEMENT_3D('',#294,#256,#257);
#236=AXIS2_PLACEMENT_3D('',#373,#258,#259);
#237=AXIS2_PLACEMENT_3D('',#375,#260,#261);
#238=AXIS2_PLACEMENT_3D('',#377,#262,#263);
#239=AXIS2_PLACEMENT_3D('',#378,#264,#265);
#240=AXIS2_PLACEMENT_3D('',#380,#266,#267);
#241=AXIS2_PLACEMENT_3D('',#381,#268,#269);
#242=AXIS2_PLACEMENT_3D('',#383,#270,#271);
#243=AXIS2_PLACEMENT_3D('',#384,#272,#273);
#244=AXIS2_PLACEMENT_3D('',#385,#274,#275);
#245=AXIS2_PLACEMENT_3D('',#388,#276,#277);
#246=AXIS2_PLACEMENT_3D('',#389,#278,#279);
#247=AXIS2_PLACEMENT_3D('',#458,#281,#282);
#248=AXIS2_PLACEMENT_3D('',#460,#283,#284);
#249=AXIS2_PLACEMENT_3D('',#461,#285,#286);
#250=AXIS2_PLACEMENT_3D('',#463,#287,#288);
#251=AXIS2_PLACEMENT_3D('',#464,#289,#290);
#252=DIRECTION('',(0.,0.,1.));
#253=DIRECTION('',(1.,0.,0.));
#254=DIRECTION('',(0.121869343405147,0.990243470904127,0.0675701966087571));
#255=DIRECTION('',(0.992489739031157,-0.122305514405556,0.00234074002352219));
#256=DIRECTION('',(0.121869343405147,-0.0865060970576294,0.988769213876451));
#257=DIRECTION('',(0.992489739031157,0.,-0.122327911442424));
#258=DIRECTION('',(-1.,0.,0.));
#259=DIRECTION('',(0.,0.,1.));
#260=DIRECTION('',(-1.,0.,0.));
#261=DIRECTION('',(0.,0.,1.));
#262=DIRECTION('',(-1.,0.,0.));
#263=DIRECTION('',(0.,0.,1.));
#264=DIRECTION('',(-1.,0.,0.));
#265=DIRECTION('',(0.,0.,1.));
#266=DIRECTION('',(-1.,0.,0.));
#267=DIRECTION('',(0.,0.,1.));
#268=DIRECTION('',(-1.,0.,0.));
#269=DIRECTION('',(0.,0.,1.));
#270=DIRECTION('',(-1.,0.,0.));
#271=DIRECTION('',(0.,0.,1.));
#272=DIRECTION('',(-1.,0.,0.));
#273=DIRECTION('',(0.,0.,1.));
#274=DIRECTION('',(-1.,0.,0.));
#275=DIRECTION('',(0.,0.,1.));
#276=DIRECTION('',(-1.,0.,0.));
#277=DIRECTION('',(5.81878543979828E-18,0.,1.));
#278=DIRECTION('',(-1.,0.,0.));
#279=DIRECTION('',(0.,0.,1.));
#280=DIRECTION('',(-1.,0.,0.));
#281=DIRECTION('',(-1.,0.,0.));
#282=DIRECTION('',(0.,0.,1.));
#283=DIRECTION('',(-1.,0.,0.));
#284=DIRECTION('',(0.,0.,1.));
#285=DIRECTION('',(-1.,0.,0.));
#286=DIRECTION('',(0.,0.,1.));
#287=DIRECTION('',(-1.,0.,0.));
#288=DIRECTION('',(0.,0.,1.));
#289=DIRECTION('',(-1.,0.,0.));
#290=DIRECTION('',(0.,0.,1.));
#291=CARTESIAN_POINT('',(0.,0.,0.));
#292=CARTESIAN_POINT('',(5.95527690984794,0.539808033222534,14.0132367303131));
#293=CARTESIAN_POINT('',(11.9102153440349,-0.194025053210803,14.0272811704542));
#294=CARTESIAN_POINT('',(5.95527690984794,-14.0210002511441,0.271566437439218));
#295=CARTESIAN_POINT('',(11.9102153440349,-14.0210002511441,-0.462401031215324));
#296=CARTESIAN_POINT('',(11.9102153440349,-14.0210002511441,-0.462401031215325));
#297=CARTESIAN_POINT('',(11.9102153440349,-13.5403870859121,-15.0356326105445));
#298=CARTESIAN_POINT('',(11.9102153440349,0.0827339156399246,-20.2337709173255));
#299=CARTESIAN_POINT('',(11.9102153440349,10.1491112259748,-9.68492664293568));
#300=CARTESIAN_POINT('',(11.9102153440349,20.2154885363096,0.863917631454159));
#301=CARTESIAN_POINT('',(11.9102153440349,14.3857348258115,14.2289480973485));
#302=CARTESIAN_POINT('',(11.9102153440349,-0.194025053210805,14.0272811704542));
#303=CARTESIAN_POINT('',(12.037200666196,-2.06598439566541,0.567875933104642));
#304=CARTESIAN_POINT('',(12.037200666196,-2.65622669886958,-1.57947935524974));
#305=CARTESIAN_POINT('',(12.037200666196,-0.904765250229593,-2.95494418753125));
#306=CARTESIAN_POINT('',(12.037200666196,1.04145467477094,-1.872470763171));
#307=CARTESIAN_POINT('',(12.037200666196,2.98767459977148,-0.789997338810748));
#308=CARTESIAN_POINT('',(12.037200666196,2.74297235924545,1.42351605044102));
#309=CARTESIAN_POINT('',(12.037200666196,0.607304494974324,2.05473984944966));
#310=CARTESIAN_POINT('',(0.127323797822131,-2.06598439566541,2.03581087041373));
#311=CARTESIAN_POINT('',(0.127323797822131,-4.18197774384569,-0.111544417940654));
#312=CARTESIAN_POINT('',(0.127323797822131,-3.02113285574333,-2.89380999292327));
#313=CARTESIAN_POINT('',(0.127323797822131,-0.00641593481996847,-2.9004786258492));
#314=CARTESIAN_POINT('',(0.127323797822131,3.00830098610339,-2.90714725877513));
#315=CARTESIAN_POINT('',(0.127323797822131,4.18144334276577,-0.130044524814546));
#316=CARTESIAN_POINT('',(0.127323797822131,2.074970667841,2.0266509691674));
#317=CARTESIAN_POINT('',(0.000338475660984459,-14.0210002511441,1.00553390609376));
#318=CARTESIAN_POINT('',(0.000338475660984459,-15.0661381308882,-13.5676976732354));
#319=CARTESIAN_POINT('',(0.000338475660984459,-2.03363368987381,-20.1726367227175));
#320=CARTESIAN_POINT('',(0.000338475660984459,9.10124061638388,-10.7129345056139));
#321=CARTESIAN_POINT('',(0.000338475660984459,20.2361149226415,-1.25323228851022));
#322=CARTESIAN_POINT('',(0.000338475660984459,15.8242058093318,12.675387522093));
#323=CARTESIAN_POINT('',(0.000338475660984459,1.27364111965587,13.9991922901719));
#324=CARTESIAN_POINT('',(-0.126646846500162,-25.9760161066228,-0.0247430582262062));
#325=CARTESIAN_POINT('',(-0.126646846500162,-25.9502985179307,-27.0238509285302));
#326=CARTESIAN_POINT('',(-0.126646846500162,-1.04613452400429,-37.4514634525118));
#327=CARTESIAN_POINT('',(-0.126646846500162,18.2088971675877,-18.5253903853786));
#328=CARTESIAN_POINT('',(-0.126646846500162,37.4639288591798,0.40068268175469));
#329=CARTESIAN_POINT('',(-0.126646846500162,27.4669682758979,25.4808195690005));
#330=CARTESIAN_POINT('',(-0.126646846500162,0.472311571470744,25.9717336111765));
#331=CARTESIAN_POINT('',(11.7832300218737,-25.9760161066228,-1.49267799553529));
#332=CARTESIAN_POINT('',(11.7832300218738,-24.4245474729546,-28.4917858658393));
#333=CARTESIAN_POINT('',(11.7832300218738,1.07023308150944,-37.5125976471198));
#334=CARTESIAN_POINT('',(11.7832300218737,19.2567677771786,-17.4973825227004));
#335=CARTESIAN_POINT('',(11.7832300218738,37.4433024728478,2.51783260171907));
#336=CARTESIAN_POINT('',(11.7832300218738,26.0284972923776,27.0343801442561));
#337=CARTESIAN_POINT('',(11.7832300218737,-0.995354601395932,25.9998224914588));
#338=CARTESIAN_POINT('',(11.9102153440349,-14.0210002511441,-0.462401031215325));
#339=CARTESIAN_POINT('',(11.9102153440349,-13.5403870859121,-15.0356326105445));
#340=CARTESIAN_POINT('',(11.9102153440349,0.0827339156399246,-20.2337709173255));
#341=CARTESIAN_POINT('',(11.9102153440349,10.1491112259748,-9.68492664293568));
#342=CARTESIAN_POINT('',(11.9102153440349,20.2154885363096,0.863917631454159));
#343=CARTESIAN_POINT('',(11.9102153440349,14.3857348258115,14.2289480973485));
#344=CARTESIAN_POINT('',(11.9102153440349,-0.194025053210805,14.0272811704542));
#345=CARTESIAN_POINT('',(11.9102153440349,-0.194025053210805,14.0272811704542));
#346=CARTESIAN_POINT('',(11.9102153440349,-8.53623927698712,13.9118918416887));
#347=CARTESIAN_POINT('',(11.9102153440349,-14.2959964113279,7.87607784472199));
#348=CARTESIAN_POINT('',(11.9102153440349,-14.0210002511441,-0.462401031215325));
#349=CARTESIAN_POINT('',(12.037200666196,0.607304494974322,2.05473984944966));
#350=CARTESIAN_POINT('',(12.0372006661961,-0.614677141377515,2.41591206340722));
#351=CARTESIAN_POINT('',(12.0372006661961,-1.72826088182696,1.7965448534883));
#352=CARTESIAN_POINT('',(12.037200666196,-2.06598439566541,0.567875933104642));
#353=CARTESIAN_POINT('',(0.127323797822131,2.074970667841,2.0266509691674));
#354=CARTESIAN_POINT('',(0.127323797822131,0.869693869281552,3.2606641474048));
#355=CARTESIAN_POINT('',(0.127323797822131,-0.855260079690649,3.26447979079738));
#356=CARTESIAN_POINT('',(0.127323797822131,-2.06598439566541,2.03581087041373));
#357=CARTESIAN_POINT('',(0.000338475660984459,1.27364111965587,13.9991922901719));
#358=CARTESIAN_POINT('',(0.000338475660984459,-7.05186826632805,14.7566439256862));
#359=CARTESIAN_POINT('',(0.000338475660984459,-13.4229956091916,9.34401278203109));
#360=CARTESIAN_POINT('',(0.000338475660984459,-14.0210002511441,1.00553390609376));
#361=CARTESIAN_POINT('',(-0.126646846500162,0.472311571470745,25.9717336111765));
#362=CARTESIAN_POINT('',(-0.126646846500162,-14.9734304019377,26.2526237039678));
#363=CARTESIAN_POINT('',(-0.126646846500162,-25.9907311386926,15.4235457732648));
#364=CARTESIAN_POINT('',(-0.126646846500162,-25.9760161066229,-0.0247430582262066));
#365=CARTESIAN_POINT('',(11.7832300218737,-0.995354601395932,25.9998224914588));
#366=CARTESIAN_POINT('',(11.7832300218738,-16.4578014125967,25.4078716199702));
#367=CARTESIAN_POINT('',(11.7832300218738,-26.8637319408289,13.9556108359557));
#368=CARTESIAN_POINT('',(11.7832300218737,-25.9760161066229,-1.49267799553529));
#369=CARTESIAN_POINT('',(11.9102153440349,-0.194025053210805,14.0272811704542));
#370=CARTESIAN_POINT('',(11.9102153440349,-8.53623927698712,13.9118918416887));
#371=CARTESIAN_POINT('',(11.9102153440349,-14.2959964113279,7.87607784472199));
#372=CARTESIAN_POINT('',(11.9102153440349,-14.0210002511441,-0.462401031215325));
#373=CARTESIAN_POINT('',(38.5,0.,0.));
#374=CARTESIAN_POINT('',(38.5,0.,18.));
#375=CARTESIAN_POINT('',(33.,0.,0.));
#376=CARTESIAN_POINT('',(33.,0.,18.));
#377=CARTESIAN_POINT('',(0.,0.,0.));
#378=CARTESIAN_POINT('',(40.,0.,0.));
#379=CARTESIAN_POINT('',(40.,0.,16.5));
#380=CARTESIAN_POINT('',(38.5,0.,0.));
#381=CARTESIAN_POINT('',(31.951779874216,0.,0.));
#382=CARTESIAN_POINT('',(31.951779874216,0.,17.8888888888889));
#383=CARTESIAN_POINT('',(33.,0.,0.));
#384=CARTESIAN_POINT('',(40.,9.,0.));
#385=CARTESIAN_POINT('',(3.50000000000793,0.,0.));
#386=CARTESIAN_POINT('',(3.50000000000793,0.,10.1757572642863));
#387=CARTESIAN_POINT('',(7.2036727553077,0.,0.));
#388=CARTESIAN_POINT('',(3.50000000000793,0.,0.));
#389=CARTESIAN_POINT('',(8.13100868181132,0.,0.));
#390=CARTESIAN_POINT('',(8.13100868181132,0.,18.));
#391=CARTESIAN_POINT('',(0.782113139694163,14.4487562091122,0.));
#392=CARTESIAN_POINT('',(0.788584175359396,13.8484071325888,0.));
#393=CARTESIAN_POINT('',(0.821869186755924,13.5499161784177,0.));
#394=CARTESIAN_POINT('',(0.94856728074332,12.9643951331904,0.));
#395=CARTESIAN_POINT('',(1.0406076781498,12.6824408738524,0.));
#396=CARTESIAN_POINT('',(1.28169491353267,12.1400031676804,0.));
#397=CARTESIAN_POINT('',(1.43288596644537,11.8773903877249,0.));
#398=CARTESIAN_POINT('',(1.7815445364287,11.3971499753543,0.));
#399=CARTESIAN_POINT('',(1.97956193086871,11.1769048872128,0.));
#400=CARTESIAN_POINT('',(2.42409491194283,10.7771063202315,0.));
#401=CARTESIAN_POINT('',(2.6671056451132,10.601508924969,0.));
#402=CARTESIAN_POINT('',(3.17904950158787,10.3062533105941,0.));
#403=CARTESIAN_POINT('',(3.45174443325788,10.1842250613311,0.));
#404=CARTESIAN_POINT('',(4.02000362895645,9.99638073708289,0.));
#405=CARTESIAN_POINT('',(4.30888061154653,9.93233151717277,0.));
#406=CARTESIAN_POINT('',(4.8954025692422,9.85940571408781,0.));
#407=CARTESIAN_POINT('',(5.19608772889208,9.85084588519886,0.));
#408=CARTESIAN_POINT('',(5.79091300671383,9.88946235300184,0.));
#409=CARTESIAN_POINT('',(6.08313847891658,9.93584151340104,0.));
#410=CARTESIAN_POINT('',(6.65762575549846,10.0805984944465,0.));
#411=CARTESIAN_POINT('',(6.94249180415339,10.1804188896409,0.));
#412=CARTESIAN_POINT('',(7.48350839553694,10.4270677999581,0.));
#413=CARTESIAN_POINT('',(7.74080424106696,10.5735943095426,0.));
#414=CARTESIAN_POINT('',(8.22851465144626,10.9138528757341,0.));
#415=CARTESIAN_POINT('',(8.45916036338411,11.1086970186397,0.));
#416=CARTESIAN_POINT('',(8.87408536277315,11.5323568067052,0.));
#417=CARTESIAN_POINT('',(9.06095562059664,11.7626811563536,0.));
#418=CARTESIAN_POINT('',(9.39092068557704,12.2626457851386,0.));
#419=CARTESIAN_POINT('',(9.52992745696961,12.5265501029175,0.));
#420=CARTESIAN_POINT('',(9.75287353750291,13.0755036018792,0.));
#421=CARTESIAN_POINT('',(9.83797342412667,13.3649168214809,0.));
#422=CARTESIAN_POINT('',(9.94651705352816,13.9506025423416,0.));
#423=CARTESIAN_POINT('',(9.97059034887973,14.2456936196101,0.));
#424=CARTESIAN_POINT('',(9.95800957732346,14.840396799724,0.));
#425=CARTESIAN_POINT('',(9.92037845521232,15.1403688057769,0.));
#426=CARTESIAN_POINT('',(9.78667290600502,15.7173536663813,0.));
#427=CARTESIAN_POINT('',(9.69077388195859,15.9979656992732,0.));
#428=CARTESIAN_POINT('',(9.43877554039067,16.5428571146839,0.));
#429=CARTESIAN_POINT('',(9.28690976779595,16.7978797517388,0.));
#430=CARTESIAN_POINT('',(8.93476713618333,17.2736296019388,0.));
#431=CARTESIAN_POINT('',(8.73164996193913,17.496791313096,0.));
#432=CARTESIAN_POINT('',(8.28848699990022,17.8943254715351,0.));
#433=CARTESIAN_POINT('',(8.04963642323742,18.0687855809989,0.));
#434=CARTESIAN_POINT('',(7.53811040425097,18.3700958958765,0.));
#435=CARTESIAN_POINT('',(7.26343147381428,18.4969841880237,0.));
#436=CARTESIAN_POINT('',(6.70376133621797,18.6916539103994,0.));
#437=CARTESIAN_POINT('',(6.41617851097265,18.7613608470962,0.));
#438=CARTESIAN_POINT('',(5.82536810377583,18.8449866791508,0.));
#439=CARTESIAN_POINT('',(5.52528668083519,18.8578518537783,0.));
#440=CARTESIAN_POINT('',(4.93455301072897,18.8269110258368,0.));
#441=CARTESIAN_POINT('',(4.64073602386171,18.7834618221372,0.));
#442=CARTESIAN_POINT('',(4.05864068564819,18.6390398612278,0.));
#443=CARTESIAN_POINT('',(3.77907488436545,18.5403061959903,0.));
#444=CARTESIAN_POINT('',(3.24188577916936,18.2921525181371,0.));
#445=CARTESIAN_POINT('',(2.98190890194649,18.1409305710008,0.));
#446=CARTESIAN_POINT('',(2.4974096746866,17.7934852276085,0.));
#447=CARTESIAN_POINT('',(2.27425245750113,17.5990314192295,0.));
#448=CARTESIAN_POINT('',(1.86557223622124,17.1692593663163,0.));
#449=CARTESIAN_POINT('',(1.67887523227941,16.9314297712897,0.));
#450=CARTESIAN_POINT('',(1.35845739973489,16.4316639910974,0.));
#451=CARTESIAN_POINT('',(1.22289063586021,16.1684976184143,0.));
#452=CARTESIAN_POINT('',(1.00209065095667,15.6150323105539,0.));
#453=CARTESIAN_POINT('',(0.91806256452987,15.3258201063691,0.));
#454=CARTESIAN_POINT('',(0.808724208673223,14.7441235811745,0.));
#455=CARTESIAN_POINT('',(0.782113139694163,14.4487562091122,0.));
#456=CARTESIAN_POINT('',(0.788584175359396,13.8484071325888,0.));
#457=CARTESIAN_POINT('',(0.,0.,0.));
#458=CARTESIAN_POINT('',(14.1320377358868,0.,0.));
#459=CARTESIAN_POINT('',(14.1320377358868,0.,18.));
#460=CARTESIAN_POINT('',(0.,0.,0.));
#461=CARTESIAN_POINT('',(15.180257861671,0.,0.));
#462=CARTESIAN_POINT('',(15.180257861671,0.,17.8888888888889));
#463=CARTESIAN_POINT('',(14.1320377358868,0.,0.));
#464=CARTESIAN_POINT('',(23.5660188679434,0.,0.));
#465=(
GEOMETRIC_REPRESENTATION_CONTEXT(3)
GLOBAL_UNCERTAINTY_ASSIGNED_CONTEXT((#466))
GLOBAL_UNIT_ASSIGNED_CONTEXT((#472,#468,#467))
REPRESENTATION_CONTEXT('model1','TOP_LEVEL_ASSEMBLY_PART')
);
#466=UNCERTAINTY_MEASURE_WITH_UNIT(LENGTH_MEASURE(2.E-5),#472,
'DISTANCE_ACCURACY_VALUE','Maximum Tolerance applied to model');
#467=(
NAMED_UNIT(*)
SI_UNIT($,.STERADIAN.)
SOLID_ANGLE_UNIT()
);
#468=(
CONVERSION_BASED_UNIT('DEGREE',#470)
NAMED_UNIT(#469)
PLANE_ANGLE_UNIT()
);
#469=DIMENSIONAL_EXPONENTS(0.,0.,0.,0.,0.,0.,0.);
#470=PLANE_ANGLE_MEASURE_WITH_UNIT(PLANE_ANGLE_MEASURE(0.0174532925),#471);
#471=(
NAMED_UNIT(*)
PLANE_ANGLE_UNIT()
SI_UNIT($,.RADIAN.)
);
#472=(
LENGTH_UNIT()
NAMED_UNIT(*)
SI_UNIT(.MILLI.,.METRE.)
);
ENDSEC;
END-ISO-10303-21;
