ISO-10303-21;
HEADER;
/* Generated by software containing ST-Developer
 * from STEP Tools, Inc. (www.steptools.com) 
 */
/* OPTION: using custom schema-name function */

FILE_DESCRIPTION(
/* description */ (''),
/* implementation_level */ '2;1');

FILE_NAME(
/* name */ 'model1.stp',
/* time_stamp */ '2023-11-06T15:53:05+03:00',
/* author */ (''),
/* organization */ (''),
/* preprocessor_version */ 'ST-DEVELOPER v19.4',
/* originating_system */ 'SIEMENS PLM Software NX2306.3001',
/* authorisation */ '');

FILE_SCHEMA (('AUTOMOTIVE_DESIGN { 1 0 10303 214 3 1 1 1 }'));
ENDSEC;

DATA;
#10=PROPERTY_DEFINITION_REPRESENTATION(#14,#12);
#11=PROPERTY_DEFINITION_REPRESENTATION(#15,#13);
#12=REPRESENTATION('',(#16),#519);
#13=REPRESENTATION('',(#17),#519);
#14=PROPERTY_DEFINITION('pmi validation property','',#21);
#15=PROPERTY_DEFINITION('pmi validation property','',#21);
#16=VALUE_REPRESENTATION_ITEM('number of annotations',COUNT_MEASURE(0.));
#17=VALUE_REPRESENTATION_ITEM('number of views',COUNT_MEASURE(0.));
#18=SHAPE_REPRESENTATION_RELATIONSHIP('None',
'relationship between model1_objects-None and model1_objects-None',#30,
#19);
#19=ADVANCED_BREP_SHAPE_REPRESENTATION('model1_objects-None',(#141,#142),
#519);
#20=SHAPE_DEFINITION_REPRESENTATION(#21,#30);
#21=PRODUCT_DEFINITION_SHAPE('','',#22);
#22=PRODUCT_DEFINITION(' ','',#24,#23);
#23=PRODUCT_DEFINITION_CONTEXT('part definition',#29,'design');
#24=PRODUCT_DEFINITION_FORMATION_WITH_SPECIFIED_SOURCE(' ',' ',#26,
 .NOT_KNOWN.);
#25=PRODUCT_RELATED_PRODUCT_CATEGORY('part','',(#26));
#26=PRODUCT('model1_objects','model1_objects',' ',(#27));
#27=PRODUCT_CONTEXT(' ',#29,'mechanical');
#28=APPLICATION_PROTOCOL_DEFINITION('international standard',
'automotive_design',2010,#29);
#29=APPLICATION_CONTEXT(
'core data for automotive mechanical design processes');
#30=SHAPE_REPRESENTATION('model1_objects-None',(#269),#519);
#31=OVER_RIDING_STYLED_ITEM('',(#64),#147,#61);
#32=OVER_RIDING_STYLED_ITEM('',(#65),#148,#61);
#33=OVER_RIDING_STYLED_ITEM('',(#66),#149,#61);
#34=OVER_RIDING_STYLED_ITEM('',(#67),#150,#61);
#35=OVER_RIDING_STYLED_ITEM('',(#68),#151,#61);
#36=OVER_RIDING_STYLED_ITEM('',(#69),#152,#61);
#37=OVER_RIDING_STYLED_ITEM('',(#70),#153,#61);
#38=OVER_RIDING_STYLED_ITEM('',(#71),#154,#61);
#39=OVER_RIDING_STYLED_ITEM('',(#72),#155,#61);
#40=OVER_RIDING_STYLED_ITEM('',(#73),#156,#61);
#41=OVER_RIDING_STYLED_ITEM('',(#74),#157,#61);
#42=COLOUR_RGB('Medium Steel',0.611764705882353,0.658823529411765,0.670588235294118);
#43=COLOUR_RGB('silver gray',0.6,0.6,0.6);
#44=CONICAL_SURFACE('',#280,39.7060867972765,80.0000000000002);
#45=CONICAL_SURFACE('',#282,32.5,30.);
#46=CONICAL_SURFACE('',#288,34.6395555688102,39.9999999999997);
#47=VERTEX_LOOP('',#239);
#48=SURFACE_OF_REVOLUTION('',#50,#49);
#49=AXIS1_PLACEMENT('',#500,#314);
#50=B_SPLINE_CURVE_WITH_KNOTS('',3,(#434,#435,#436,#437,#438,#439,#440,
#441,#442,#443,#444,#445,#446,#447,#448,#449,#450,#451,#452,#453,#454,#455,
#456,#457,#458,#459,#460,#461,#462,#463,#464,#465,#466,#467,#468,#469,#470,
#471,#472,#473,#474,#475,#476,#477,#478,#479,#480,#481,#482,#483,#484,#485,
#486,#487,#488,#489,#490,#491,#492,#493,#494,#495,#496,#497,#498,#499),
 .UNSPECIFIED.,.T.,.F.,(2,2,2,2,2,2,2,2,2,2,2,2,2,2,2,2,2,2,2,2,2,2,2,2,
2,2,2,2,2,2,2,2,2,2,2),(-0.03125,0.,0.03125,0.0625,0.09375,0.125,0.15625,
0.1875,0.21875,0.25,0.28125,0.3125,0.34375,0.375,0.40625,0.4375,0.46875,
0.5,0.53125,0.5625,0.59375,0.625,0.65625,0.6875,0.71875,0.75,0.78125,0.8125,
0.84375,0.875,0.90625,0.9375,0.96875,1.,1.03125),.UNSPECIFIED.);
#51=CYLINDRICAL_SURFACE('',#277,32.5);
#52=CYLINDRICAL_SURFACE('',#284,32.3);
#53=CYLINDRICAL_SURFACE('',#291,47.5);
#54=TOROIDAL_SURFACE('',#275,30.5,2.);
#55=TOROIDAL_SURFACE('',#286,42.3,10.);
#56=TOROIDAL_SURFACE('',#290,42.5,5.);
#57=PLANE('',#273);
#58=FACE_OUTER_BOUND('',#188,.T.);
#59=PRESENTATION_LAYER_ASSIGNMENT('1','Layer 1',(#141,#142));
#60=STYLED_ITEM('',(#62),#141);
#61=STYLED_ITEM('',(#63),#142);
#62=PRESENTATION_STYLE_ASSIGNMENT((#75));
#63=PRESENTATION_STYLE_ASSIGNMENT((#76));
#64=PRESENTATION_STYLE_ASSIGNMENT((#77));
#65=PRESENTATION_STYLE_ASSIGNMENT((#78));
#66=PRESENTATION_STYLE_ASSIGNMENT((#79));
#67=PRESENTATION_STYLE_ASSIGNMENT((#80));
#68=PRESENTATION_STYLE_ASSIGNMENT((#81));
#69=PRESENTATION_STYLE_ASSIGNMENT((#82));
#70=PRESENTATION_STYLE_ASSIGNMENT((#83));
#71=PRESENTATION_STYLE_ASSIGNMENT((#84));
#72=PRESENTATION_STYLE_ASSIGNMENT((#85));
#73=PRESENTATION_STYLE_ASSIGNMENT((#86));
#74=PRESENTATION_STYLE_ASSIGNMENT((#87));
#75=SURFACE_STYLE_USAGE(.BOTH.,#88);
#76=SURFACE_STYLE_USAGE(.BOTH.,#89);
#77=SURFACE_STYLE_USAGE(.BOTH.,#90);
#78=SURFACE_STYLE_USAGE(.BOTH.,#91);
#79=SURFACE_STYLE_USAGE(.BOTH.,#92);
#80=SURFACE_STYLE_USAGE(.BOTH.,#93);
#81=SURFACE_STYLE_USAGE(.BOTH.,#94);
#82=SURFACE_STYLE_USAGE(.BOTH.,#95);
#83=SURFACE_STYLE_USAGE(.BOTH.,#96);
#84=SURFACE_STYLE_USAGE(.BOTH.,#97);
#85=SURFACE_STYLE_USAGE(.BOTH.,#98);
#86=SURFACE_STYLE_USAGE(.BOTH.,#99);
#87=SURFACE_STYLE_USAGE(.BOTH.,#100);
#88=SURFACE_SIDE_STYLE('',(#101));
#89=SURFACE_SIDE_STYLE('',(#102));
#90=SURFACE_SIDE_STYLE('',(#103));
#91=SURFACE_SIDE_STYLE('',(#104));
#92=SURFACE_SIDE_STYLE('',(#105));
#93=SURFACE_SIDE_STYLE('',(#106));
#94=SURFACE_SIDE_STYLE('',(#107));
#95=SURFACE_SIDE_STYLE('',(#108));
#96=SURFACE_SIDE_STYLE('',(#109));
#97=SURFACE_SIDE_STYLE('',(#110));
#98=SURFACE_SIDE_STYLE('',(#111));
#99=SURFACE_SIDE_STYLE('',(#112));
#100=SURFACE_SIDE_STYLE('',(#113));
#101=SURFACE_STYLE_FILL_AREA(#114);
#102=SURFACE_STYLE_FILL_AREA(#115);
#103=SURFACE_STYLE_FILL_AREA(#116);
#104=SURFACE_STYLE_FILL_AREA(#117);
#105=SURFACE_STYLE_FILL_AREA(#118);
#106=SURFACE_STYLE_FILL_AREA(#119);
#107=SURFACE_STYLE_FILL_AREA(#120);
#108=SURFACE_STYLE_FILL_AREA(#121);
#109=SURFACE_STYLE_FILL_AREA(#122);
#110=SURFACE_STYLE_FILL_AREA(#123);
#111=SURFACE_STYLE_FILL_AREA(#124);
#112=SURFACE_STYLE_FILL_AREA(#125);
#113=SURFACE_STYLE_FILL_AREA(#126);
#114=FILL_AREA_STYLE('',(#127));
#115=FILL_AREA_STYLE('',(#128));
#116=FILL_AREA_STYLE('',(#129));
#117=FILL_AREA_STYLE('',(#130));
#118=FILL_AREA_STYLE('',(#131));
#119=FILL_AREA_STYLE('',(#132));
#120=FILL_AREA_STYLE('',(#133));
#121=FILL_AREA_STYLE('',(#134));
#122=FILL_AREA_STYLE('',(#135));
#123=FILL_AREA_STYLE('',(#136));
#124=FILL_AREA_STYLE('',(#137));
#125=FILL_AREA_STYLE('',(#138));
#126=FILL_AREA_STYLE('',(#139));
#127=FILL_AREA_STYLE_COLOUR('',#140);
#128=FILL_AREA_STYLE_COLOUR('',#42);
#129=FILL_AREA_STYLE_COLOUR('',#43);
#130=FILL_AREA_STYLE_COLOUR('',#43);
#131=FILL_AREA_STYLE_COLOUR('',#43);
#132=FILL_AREA_STYLE_COLOUR('',#43);
#133=FILL_AREA_STYLE_COLOUR('',#43);
#134=FILL_AREA_STYLE_COLOUR('',#43);
#135=FILL_AREA_STYLE_COLOUR('',#43);
#136=FILL_AREA_STYLE_COLOUR('',#43);
#137=FILL_AREA_STYLE_COLOUR('',#43);
#138=FILL_AREA_STYLE_COLOUR('',#43);
#139=FILL_AREA_STYLE_COLOUR('',#43);
#140=DRAUGHTING_PRE_DEFINED_COLOUR('yellow');
#141=MANIFOLD_SOLID_BREP('',#143);
#142=MANIFOLD_SOLID_BREP('',#144);
#143=CLOSED_SHELL('',(#145,#146));
#144=CLOSED_SHELL('',(#147,#148,#149,#150,#151,#152,#153,#154,#155,#156,
#157));
#145=ADVANCED_FACE('',(#160,#161),#158,.F.);
#146=ADVANCED_FACE('',(#162,#163),#159,.F.);
#147=ADVANCED_FACE('',(#58),#57,.F.);
#148=ADVANCED_FACE('',(#164,#165),#54,.T.);
#149=ADVANCED_FACE('',(#166,#167),#51,.T.);
#150=ADVANCED_FACE('',(#168,#169),#48,.T.);
#151=ADVANCED_FACE('',(#170,#171),#44,.F.);
#152=ADVANCED_FACE('',(#172,#173),#45,.T.);
#153=ADVANCED_FACE('',(#174,#175),#52,.T.);
#154=ADVANCED_FACE('',(#176,#177),#55,.F.);
#155=ADVANCED_FACE('',(#178,#179),#46,.T.);
#156=ADVANCED_FACE('',(#180,#181),#56,.T.);
#157=ADVANCED_FACE('',(#182,#183),#53,.T.);
#158=(
BOUNDED_SURFACE()
B_SPLINE_SURFACE(3,3,((#344,#345,#346,#347,#348,#349,#350),(#351,#352,#353,
#354,#355,#356,#357),(#358,#359,#360,#361,#362,#363,#364),(#365,#366,#367,
#368,#369,#370,#371),(#372,#373,#374,#375,#376,#377,#378),(#379,#380,#381,
#382,#383,#384,#385),(#386,#387,#388,#389,#390,#391,#392)),
 .UNSPECIFIED.,.T.,.F.,.F.)
B_SPLINE_SURFACE_WITH_KNOTS((1,3,3,3,1),(4,3,4),(-0.5,0.,0.5,1.,1.5),(0.,
0.5,1.),.UNSPECIFIED.)
GEOMETRIC_REPRESENTATION_ITEM()
RATIONAL_B_SPLINE_SURFACE(((1.,0.592737537930817,0.592737537930817,1.,0.592737537930817,
0.592737537930817,1.),(0.333333333333334,0.197579179310272,0.197579179310272,
0.333333333333334,0.197579179310272,0.197579179310272,0.333333333333334),
(0.333333333333334,0.197579179310272,0.197579179310272,0.333333333333334,
0.197579179310272,0.197579179310272,0.333333333333334),(1.,0.592737537930817,
0.592737537930817,1.,0.592737537930817,0.592737537930817,1.),(0.333333333333334,
0.197579179310272,0.197579179310272,0.333333333333334,0.197579179310272,
0.197579179310272,0.333333333333334),(0.333333333333334,0.197579179310272,
0.197579179310272,0.333333333333334,0.197579179310272,0.197579179310272,
0.333333333333334),(1.,0.592737537930817,0.592737537930817,1.,0.592737537930817,
0.592737537930817,1.)))
REPRESENTATION_ITEM('')
SURFACE()
);
#159=(
BOUNDED_SURFACE()
B_SPLINE_SURFACE(3,3,((#393,#394,#395,#396),(#397,#398,#399,#400),(#401,
#402,#403,#404),(#405,#406,#407,#408),(#409,#410,#411,#412),(#413,#414,
#415,#416),(#417,#418,#419,#420)),.UNSPECIFIED.,.T.,.F.,.F.)
B_SPLINE_SURFACE_WITH_KNOTS((1,3,3,3,1),(4,4),(-0.5,0.,0.5,1.,1.5),(0.,
1.),.UNSPECIFIED.)
GEOMETRIC_REPRESENTATION_ITEM()
RATIONAL_B_SPLINE_SURFACE(((1.,0.79812837591144,0.79812837591144,1.),(0.333333333333334,
0.26604279197048,0.26604279197048,0.333333333333334),(0.333333333333334,
0.26604279197048,0.26604279197048,0.333333333333334),(1.,0.79812837591144,
0.79812837591144,1.),(0.333333333333334,0.26604279197048,0.26604279197048,
0.333333333333334),(0.333333333333334,0.26604279197048,0.26604279197048,
0.333333333333334),(1.,0.79812837591144,0.79812837591144,1.)))
REPRESENTATION_ITEM('')
SURFACE()
);
#160=FACE_BOUND('',#184,.T.);
#161=FACE_BOUND('',#185,.T.);
#162=FACE_BOUND('',#186,.T.);
#163=FACE_BOUND('',#187,.T.);
#164=FACE_BOUND('',#189,.T.);
#165=FACE_BOUND('',#190,.T.);
#166=FACE_BOUND('',#191,.T.);
#167=FACE_BOUND('',#192,.T.);
#168=FACE_BOUND('',#193,.T.);
#169=FACE_BOUND('',#194,.T.);
#170=FACE_BOUND('',#195,.T.);
#171=FACE_BOUND('',#47,.T.);
#172=FACE_BOUND('',#196,.T.);
#173=FACE_BOUND('',#197,.T.);
#174=FACE_BOUND('',#198,.T.);
#175=FACE_BOUND('',#199,.T.);
#176=FACE_BOUND('',#200,.T.);
#177=FACE_BOUND('',#201,.T.);
#178=FACE_BOUND('',#202,.T.);
#179=FACE_BOUND('',#203,.T.);
#180=FACE_BOUND('',#204,.T.);
#181=FACE_BOUND('',#205,.T.);
#182=FACE_BOUND('',#206,.T.);
#183=FACE_BOUND('',#207,.T.);
#184=EDGE_LOOP('',(#208));
#185=EDGE_LOOP('',(#209));
#186=EDGE_LOOP('',(#210));
#187=EDGE_LOOP('',(#211));
#188=EDGE_LOOP('',(#212));
#189=EDGE_LOOP('',(#213));
#190=EDGE_LOOP('',(#214));
#191=EDGE_LOOP('',(#215));
#192=EDGE_LOOP('',(#216));
#193=EDGE_LOOP('',(#217));
#194=EDGE_LOOP('',(#218));
#195=EDGE_LOOP('',(#219));
#196=EDGE_LOOP('',(#220));
#197=EDGE_LOOP('',(#221));
#198=EDGE_LOOP('',(#222));
#199=EDGE_LOOP('',(#223));
#200=EDGE_LOOP('',(#224));
#201=EDGE_LOOP('',(#225));
#202=EDGE_LOOP('',(#226));
#203=EDGE_LOOP('',(#227));
#204=EDGE_LOOP('',(#228));
#205=EDGE_LOOP('',(#229));
#206=EDGE_LOOP('',(#230));
#207=EDGE_LOOP('',(#231));
#208=ORIENTED_EDGE('',*,*,#245,.T.);
#209=ORIENTED_EDGE('',*,*,#246,.F.);
#210=ORIENTED_EDGE('',*,*,#246,.T.);
#211=ORIENTED_EDGE('',*,*,#245,.F.);
#212=ORIENTED_EDGE('',*,*,#247,.F.);
#213=ORIENTED_EDGE('',*,*,#248,.F.);
#214=ORIENTED_EDGE('',*,*,#247,.T.);
#215=ORIENTED_EDGE('',*,*,#248,.T.);
#216=ORIENTED_EDGE('',*,*,#249,.F.);
#217=ORIENTED_EDGE('',*,*,#250,.F.);
#218=ORIENTED_EDGE('',*,*,#251,.T.);
#219=ORIENTED_EDGE('',*,*,#250,.T.);
#220=ORIENTED_EDGE('',*,*,#252,.F.);
#221=ORIENTED_EDGE('',*,*,#249,.T.);
#222=ORIENTED_EDGE('',*,*,#253,.F.);
#223=ORIENTED_EDGE('',*,*,#252,.T.);
#224=ORIENTED_EDGE('',*,*,#254,.F.);
#225=ORIENTED_EDGE('',*,*,#253,.T.);
#226=ORIENTED_EDGE('',*,*,#255,.F.);
#227=ORIENTED_EDGE('',*,*,#254,.T.);
#228=ORIENTED_EDGE('',*,*,#256,.F.);
#229=ORIENTED_EDGE('',*,*,#255,.T.);
#230=ORIENTED_EDGE('',*,*,#251,.F.);
#231=ORIENTED_EDGE('',*,*,#256,.T.);
#232=VERTEX_POINT('',#341);
#233=VERTEX_POINT('',#343);
#234=VERTEX_POINT('',#422);
#235=VERTEX_POINT('',#425);
#236=VERTEX_POINT('',#428);
#237=VERTEX_POINT('',#431);
#238=VERTEX_POINT('',#433);
#239=VERTEX_POINT('',#501);
#240=VERTEX_POINT('',#504);
#241=VERTEX_POINT('',#507);
#242=VERTEX_POINT('',#510);
#243=VERTEX_POINT('',#513);
#244=VERTEX_POINT('',#516);
#245=EDGE_CURVE('',#232,#232,#257,.T.);
#246=EDGE_CURVE('',#233,#233,#258,.T.);
#247=EDGE_CURVE('',#234,#234,#259,.T.);
#248=EDGE_CURVE('',#235,#235,#260,.T.);
#249=EDGE_CURVE('',#236,#236,#261,.T.);
#250=EDGE_CURVE('',#237,#237,#262,.T.);
#251=EDGE_CURVE('',#238,#238,#263,.T.);
#252=EDGE_CURVE('',#240,#240,#264,.T.);
#253=EDGE_CURVE('',#241,#241,#265,.T.);
#254=EDGE_CURVE('',#242,#242,#266,.T.);
#255=EDGE_CURVE('',#243,#243,#267,.T.);
#256=EDGE_CURVE('',#244,#244,#268,.T.);
#257=CIRCLE('',#270,6.);
#258=CIRCLE('',#271,6.);
#259=CIRCLE('',#272,30.5);
#260=CIRCLE('',#274,32.5);
#261=CIRCLE('',#276,32.5);
#262=CIRCLE('',#278,39.7060867972765);
#263=CIRCLE('',#279,47.5);
#264=CIRCLE('',#281,32.3);
#265=CIRCLE('',#283,32.3);
#266=CIRCLE('',#285,34.6395555688102);
#267=CIRCLE('',#287,46.3302222155949);
#268=CIRCLE('',#289,47.5);
#269=AXIS2_PLACEMENT_3D('',#339,#292,#293);
#270=AXIS2_PLACEMENT_3D('',#340,#294,#295);
#271=AXIS2_PLACEMENT_3D('',#342,#296,#297);
#272=AXIS2_PLACEMENT_3D('',#421,#298,#299);
#273=AXIS2_PLACEMENT_3D('',#423,#300,#301);
#274=AXIS2_PLACEMENT_3D('',#424,#302,#303);
#275=AXIS2_PLACEMENT_3D('',#426,#304,#305);
#276=AXIS2_PLACEMENT_3D('',#427,#306,#307);
#277=AXIS2_PLACEMENT_3D('',#429,#308,#309);
#278=AXIS2_PLACEMENT_3D('',#430,#310,#311);
#279=AXIS2_PLACEMENT_3D('',#432,#312,#313);
#280=AXIS2_PLACEMENT_3D('',#502,#315,#316);
#281=AXIS2_PLACEMENT_3D('',#503,#317,#318);
#282=AXIS2_PLACEMENT_3D('',#505,#319,#320);
#283=AXIS2_PLACEMENT_3D('',#506,#321,#322);
#284=AXIS2_PLACEMENT_3D('',#508,#323,#324);
#285=AXIS2_PLACEMENT_3D('',#509,#325,#326);
#286=AXIS2_PLACEMENT_3D('',#511,#327,#328);
#287=AXIS2_PLACEMENT_3D('',#512,#329,#330);
#288=AXIS2_PLACEMENT_3D('',#514,#331,#332);
#289=AXIS2_PLACEMENT_3D('',#515,#333,#334);
#290=AXIS2_PLACEMENT_3D('',#517,#335,#336);
#291=AXIS2_PLACEMENT_3D('',#518,#337,#338);
#292=DIRECTION('',(0.,0.,1.));
#293=DIRECTION('',(1.,0.,0.));
#294=DIRECTION('',(0.121869343405147,0.990794587074993,0.058940218534477));
#295=DIRECTION('',(0.992489739031157,-0.122280478942062,0.00340622776181382));
#296=DIRECTION('',(0.121869343405147,-0.0865060970576294,0.988769213876451));
#297=DIRECTION('',(0.992489739031157,0.,-0.122327911442424));
#298=DIRECTION('',(-1.,0.,0.));
#299=DIRECTION('',(0.,0.,1.));
#300=DIRECTION('',(-1.,0.,0.));
#301=DIRECTION('',(0.,0.,1.));
#302=DIRECTION('',(-1.,0.,0.));
#303=DIRECTION('',(0.,0.,1.));
#304=DIRECTION('',(-1.,0.,0.));
#305=DIRECTION('',(0.,0.,1.));
#306=DIRECTION('',(-1.,0.,0.));
#307=DIRECTION('',(0.,0.,1.));
#308=DIRECTION('',(-1.,0.,0.));
#309=DIRECTION('',(0.,0.,1.));
#310=DIRECTION('',(-1.,0.,0.));
#311=DIRECTION('',(0.,0.,1.));
#312=DIRECTION('',(-1.,0.,0.));
#313=DIRECTION('',(0.,0.,1.));
#314=DIRECTION('',(-1.,0.,0.));
#315=DIRECTION('',(-1.,0.,0.));
#316=DIRECTION('',(5.54347233007005E-18,0.,1.));
#317=DIRECTION('',(-1.,0.,0.));
#318=DIRECTION('',(0.,0.,1.));
#319=DIRECTION('',(1.,0.,0.));
#320=DIRECTION('',(5.6890143814544E-17,0.,-1.));
#321=DIRECTION('',(-1.,0.,0.));
#322=DIRECTION('',(0.,0.,1.));
#323=DIRECTION('',(-1.,0.,0.));
#324=DIRECTION('',(0.,0.,1.));
#325=DIRECTION('',(-1.,0.,0.));
#326=DIRECTION('',(0.,0.,1.));
#327=DIRECTION('',(-1.,0.,0.));
#328=DIRECTION('',(0.,0.,1.));
#329=DIRECTION('',(-1.,0.,0.));
#330=DIRECTION('',(0.,0.,1.));
#331=DIRECTION('',(-1.,0.,0.));
#332=DIRECTION('',(3.97080387898624E-17,0.,1.));
#333=DIRECTION('',(-1.,0.,0.));
#334=DIRECTION('',(0.,0.,1.));
#335=DIRECTION('',(-1.,0.,0.));
#336=DIRECTION('',(0.,0.,1.));
#337=DIRECTION('',(-1.,0.,0.));
#338=DIRECTION('',(0.,0.,1.));
#339=CARTESIAN_POINT('',(0.,0.,0.));
#340=CARTESIAN_POINT('',(5.95527690984794,0.49722607474565,44.0102099382738));
#341=CARTESIAN_POINT('',(11.9102153440349,-0.236456798906722,44.0306473048447));
#342=CARTESIAN_POINT('',(5.95527690984794,-44.0069903211442,-0.728433562560782));
#343=CARTESIAN_POINT('',(11.9102153440349,-44.0069903211442,-1.46240103121532));
#344=CARTESIAN_POINT('',(11.9102153440349,-44.0069903211442,-1.46240103121532));
#345=CARTESIAN_POINT('',(11.9102153440349,-42.4918133672983,-47.0575395188462));
#346=CARTESIAN_POINT('',(11.9102153440349,0.0996674833412398,-63.4031252794517));
#347=CARTESIAN_POINT('',(11.9102153440349,31.7297181675627,-30.5283278105503));
#348=CARTESIAN_POINT('',(11.9102153440349,63.3597688517842,2.34646965835108));
#349=CARTESIAN_POINT('',(11.9102153440349,45.3831924185003,44.2756374851278));
#350=CARTESIAN_POINT('',(11.9102153440349,-0.236456798906711,44.0306473048447));
#351=CARTESIAN_POINT('',(12.037200666196,-32.0519744656654,-0.432124066895356));
#352=CARTESIAN_POINT('',(12.037200666196,-31.6042556707614,-33.6408075941997));
#353=CARTESIAN_POINT('',(12.037200666196,-0.838443369545131,-46.150080442063));
#354=CARTESIAN_POINT('',(12.037200666196,22.6561810419285,-22.6762708343373));
#355=CARTESIAN_POINT('',(12.037200666196,46.150805453402,0.797538773388327));
#356=CARTESIAN_POINT('',(12.037200666196,33.6688062255105,31.5744263517462));
#357=CARTESIAN_POINT('',(12.037200666196,0.460532569544106,32.0515788707709));
#358=CARTESIAN_POINT('',(0.127323797822127,-32.0519744656654,1.03581087041373));
#359=CARTESIAN_POINT('',(0.127323797822127,-33.1251662413096,-32.1728726568906));
#360=CARTESIAN_POINT('',(0.127323797822127,-2.95114983531874,-46.0831974602501));
#361=CARTESIAN_POINT('',(0.127323797822127,21.603842116248,-23.69970415687));
#362=CARTESIAN_POINT('',(0.127323797822127,46.1588340678147,-1.31621085349004));
#363=CARTESIAN_POINT('',(0.127323797822127,35.0938221301052,30.0132307792986));
#364=CARTESIAN_POINT('',(0.127323797822127,1.92789831684886,32.0107041376291));
#365=CARTESIAN_POINT('',(0.00033847566098099,-44.0069903211442,0.00553390609376193));
#366=CARTESIAN_POINT('',(0.00033847566098099,-44.0127239378465,-45.5896045815371));
#367=CARTESIAN_POINT('',(0.00033847566098099,-2.01303898243237,-63.3362422976387));
#368=CARTESIAN_POINT('',(0.00033847566098099,30.6773792418822,-31.551761133083));
#369=CARTESIAN_POINT('',(0.00033847566098099,63.3677974661969,0.232720031472712));
#370=CARTESIAN_POINT('',(0.00033847566098099,46.808208323095,42.7144419126802));
#371=CARTESIAN_POINT('',(0.00033847566098099,1.23090894839804,43.9897725717029));
#372=CARTESIAN_POINT('',(-0.126646846500165,-55.9620061766229,-1.02474305822621));
#373=CARTESIAN_POINT('',(-0.126646846500165,-54.9002816343832,-59.0063365061835));
#374=CARTESIAN_POINT('',(-0.126646846500165,-1.074928129546,-80.5892871350273));
#375=CARTESIAN_POINT('',(-0.126646846500165,39.7509163675164,-39.4038181092959));
#376=CARTESIAN_POINT('',(-0.126646846500165,80.5767608645787,1.78165091643548));
#377=CARTESIAN_POINT('',(-0.126646846500165,58.5225945160848,55.4156530460616));
#378=CARTESIAN_POINT('',(-0.126646846500165,0.533919579947212,55.9688410057767));
#379=CARTESIAN_POINT('',(11.7832300218737,-55.9620061766229,-2.49267799553529));
#380=CARTESIAN_POINT('',(11.7832300218738,-53.379371063835,-60.4742714434925));
#381=CARTESIAN_POINT('',(11.7832300218738,1.03777833622762,-80.6561701168401));
#382=CARTESIAN_POINT('',(11.7832300218737,40.8032552931969,-38.3803847867631));
#383=CARTESIAN_POINT('',(11.7832300218738,80.5687322501661,3.89540054331384));
#384=CARTESIAN_POINT('',(11.7832300218738,57.0975786114901,56.9768486185093));
#385=CARTESIAN_POINT('',(11.7832300218737,-0.933446167357535,56.0097157389184));
#386=CARTESIAN_POINT('',(11.9102153440349,-44.0069903211442,-1.46240103121532));
#387=CARTESIAN_POINT('',(11.9102153440349,-42.4918133672983,-47.0575395188462));
#388=CARTESIAN_POINT('',(11.9102153440349,0.0996674833412398,-63.4031252794517));
#389=CARTESIAN_POINT('',(11.9102153440349,31.7297181675627,-30.5283278105503));
#390=CARTESIAN_POINT('',(11.9102153440349,63.3597688517842,2.34646965835108));
#391=CARTESIAN_POINT('',(11.9102153440349,45.3831924185003,44.2756374851278));
#392=CARTESIAN_POINT('',(11.9102153440349,-0.236456798906711,44.0306473048447));
#393=CARTESIAN_POINT('',(11.9102153440349,-0.236456798906723,44.0306473048447));
#394=CARTESIAN_POINT('',(11.9102153440349,-26.6021921019465,43.889055987156));
#395=CARTESIAN_POINT('',(11.9102153440349,-44.8826821598075,24.8891683712871));
#396=CARTESIAN_POINT('',(11.9102153440349,-44.0069903211442,-1.46240103121533));
#397=CARTESIAN_POINT('',(12.037200666196,0.4605325695441,32.0515788707709));
#398=CARTESIAN_POINT('',(12.037200666196,-18.7320865782163,32.3273476947667));
#399=CARTESIAN_POINT('',(12.037200666196,-32.3107321597541,18.7607319647383));
#400=CARTESIAN_POINT('',(12.037200666196,-32.0519744656653,-0.432124066895358));
#401=CARTESIAN_POINT('',(0.127323797822127,1.92789831684885,32.0107041376291));
#402=CARTESIAN_POINT('',(0.127323797822127,-17.2402448701759,33.1651376929954));
#403=CARTESIAN_POINT('',(0.127323797822127,-31.4317265950343,20.2286669020474));
#404=CARTESIAN_POINT('',(0.127323797822127,-32.0519744656654,1.03581087041373));
#405=CARTESIAN_POINT('',(0.00033847566098099,1.23090894839802,43.9897725717029));
#406=CARTESIAN_POINT('',(0.00033847566098099,-25.1103503939061,44.7268459853848));
#407=CARTESIAN_POINT('',(0.00033847566098099,-44.0036765950876,26.3571033085962));
#408=CARTESIAN_POINT('',(0.00033847566098099,-44.0069903211442,0.00553390609375846));
#409=CARTESIAN_POINT('',(-0.126646846500165,0.533919579947202,55.9688410057767));
#410=CARTESIAN_POINT('',(-0.126646846500165,-32.9804559176363,56.2885542777742));
#411=CARTESIAN_POINT('',(-0.126646846500165,-56.575626595141,32.4855397151449));
#412=CARTESIAN_POINT('',(-0.126646846500165,-55.9620061766229,-1.02474305822621));
#413=CARTESIAN_POINT('',(11.7832300218737,-0.933446167357546,56.0097157389184));
#414=CARTESIAN_POINT('',(11.7832300218738,-34.4722976256767,55.4507642795453));
#415=CARTESIAN_POINT('',(11.7832300218738,-57.4546321598608,31.0176047778358));
#416=CARTESIAN_POINT('',(11.7832300218737,-55.9620061766229,-2.4926779955353));
#417=CARTESIAN_POINT('',(11.9102153440349,-0.236456798906723,44.0306473048447));
#418=CARTESIAN_POINT('',(11.9102153440349,-26.6021921019465,43.889055987156));
#419=CARTESIAN_POINT('',(11.9102153440349,-44.8826821598075,24.8891683712871));
#420=CARTESIAN_POINT('',(11.9102153440349,-44.0069903211442,-1.46240103121533));
#421=CARTESIAN_POINT('',(50.,0.,0.));
#422=CARTESIAN_POINT('',(50.,0.,30.5));
#423=CARTESIAN_POINT('',(50.,17.2,0.));
#424=CARTESIAN_POINT('',(48.,0.,0.));
#425=CARTESIAN_POINT('',(48.,0.,32.5));
#426=CARTESIAN_POINT('',(48.,0.,0.));
#427=CARTESIAN_POINT('',(40.,0.,0.));
#428=CARTESIAN_POINT('',(40.,0.,32.5));
#429=CARTESIAN_POINT('',(0.,0.,0.));
#430=CARTESIAN_POINT('',(3.50000000000036,0.,0.));
#431=CARTESIAN_POINT('',(3.50000000000036,0.,39.7060867972765));
#432=CARTESIAN_POINT('',(8.30992908499726,0.,0.));
#433=CARTESIAN_POINT('',(8.30992908499726,0.,47.5));
#434=CARTESIAN_POINT('',(0.782128068853937,44.1705372349366,0.));
#435=CARTESIAN_POINT('',(0.788569246199619,43.5620800251885,0.));
#436=CARTESIAN_POINT('',(0.821289481836475,43.2612273525356,0.));
#437=CARTESIAN_POINT('',(0.945674461266334,42.6663212763673,0.));
#438=CARTESIAN_POINT('',(1.03626515636735,42.3782940316554,0.));
#439=CARTESIAN_POINT('',(1.27067676834641,41.8258372545522,0.));
#440=CARTESIAN_POINT('',(1.41647693100656,41.5580086824053,0.));
#441=CARTESIAN_POINT('',(1.75670865660661,41.0582237658598,0.));
#442=CARTESIAN_POINT('',(1.94917866716787,40.8279408693359,0.));
#443=CARTESIAN_POINT('',(2.37842779126632,40.4062440190961,0.));
#444=CARTESIAN_POINT('',(2.6174749295135,40.2139856134471,0.));
#445=CARTESIAN_POINT('',(3.12106400138428,39.8855693789611,0.));
#446=CARTESIAN_POINT('',(3.38739568589029,39.7470603266362,0.));
#447=CARTESIAN_POINT('',(3.94984480617196,39.5226980748032,0.));
#448=CARTESIAN_POINT('',(4.24217683950764,39.4389582167009,0.));
#449=CARTESIAN_POINT('',(4.83236608741009,39.3314198355702,0.));
#450=CARTESIAN_POINT('',(5.13481027830313,39.3066800588202,0.));
#451=CARTESIAN_POINT('',(5.74083976603358,39.3180779474754,0.));
#452=CARTESIAN_POINT('',(6.03892382991462,39.3536550084768,0.));
#453=CARTESIAN_POINT('',(6.62553877595286,39.4826979164214,0.));
#454=CARTESIAN_POINT('',(6.91700344463908,39.5777994654351,0.));
#455=CARTESIAN_POINT('',(7.46827342583169,39.8201656970047,0.));
#456=CARTESIAN_POINT('',(7.72970524497945,39.9670969134662,0.));
#457=CARTESIAN_POINT('',(8.22419313406094,40.3124000862398,0.));
#458=CARTESIAN_POINT('',(8.45666432543664,40.511409530419,0.));
#459=CARTESIAN_POINT('',(8.87268654918441,40.9441096716849,0.));
#460=CARTESIAN_POINT('',(9.0591763667607,41.1796205454485,0.));
#461=CARTESIAN_POINT('',(9.38774544853272,41.6901818233814,0.));
#462=CARTESIAN_POINT('',(9.52561073861119,41.9591367683385,0.));
#463=CARTESIAN_POINT('',(9.74698296794755,42.516746519337,0.));
#464=CARTESIAN_POINT('',(9.83161850654604,42.8092116120485,0.));
#465=CARTESIAN_POINT('',(9.94216026889789,43.4040482440824,0.));
#466=CARTESIAN_POINT('',(9.96805334536108,43.703071805825,0.));
#467=CARTESIAN_POINT('',(9.96201817388482,44.3042783700771,0.));
#468=CARTESIAN_POINT('',(9.92910839416887,44.6091846184517,0.));
#469=CARTESIAN_POINT('',(9.80630906254143,45.1982319631143,0.));
#470=CARTESIAN_POINT('',(9.7169136135928,45.4846956650912,0.));
#471=CARTESIAN_POINT('',(9.48112628375271,46.0412138280694,0.));
#472=CARTESIAN_POINT('',(9.33492155159948,46.3090083477445,0.));
#473=CARTESIAN_POINT('',(8.99717892793578,46.805076266346,0.));
#474=CARTESIAN_POINT('',(8.80372555218533,47.0370497508949,0.));
#475=CARTESIAN_POINT('',(8.37002151161411,47.4623483386883,0.));
#476=CARTESIAN_POINT('',(8.13557034043607,47.6502910750516,0.));
#477=CARTESIAN_POINT('',(7.63257805780949,47.9783194053655,0.));
#478=CARTESIAN_POINT('',(7.36071474390869,48.1194707857438,0.));
#479=CARTESIAN_POINT('',(6.80068974112413,48.3425247106886,0.));
#480=CARTESIAN_POINT('',(6.51241593361014,48.425462040281,0.));
#481=CARTESIAN_POINT('',(5.91933938620191,48.534135561814,0.));
#482=CARTESIAN_POINT('',(5.61411740765285,48.5590252726872,0.));
#483=CARTESIAN_POINT('',(5.0138620744894,48.5485274079156,0.));
#484=CARTESIAN_POINT('',(4.71542282048155,48.5139902418293,0.));
#485=CARTESIAN_POINT('',(4.12203132169018,48.3844281220986,0.));
#486=CARTESIAN_POINT('',(3.83482845572901,48.2908619347687,0.));
#487=CARTESIAN_POINT('',(3.28517579615752,48.0505802552639,0.));
#488=CARTESIAN_POINT('',(3.01918724598827,47.9018394553019,0.));
#489=CARTESIAN_POINT('',(2.52310749980155,47.5559938036977,0.));
#490=CARTESIAN_POINT('',(2.29501162528417,47.361084225953,0.));
#491=CARTESIAN_POINT('',(1.87785070667863,46.9282365281436,0.));
#492=CARTESIAN_POINT('',(1.68759822356372,46.6876707534909,0.));
#493=CARTESIAN_POINT('',(1.36220254986545,46.181701136203,0.));
#494=CARTESIAN_POINT('',(1.22502761484696,45.9149208333593,0.));
#495=CARTESIAN_POINT('',(1.00223397019761,45.3534933490142,0.));
#496=CARTESIAN_POINT('',(0.917886391925019,45.0600439824015,0.));
#497=CARTESIAN_POINT('',(0.808487942918135,44.4700508961146,0.));
#498=CARTESIAN_POINT('',(0.782128068853937,44.1705372349366,0.));
#499=CARTESIAN_POINT('',(0.788569246199619,43.5620800251885,0.));
#500=CARTESIAN_POINT('',(0.,0.,0.));
#501=CARTESIAN_POINT('',(10.5012544007122,0.,0.));
#502=CARTESIAN_POINT('',(3.50000000000036,0.,0.));
#503=CARTESIAN_POINT('',(39.6535898384862,0.,0.));
#504=CARTESIAN_POINT('',(39.6535898384862,0.,32.3));
#505=CARTESIAN_POINT('',(40.,0.,0.));
#506=CARTESIAN_POINT('',(39.,0.,0.));
#507=CARTESIAN_POINT('',(39.,0.,32.3));
#508=CARTESIAN_POINT('',(0.,0.,0.));
#509=CARTESIAN_POINT('',(32.5721239031347,0.,0.));
#510=CARTESIAN_POINT('',(32.5721239031347,0.,34.6395555688102));
#511=CARTESIAN_POINT('',(39.,0.,0.));
#512=CARTESIAN_POINT('',(18.6397299270075,0.,0.));
#513=CARTESIAN_POINT('',(18.6397299270075,0.,46.3302222155949));
#514=CARTESIAN_POINT('',(32.5721239031347,0.,0.));
#515=CARTESIAN_POINT('',(15.4257918785748,0.,0.));
#516=CARTESIAN_POINT('',(15.4257918785748,0.,47.5));
#517=CARTESIAN_POINT('',(15.4257918785748,0.,0.));
#518=CARTESIAN_POINT('',(0.,0.,0.));
#519=(
GEOMETRIC_REPRESENTATION_CONTEXT(3)
GLOBAL_UNCERTAINTY_ASSIGNED_CONTEXT((#520))
GLOBAL_UNIT_ASSIGNED_CONTEXT((#526,#522,#521))
REPRESENTATION_CONTEXT('model1','TOP_LEVEL_ASSEMBLY_PART')
);
#520=UNCERTAINTY_MEASURE_WITH_UNIT(LENGTH_MEASURE(2.E-5),#526,
'DISTANCE_ACCURACY_VALUE','Maximum Tolerance applied to model');
#521=(
NAMED_UNIT(*)
SI_UNIT($,.STERADIAN.)
SOLID_ANGLE_UNIT()
);
#522=(
CONVERSION_BASED_UNIT('DEGREE',#524)
NAMED_UNIT(#523)
PLANE_ANGLE_UNIT()
);
#523=DIMENSIONAL_EXPONENTS(0.,0.,0.,0.,0.,0.,0.);
#524=PLANE_ANGLE_MEASURE_WITH_UNIT(PLANE_ANGLE_MEASURE(0.0174532925),#525);
#525=(
NAMED_UNIT(*)
PLANE_ANGLE_UNIT()
SI_UNIT($,.RADIAN.)
);
#526=(
LENGTH_UNIT()
NAMED_UNIT(*)
SI_UNIT(.MILLI.,.METRE.)
);
ENDSEC;
END-ISO-10303-21;
