ISO-10303-21;
HEADER;
/* Generated by software containing ST-Developer
 * from STEP Tools, Inc. (www.steptools.com) 
 */
/* OPTION: using custom schema-name function */

FILE_DESCRIPTION(
/* description */ (''),
/* implementation_level */ '2;1');

FILE_NAME(
/* name */ 'model1.stp',
/* time_stamp */ '2023-11-02T17:55:58+03:00',
/* author */ (''),
/* organization */ (''),
/* preprocessor_version */ 'ST-DEVELOPER v19.4',
/* originating_system */ 'SIEMENS PLM Software NX2306.3001',
/* authorisation */ '');

FILE_SCHEMA (('AUTOMOTIVE_DESIGN { 1 0 10303 214 3 1 1 1 }'));
ENDSEC;

DATA;
#10=PROPERTY_DEFINITION_REPRESENTATION(#14,#12);
#11=PROPERTY_DEFINITION_REPRESENTATION(#15,#13);
#12=REPRESENTATION('',(#16),#519);
#13=REPRESENTATION('',(#17),#519);
#14=PROPERTY_DEFINITION('pmi validation property','',#21);
#15=PROPERTY_DEFINITION('pmi validation property','',#21);
#16=VALUE_REPRESENTATION_ITEM('number of annotations',COUNT_MEASURE(0.));
#17=VALUE_REPRESENTATION_ITEM('number of views',COUNT_MEASURE(0.));
#18=SHAPE_REPRESENTATION_RELATIONSHIP('None',
'relationship between model1_objects-None and model1_objects-None',#30,
#19);
#19=ADVANCED_BREP_SHAPE_REPRESENTATION('model1_objects-None',(#141,#142),
#519);
#20=SHAPE_DEFINITION_REPRESENTATION(#21,#30);
#21=PRODUCT_DEFINITION_SHAPE('','',#22);
#22=PRODUCT_DEFINITION(' ','',#24,#23);
#23=PRODUCT_DEFINITION_CONTEXT('part definition',#29,'design');
#24=PRODUCT_DEFINITION_FORMATION_WITH_SPECIFIED_SOURCE(' ',' ',#26,
 .NOT_KNOWN.);
#25=PRODUCT_RELATED_PRODUCT_CATEGORY('part','',(#26));
#26=PRODUCT('model1_objects','model1_objects',' ',(#27));
#27=PRODUCT_CONTEXT(' ',#29,'mechanical');
#28=APPLICATION_PROTOCOL_DEFINITION('international standard',
'automotive_design',2010,#29);
#29=APPLICATION_CONTEXT(
'core data for automotive mechanical design processes');
#30=SHAPE_REPRESENTATION('model1_objects-None',(#269),#519);
#31=OVER_RIDING_STYLED_ITEM('',(#64),#147,#61);
#32=OVER_RIDING_STYLED_ITEM('',(#65),#148,#61);
#33=OVER_RIDING_STYLED_ITEM('',(#66),#149,#61);
#34=OVER_RIDING_STYLED_ITEM('',(#67),#150,#61);
#35=OVER_RIDING_STYLED_ITEM('',(#68),#151,#61);
#36=OVER_RIDING_STYLED_ITEM('',(#69),#152,#61);
#37=OVER_RIDING_STYLED_ITEM('',(#70),#153,#61);
#38=OVER_RIDING_STYLED_ITEM('',(#71),#154,#61);
#39=OVER_RIDING_STYLED_ITEM('',(#72),#155,#61);
#40=OVER_RIDING_STYLED_ITEM('',(#73),#156,#61);
#41=OVER_RIDING_STYLED_ITEM('',(#74),#157,#61);
#42=COLOUR_RGB('Medium Steel',0.611764705882353,0.658823529411765,0.670588235294118);
#43=COLOUR_RGB('silver gray',0.6,0.6,0.6);
#44=CONICAL_SURFACE('',#280,39.7061165737806,80.0000000000002);
#45=CONICAL_SURFACE('',#282,32.5,30.);
#46=CONICAL_SURFACE('',#288,34.6395555688102,39.9999999999997);
#47=VERTEX_LOOP('',#239);
#48=SURFACE_OF_REVOLUTION('',#50,#49);
#49=AXIS1_PLACEMENT('',#500,#314);
#50=B_SPLINE_CURVE_WITH_KNOTS('',3,(#434,#435,#436,#437,#438,#439,#440,
#441,#442,#443,#444,#445,#446,#447,#448,#449,#450,#451,#452,#453,#454,#455,
#456,#457,#458,#459,#460,#461,#462,#463,#464,#465,#466,#467,#468,#469,#470,
#471,#472,#473,#474,#475,#476,#477,#478,#479,#480,#481,#482,#483,#484,#485,
#486,#487,#488,#489,#490,#491,#492,#493,#494,#495,#496,#497,#498,#499),
 .UNSPECIFIED.,.T.,.F.,(2,2,2,2,2,2,2,2,2,2,2,2,2,2,2,2,2,2,2,2,2,2,2,2,
2,2,2,2,2,2,2,2,2,2,2),(-0.03125,0.,0.03125,0.0625,0.09375,0.125,0.15625,
0.1875,0.21875,0.25,0.28125,0.3125,0.34375,0.375,0.40625,0.4375,0.46875,
0.5,0.53125,0.5625,0.59375,0.625,0.65625,0.6875,0.71875,0.75,0.78125,0.8125,
0.84375,0.875,0.90625,0.9375,0.96875,1.,1.03125),.UNSPECIFIED.);
#51=CYLINDRICAL_SURFACE('',#277,32.5);
#52=CYLINDRICAL_SURFACE('',#284,32.3);
#53=CYLINDRICAL_SURFACE('',#291,47.5);
#54=TOROIDAL_SURFACE('',#275,30.5,2.);
#55=TOROIDAL_SURFACE('',#286,42.3,10.);
#56=TOROIDAL_SURFACE('',#290,42.5,5.);
#57=PLANE('',#273);
#58=FACE_OUTER_BOUND('',#188,.T.);
#59=PRESENTATION_LAYER_ASSIGNMENT('1','Layer 1',(#141,#142));
#60=STYLED_ITEM('',(#62),#141);
#61=STYLED_ITEM('',(#63),#142);
#62=PRESENTATION_STYLE_ASSIGNMENT((#75));
#63=PRESENTATION_STYLE_ASSIGNMENT((#76));
#64=PRESENTATION_STYLE_ASSIGNMENT((#77));
#65=PRESENTATION_STYLE_ASSIGNMENT((#78));
#66=PRESENTATION_STYLE_ASSIGNMENT((#79));
#67=PRESENTATION_STYLE_ASSIGNMENT((#80));
#68=PRESENTATION_STYLE_ASSIGNMENT((#81));
#69=PRESENTATION_STYLE_ASSIGNMENT((#82));
#70=PRESENTATION_STYLE_ASSIGNMENT((#83));
#71=PRESENTATION_STYLE_ASSIGNMENT((#84));
#72=PRESENTATION_STYLE_ASSIGNMENT((#85));
#73=PRESENTATION_STYLE_ASSIGNMENT((#86));
#74=PRESENTATION_STYLE_ASSIGNMENT((#87));
#75=SURFACE_STYLE_USAGE(.BOTH.,#88);
#76=SURFACE_STYLE_USAGE(.BOTH.,#89);
#77=SURFACE_STYLE_USAGE(.BOTH.,#90);
#78=SURFACE_STYLE_USAGE(.BOTH.,#91);
#79=SURFACE_STYLE_USAGE(.BOTH.,#92);
#80=SURFACE_STYLE_USAGE(.BOTH.,#93);
#81=SURFACE_STYLE_USAGE(.BOTH.,#94);
#82=SURFACE_STYLE_USAGE(.BOTH.,#95);
#83=SURFACE_STYLE_USAGE(.BOTH.,#96);
#84=SURFACE_STYLE_USAGE(.BOTH.,#97);
#85=SURFACE_STYLE_USAGE(.BOTH.,#98);
#86=SURFACE_STYLE_USAGE(.BOTH.,#99);
#87=SURFACE_STYLE_USAGE(.BOTH.,#100);
#88=SURFACE_SIDE_STYLE('',(#101));
#89=SURFACE_SIDE_STYLE('',(#102));
#90=SURFACE_SIDE_STYLE('',(#103));
#91=SURFACE_SIDE_STYLE('',(#104));
#92=SURFACE_SIDE_STYLE('',(#105));
#93=SURFACE_SIDE_STYLE('',(#106));
#94=SURFACE_SIDE_STYLE('',(#107));
#95=SURFACE_SIDE_STYLE('',(#108));
#96=SURFACE_SIDE_STYLE('',(#109));
#97=SURFACE_SIDE_STYLE('',(#110));
#98=SURFACE_SIDE_STYLE('',(#111));
#99=SURFACE_SIDE_STYLE('',(#112));
#100=SURFACE_SIDE_STYLE('',(#113));
#101=SURFACE_STYLE_FILL_AREA(#114);
#102=SURFACE_STYLE_FILL_AREA(#115);
#103=SURFACE_STYLE_FILL_AREA(#116);
#104=SURFACE_STYLE_FILL_AREA(#117);
#105=SURFACE_STYLE_FILL_AREA(#118);
#106=SURFACE_STYLE_FILL_AREA(#119);
#107=SURFACE_STYLE_FILL_AREA(#120);
#108=SURFACE_STYLE_FILL_AREA(#121);
#109=SURFACE_STYLE_FILL_AREA(#122);
#110=SURFACE_STYLE_FILL_AREA(#123);
#111=SURFACE_STYLE_FILL_AREA(#124);
#112=SURFACE_STYLE_FILL_AREA(#125);
#113=SURFACE_STYLE_FILL_AREA(#126);
#114=FILL_AREA_STYLE('',(#127));
#115=FILL_AREA_STYLE('',(#128));
#116=FILL_AREA_STYLE('',(#129));
#117=FILL_AREA_STYLE('',(#130));
#118=FILL_AREA_STYLE('',(#131));
#119=FILL_AREA_STYLE('',(#132));
#120=FILL_AREA_STYLE('',(#133));
#121=FILL_AREA_STYLE('',(#134));
#122=FILL_AREA_STYLE('',(#135));
#123=FILL_AREA_STYLE('',(#136));
#124=FILL_AREA_STYLE('',(#137));
#125=FILL_AREA_STYLE('',(#138));
#126=FILL_AREA_STYLE('',(#139));
#127=FILL_AREA_STYLE_COLOUR('',#140);
#128=FILL_AREA_STYLE_COLOUR('',#42);
#129=FILL_AREA_STYLE_COLOUR('',#43);
#130=FILL_AREA_STYLE_COLOUR('',#43);
#131=FILL_AREA_STYLE_COLOUR('',#43);
#132=FILL_AREA_STYLE_COLOUR('',#43);
#133=FILL_AREA_STYLE_COLOUR('',#43);
#134=FILL_AREA_STYLE_COLOUR('',#43);
#135=FILL_AREA_STYLE_COLOUR('',#43);
#136=FILL_AREA_STYLE_COLOUR('',#43);
#137=FILL_AREA_STYLE_COLOUR('',#43);
#138=FILL_AREA_STYLE_COLOUR('',#43);
#139=FILL_AREA_STYLE_COLOUR('',#43);
#140=DRAUGHTING_PRE_DEFINED_COLOUR('yellow');
#141=MANIFOLD_SOLID_BREP('',#143);
#142=MANIFOLD_SOLID_BREP('',#144);
#143=CLOSED_SHELL('',(#145,#146));
#144=CLOSED_SHELL('',(#147,#148,#149,#150,#151,#152,#153,#154,#155,#156,
#157));
#145=ADVANCED_FACE('',(#160,#161),#158,.F.);
#146=ADVANCED_FACE('',(#162,#163),#159,.F.);
#147=ADVANCED_FACE('',(#58),#57,.F.);
#148=ADVANCED_FACE('',(#164,#165),#54,.T.);
#149=ADVANCED_FACE('',(#166,#167),#51,.T.);
#150=ADVANCED_FACE('',(#168,#169),#48,.T.);
#151=ADVANCED_FACE('',(#170,#171),#44,.F.);
#152=ADVANCED_FACE('',(#172,#173),#45,.T.);
#153=ADVANCED_FACE('',(#174,#175),#52,.T.);
#154=ADVANCED_FACE('',(#176,#177),#55,.F.);
#155=ADVANCED_FACE('',(#178,#179),#46,.T.);
#156=ADVANCED_FACE('',(#180,#181),#56,.T.);
#157=ADVANCED_FACE('',(#182,#183),#53,.T.);
#158=(
BOUNDED_SURFACE()
B_SPLINE_SURFACE(3,3,((#344,#345,#346,#347,#348,#349,#350),(#351,#352,#353,
#354,#355,#356,#357),(#358,#359,#360,#361,#362,#363,#364),(#365,#366,#367,
#368,#369,#370,#371),(#372,#373,#374,#375,#376,#377,#378),(#379,#380,#381,
#382,#383,#384,#385),(#386,#387,#388,#389,#390,#391,#392)),
 .UNSPECIFIED.,.T.,.F.,.F.)
B_SPLINE_SURFACE_WITH_KNOTS((1,3,3,3,1),(4,3,4),(-0.5,0.,0.5,1.,1.5),(0.,
0.5,1.),.UNSPECIFIED.)
GEOMETRIC_REPRESENTATION_ITEM()
RATIONAL_B_SPLINE_SURFACE(((1.,0.592737543679958,0.592737543679958,1.,0.592737543679958,
0.592737543679958,1.),(0.333333333333334,0.197579181226653,0.197579181226653,
0.333333333333334,0.197579181226653,0.197579181226653,0.333333333333334),
(0.333333333333334,0.197579181226653,0.197579181226653,0.333333333333334,
0.197579181226653,0.197579181226653,0.333333333333334),(1.,0.592737543679958,
0.592737543679958,1.,0.592737543679958,0.592737543679958,1.),(0.333333333333334,
0.197579181226653,0.197579181226653,0.333333333333334,0.197579181226653,
0.197579181226653,0.333333333333334),(0.333333333333334,0.197579181226653,
0.197579181226653,0.333333333333334,0.197579181226653,0.197579181226653,
0.333333333333334),(1.,0.592737543679958,0.592737543679958,1.,0.592737543679958,
0.592737543679958,1.)))
REPRESENTATION_ITEM('')
SURFACE()
);
#159=(
BOUNDED_SURFACE()
B_SPLINE_SURFACE(3,3,((#393,#394,#395,#396),(#397,#398,#399,#400),(#401,
#402,#403,#404),(#405,#406,#407,#408),(#409,#410,#411,#412),(#413,#414,
#415,#416),(#417,#418,#419,#420)),.UNSPECIFIED.,.T.,.F.,.F.)
B_SPLINE_SURFACE_WITH_KNOTS((1,3,3,3,1),(4,4),(-0.5,0.,0.5,1.,1.5),(0.,
1.),.UNSPECIFIED.)
GEOMETRIC_REPRESENTATION_ITEM()
RATIONAL_B_SPLINE_SURFACE(((1.,0.798128366963332,0.798128366963332,1.),
(0.333333333333334,0.266042788987778,0.266042788987778,0.333333333333334),
(0.333333333333334,0.266042788987778,0.266042788987778,0.333333333333334),
(1.,0.798128366963332,0.798128366963332,1.),(0.333333333333334,0.266042788987778,
0.266042788987778,0.333333333333334),(0.333333333333334,0.266042788987778,
0.266042788987778,0.333333333333334),(1.,0.798128366963332,0.798128366963332,
1.)))
REPRESENTATION_ITEM('')
SURFACE()
);
#160=FACE_BOUND('',#184,.T.);
#161=FACE_BOUND('',#185,.T.);
#162=FACE_BOUND('',#186,.T.);
#163=FACE_BOUND('',#187,.T.);
#164=FACE_BOUND('',#189,.T.);
#165=FACE_BOUND('',#190,.T.);
#166=FACE_BOUND('',#191,.T.);
#167=FACE_BOUND('',#192,.T.);
#168=FACE_BOUND('',#193,.T.);
#169=FACE_BOUND('',#194,.T.);
#170=FACE_BOUND('',#195,.T.);
#171=FACE_BOUND('',#47,.T.);
#172=FACE_BOUND('',#196,.T.);
#173=FACE_BOUND('',#197,.T.);
#174=FACE_BOUND('',#198,.T.);
#175=FACE_BOUND('',#199,.T.);
#176=FACE_BOUND('',#200,.T.);
#177=FACE_BOUND('',#201,.T.);
#178=FACE_BOUND('',#202,.T.);
#179=FACE_BOUND('',#203,.T.);
#180=FACE_BOUND('',#204,.T.);
#181=FACE_BOUND('',#205,.T.);
#182=FACE_BOUND('',#206,.T.);
#183=FACE_BOUND('',#207,.T.);
#184=EDGE_LOOP('',(#208));
#185=EDGE_LOOP('',(#209));
#186=EDGE_LOOP('',(#210));
#187=EDGE_LOOP('',(#211));
#188=EDGE_LOOP('',(#212));
#189=EDGE_LOOP('',(#213));
#190=EDGE_LOOP('',(#214));
#191=EDGE_LOOP('',(#215));
#192=EDGE_LOOP('',(#216));
#193=EDGE_LOOP('',(#217));
#194=EDGE_LOOP('',(#218));
#195=EDGE_LOOP('',(#219));
#196=EDGE_LOOP('',(#220));
#197=EDGE_LOOP('',(#221));
#198=EDGE_LOOP('',(#222));
#199=EDGE_LOOP('',(#223));
#200=EDGE_LOOP('',(#224));
#201=EDGE_LOOP('',(#225));
#202=EDGE_LOOP('',(#226));
#203=EDGE_LOOP('',(#227));
#204=EDGE_LOOP('',(#228));
#205=EDGE_LOOP('',(#229));
#206=EDGE_LOOP('',(#230));
#207=EDGE_LOOP('',(#231));
#208=ORIENTED_EDGE('',*,*,#245,.T.);
#209=ORIENTED_EDGE('',*,*,#246,.F.);
#210=ORIENTED_EDGE('',*,*,#246,.T.);
#211=ORIENTED_EDGE('',*,*,#245,.F.);
#212=ORIENTED_EDGE('',*,*,#247,.F.);
#213=ORIENTED_EDGE('',*,*,#247,.T.);
#214=ORIENTED_EDGE('',*,*,#248,.F.);
#215=ORIENTED_EDGE('',*,*,#248,.T.);
#216=ORIENTED_EDGE('',*,*,#249,.F.);
#217=ORIENTED_EDGE('',*,*,#250,.F.);
#218=ORIENTED_EDGE('',*,*,#251,.T.);
#219=ORIENTED_EDGE('',*,*,#250,.T.);
#220=ORIENTED_EDGE('',*,*,#252,.F.);
#221=ORIENTED_EDGE('',*,*,#249,.T.);
#222=ORIENTED_EDGE('',*,*,#253,.F.);
#223=ORIENTED_EDGE('',*,*,#252,.T.);
#224=ORIENTED_EDGE('',*,*,#254,.F.);
#225=ORIENTED_EDGE('',*,*,#253,.T.);
#226=ORIENTED_EDGE('',*,*,#255,.F.);
#227=ORIENTED_EDGE('',*,*,#254,.T.);
#228=ORIENTED_EDGE('',*,*,#256,.F.);
#229=ORIENTED_EDGE('',*,*,#255,.T.);
#230=ORIENTED_EDGE('',*,*,#251,.F.);
#231=ORIENTED_EDGE('',*,*,#256,.T.);
#232=VERTEX_POINT('',#341);
#233=VERTEX_POINT('',#343);
#234=VERTEX_POINT('',#422);
#235=VERTEX_POINT('',#425);
#236=VERTEX_POINT('',#428);
#237=VERTEX_POINT('',#431);
#238=VERTEX_POINT('',#433);
#239=VERTEX_POINT('',#501);
#240=VERTEX_POINT('',#504);
#241=VERTEX_POINT('',#507);
#242=VERTEX_POINT('',#510);
#243=VERTEX_POINT('',#513);
#244=VERTEX_POINT('',#516);
#245=EDGE_CURVE('',#232,#232,#257,.T.);
#246=EDGE_CURVE('',#233,#233,#258,.T.);
#247=EDGE_CURVE('',#234,#234,#259,.T.);
#248=EDGE_CURVE('',#235,#235,#260,.T.);
#249=EDGE_CURVE('',#236,#236,#261,.T.);
#250=EDGE_CURVE('',#237,#237,#262,.T.);
#251=EDGE_CURVE('',#238,#238,#263,.T.);
#252=EDGE_CURVE('',#240,#240,#264,.T.);
#253=EDGE_CURVE('',#241,#241,#265,.T.);
#254=EDGE_CURVE('',#242,#242,#266,.T.);
#255=EDGE_CURVE('',#243,#243,#267,.T.);
#256=EDGE_CURVE('',#244,#244,#268,.T.);
#257=CIRCLE('',#270,6.);
#258=CIRCLE('',#271,6.);
#259=CIRCLE('',#272,30.5);
#260=CIRCLE('',#274,32.5);
#261=CIRCLE('',#276,32.5);
#262=CIRCLE('',#278,39.7061165737806);
#263=CIRCLE('',#279,47.5);
#264=CIRCLE('',#281,32.3);
#265=CIRCLE('',#283,32.3);
#266=CIRCLE('',#285,34.6395555688102);
#267=CIRCLE('',#287,46.3302222155949);
#268=CIRCLE('',#289,47.5);
#269=AXIS2_PLACEMENT_3D('',#339,#292,#293);
#270=AXIS2_PLACEMENT_3D('',#340,#294,#295);
#271=AXIS2_PLACEMENT_3D('',#342,#296,#297);
#272=AXIS2_PLACEMENT_3D('',#421,#298,#299);
#273=AXIS2_PLACEMENT_3D('',#423,#300,#301);
#274=AXIS2_PLACEMENT_3D('',#424,#302,#303);
#275=AXIS2_PLACEMENT_3D('',#426,#304,#305);
#276=AXIS2_PLACEMENT_3D('',#427,#306,#307);
#277=AXIS2_PLACEMENT_3D('',#429,#308,#309);
#278=AXIS2_PLACEMENT_3D('',#430,#310,#311);
#279=AXIS2_PLACEMENT_3D('',#432,#312,#313);
#280=AXIS2_PLACEMENT_3D('',#502,#315,#316);
#281=AXIS2_PLACEMENT_3D('',#503,#317,#318);
#282=AXIS2_PLACEMENT_3D('',#505,#319,#320);
#283=AXIS2_PLACEMENT_3D('',#506,#321,#322);
#284=AXIS2_PLACEMENT_3D('',#508,#323,#324);
#285=AXIS2_PLACEMENT_3D('',#509,#325,#326);
#286=AXIS2_PLACEMENT_3D('',#511,#327,#328);
#287=AXIS2_PLACEMENT_3D('',#512,#329,#330);
#288=AXIS2_PLACEMENT_3D('',#514,#331,#332);
#289=AXIS2_PLACEMENT_3D('',#515,#333,#334);
#290=AXIS2_PLACEMENT_3D('',#517,#335,#336);
#291=AXIS2_PLACEMENT_3D('',#518,#337,#338);
#292=DIRECTION('',(0.,0.,1.));
#293=DIRECTION('',(1.,0.,0.));
#294=DIRECTION('',(0.121869343405147,0.990794589282059,0.0589401814333359));
#295=DIRECTION('',(0.992489739031157,-0.122280478814513,0.00340623234071011));
#296=DIRECTION('',(0.121869343405147,-0.0865060970576294,0.988769213876451));
#297=DIRECTION('',(0.992489739031157,0.,-0.122327911442424));
#298=DIRECTION('',(-1.,0.,0.));
#299=DIRECTION('',(0.,0.,1.));
#300=DIRECTION('',(-1.,0.,0.));
#301=DIRECTION('',(0.,0.,1.));
#302=DIRECTION('',(-1.,0.,0.));
#303=DIRECTION('',(0.,0.,1.));
#304=DIRECTION('',(-1.,0.,0.));
#305=DIRECTION('',(0.,0.,1.));
#306=DIRECTION('',(-1.,0.,0.));
#307=DIRECTION('',(0.,0.,1.));
#308=DIRECTION('',(-1.,0.,0.));
#309=DIRECTION('',(0.,0.,1.));
#310=DIRECTION('',(-1.,0.,0.));
#311=DIRECTION('',(0.,0.,1.));
#312=DIRECTION('',(-1.,0.,0.));
#313=DIRECTION('',(0.,0.,1.));
#314=DIRECTION('',(-1.,0.,0.));
#315=DIRECTION('',(-1.,0.,0.));
#316=DIRECTION('',(5.54347230116696E-18,0.,1.));
#317=DIRECTION('',(-1.,0.,0.));
#318=DIRECTION('',(0.,0.,1.));
#319=DIRECTION('',(1.,0.,0.));
#320=DIRECTION('',(5.6890143814544E-17,0.,-1.));
#321=DIRECTION('',(-1.,0.,0.));
#322=DIRECTION('',(0.,0.,1.));
#323=DIRECTION('',(-1.,0.,0.));
#324=DIRECTION('',(0.,0.,1.));
#325=DIRECTION('',(-1.,0.,0.));
#326=DIRECTION('',(0.,0.,1.));
#327=DIRECTION('',(-1.,0.,0.));
#328=DIRECTION('',(0.,0.,1.));
#329=DIRECTION('',(-1.,0.,0.));
#330=DIRECTION('',(0.,0.,1.));
#331=DIRECTION('',(-1.,0.,0.));
#332=DIRECTION('',(3.97080387898624E-17,0.,1.));
#333=DIRECTION('',(-1.,0.,0.));
#334=DIRECTION('',(0.,0.,1.));
#335=DIRECTION('',(-1.,0.,0.));
#336=DIRECTION('',(0.,0.,1.));
#337=DIRECTION('',(-1.,0.,0.));
#338=DIRECTION('',(0.,0.,1.));
#339=CARTESIAN_POINT('',(0.,0.,0.));
#340=CARTESIAN_POINT('',(5.95527690984794,0.497228558098029,44.0102399080222));
#341=CARTESIAN_POINT('',(11.9102153440349,-0.236454314789049,44.0306773020665));
#342=CARTESIAN_POINT('',(5.95527690984794,-44.0070203211441,-0.728433562560782));
#343=CARTESIAN_POINT('',(11.9102153440349,-44.0070203211441,-1.46240103121532));
#344=CARTESIAN_POINT('',(11.9102153440349,-44.0070203211441,-1.46240103121532));
#345=CARTESIAN_POINT('',(11.9102153440349,-42.4918433879858,-47.0575699789675));
#346=CARTESIAN_POINT('',(11.9102153440349,0.0996653612316893,-63.4031680095744));
#347=CARTESIAN_POINT('',(11.9102153440349,31.7297385117596,-30.5283499111408));
#348=CARTESIAN_POINT('',(11.9102153440349,63.3598116622877,2.34646818729275));
#349=CARTESIAN_POINT('',(11.9102153440349,45.3832253595262,44.2756649052388));
#350=CARTESIAN_POINT('',(11.9102153440349,-0.236454314789049,44.0306773020665));
#351=CARTESIAN_POINT('',(12.037200666196,-32.0520044656654,-0.432124066895357));
#352=CARTESIAN_POINT('',(12.037200666196,-31.6042856768745,-33.6408382234399));
#353=CARTESIAN_POINT('',(12.037200666196,-0.838445279704529,-46.1501232829783));
#354=CARTESIAN_POINT('',(12.037200666196,22.6562015331389,-22.6762927650447));
#355=CARTESIAN_POINT('',(12.037200666196,46.1508483459824,0.797537752888735));
#356=CARTESIAN_POINT('',(12.037200666196,33.668838860388,31.5744542203722));
#357=CARTESIAN_POINT('',(12.037200666196,0.460534605095427,32.0516088418933));
#358=CARTESIAN_POINT('',(0.127323797822132,-32.0520044656654,1.03581087041373));
#359=CARTESIAN_POINT('',(0.127323797822133,-33.1251962266568,-32.1729032861308));
#360=CARTESIAN_POINT('',(0.127323797822133,-2.95115172974814,-46.0832402764959));
#361=CARTESIAN_POINT('',(0.127323797822132,21.6038625882968,-23.6997260678746));
#362=CARTESIAN_POINT('',(0.127323797822133,46.1588769063418,-1.31621185925328));
#363=CARTESIAN_POINT('',(0.127323797822133,35.0938547071006,30.0132586153214));
#364=CARTESIAN_POINT('',(0.127323797822132,1.92790035086958,32.0107340538048));
#365=CARTESIAN_POINT('',(0.000338475660986194,-44.0070203211441,0.00553390609376095));
#366=CARTESIAN_POINT('',(0.000338475660986194,-44.0127539377682,-45.5896350416585));
#367=CARTESIAN_POINT('',(0.000338475660986194,-2.01304108881191,-63.336285003092));
#368=CARTESIAN_POINT('',(0.000338475660986194,30.6773995669176,-31.5517832139706));
#369=CARTESIAN_POINT('',(0.000338475660986194,63.367840222647,0.232718575150739));
#370=CARTESIAN_POINT('',(0.000338475660986194,46.8082412062389,42.714469300188));
#371=CARTESIAN_POINT('',(0.000338475660986194,1.23091143098511,43.9898025139779));
#372=CARTESIAN_POINT('',(-0.12664684650016,-55.9620361766229,-1.02474305822621));
#373=CARTESIAN_POINT('',(-0.12664684650016,-54.9003116488795,-59.0063667971861));
#374=CARTESIAN_POINT('',(-0.12664684650016,-1.07493044787569,-80.5893297296881));
#375=CARTESIAN_POINT('',(-0.12664684650016,39.7509365455383,-39.4038403600667));
#376=CARTESIAN_POINT('',(-0.12664684650016,80.5768035389524,1.78164900955477));
#377=CARTESIAN_POINT('',(-0.12664684650016,58.5226277053772,55.4156799850547));
#378=CARTESIAN_POINT('',(-0.12664684650016,0.533922511100623,55.9688709741511));
#379=CARTESIAN_POINT('',(11.7832300218737,-55.9620361766229,-2.49267799553529));
#380=CARTESIAN_POINT('',(11.7832300218738,-53.3794010990972,-60.4743017344952));
#381=CARTESIAN_POINT('',(11.7832300218738,1.03777600216792,-80.6562127361704));
#382=CARTESIAN_POINT('',(11.7832300218737,40.8032754903804,-38.3804070572368));
#383=CARTESIAN_POINT('',(11.7832300218738,80.5687749785929,3.8953986216968));
#384=CARTESIAN_POINT('',(11.7832300218738,57.0976118586645,56.9768755901055));
#385=CARTESIAN_POINT('',(11.7832300218737,-0.933443234673537,56.0097457622395));
#386=CARTESIAN_POINT('',(11.9102153440349,-44.0070203211441,-1.46240103121532));
#387=CARTESIAN_POINT('',(11.9102153440349,-42.4918433879858,-47.0575699789675));
#388=CARTESIAN_POINT('',(11.9102153440349,0.0996653612316893,-63.4031680095744));
#389=CARTESIAN_POINT('',(11.9102153440349,31.7297385117596,-30.5283499111408));
#390=CARTESIAN_POINT('',(11.9102153440349,63.3598116622877,2.34646818729275));
#391=CARTESIAN_POINT('',(11.9102153440349,45.3832253595262,44.2756649052388));
#392=CARTESIAN_POINT('',(11.9102153440349,-0.236454314789049,44.0306773020665));
#393=CARTESIAN_POINT('',(11.9102153440349,-0.236454314789049,44.0306773020665));
#394=CARTESIAN_POINT('',(11.9102153440349,-26.602208355971,43.8890874677122));
#395=CARTESIAN_POINT('',(11.9102153440349,-44.8827121855703,24.8891871106761));
#396=CARTESIAN_POINT('',(11.9102153440349,-44.0070203211441,-1.46240103121532));
#397=CARTESIAN_POINT('',(12.037200666196,0.460534605095427,32.0516088418933));
#398=CARTESIAN_POINT('',(12.037200666196,-18.7321030541457,32.3273788928989));
#399=CARTESIAN_POINT('',(12.037200666196,-32.3107621673668,18.760750493518));
#400=CARTESIAN_POINT('',(12.037200666196,-32.0520044656654,-0.432124066895356));
#401=CARTESIAN_POINT('',(0.127323797822132,1.92790035086958,32.0107340538048));
#402=CARTESIAN_POINT('',(0.127323797822133,-17.2402613140134,33.1651688611148));
#403=CARTESIAN_POINT('',(0.127323797822133,-31.4317565767866,20.2286854308271));
#404=CARTESIAN_POINT('',(0.127323797822132,-32.0520044656654,1.03581087041373));
#405=CARTESIAN_POINT('',(0.000338475660986194,1.23091143098511,43.9898025139779));
#406=CARTESIAN_POINT('',(0.000338475660986194,-25.1103666158388,44.7268774359281));
#407=CARTESIAN_POINT('',(0.000338475660986194,-44.0037065949902,26.3571220479852));
#408=CARTESIAN_POINT('',(0.000338475660986194,-44.0070203211441,0.00553390609376236));
#409=CARTESIAN_POINT('',(-0.12664684650016,0.533922511100632,55.9688709741511));
#410=CARTESIAN_POINT('',(-0.12664684650016,-32.9804719176641,56.2885860107414));
#411=CARTESIAN_POINT('',(-0.12664684650016,-56.5756566131937,32.4855586651434));
#412=CARTESIAN_POINT('',(-0.12664684650016,-55.9620361766229,-1.0247430582262));
#413=CARTESIAN_POINT('',(11.7832300218737,-0.933443234673525,56.0097457622395));
#414=CARTESIAN_POINT('',(11.7832300218737,-34.4723136577964,55.4507960425256));
#415=CARTESIAN_POINT('',(11.7832300218737,-57.4546622037739,31.0176237278343));
#416=CARTESIAN_POINT('',(11.7832300218737,-55.9620361766229,-2.49267799553529));
#417=CARTESIAN_POINT('',(11.9102153440349,-0.236454314789049,44.0306773020665));
#418=CARTESIAN_POINT('',(11.9102153440349,-26.602208355971,43.8890874677122));
#419=CARTESIAN_POINT('',(11.9102153440349,-44.8827121855703,24.8891871106761));
#420=CARTESIAN_POINT('',(11.9102153440349,-44.0070203211441,-1.46240103121532));
#421=CARTESIAN_POINT('',(50.,0.,0.));
#422=CARTESIAN_POINT('',(50.,0.,30.5));
#423=CARTESIAN_POINT('',(50.,17.2,0.));
#424=CARTESIAN_POINT('',(48.,0.,0.));
#425=CARTESIAN_POINT('',(48.,0.,32.5));
#426=CARTESIAN_POINT('',(48.,0.,0.));
#427=CARTESIAN_POINT('',(40.,0.,0.));
#428=CARTESIAN_POINT('',(40.,0.,32.5));
#429=CARTESIAN_POINT('',(0.,0.,0.));
#430=CARTESIAN_POINT('',(3.50000000000036,0.,0.));
#431=CARTESIAN_POINT('',(3.50000000000036,0.,39.7061165737806));
#432=CARTESIAN_POINT('',(8.30996484039717,0.,0.));
#433=CARTESIAN_POINT('',(8.30996484039717,0.,47.5));
#434=CARTESIAN_POINT('',(0.782128068855174,44.1705670500079,0.));
#435=CARTESIAN_POINT('',(0.788569246198381,43.5621098393262,0.));
#436=CARTESIAN_POINT('',(0.821289481806859,43.2612571663316,0.));
#437=CARTESIAN_POINT('',(0.94567446065719,42.6663510895951,0.));
#438=CARTESIAN_POINT('',(1.03626515554623,42.3783238436086,0.));
#439=CARTESIAN_POINT('',(1.27067676606703,41.8258670651444,0.));
#440=CARTESIAN_POINT('',(1.41647692723867,41.558038492757,0.));
#441=CARTESIAN_POINT('',(1.75670865083951,41.0582535725235,0.));
#442=CARTESIAN_POINT('',(1.94917866003207,40.8279706741331,0.));
#443=CARTESIAN_POINT('',(2.37842778022171,40.4062738197296,0.));
#444=CARTESIAN_POINT('',(2.61747491664914,40.21401541102,0.));
#445=CARTESIAN_POINT('',(3.12106398575985,39.8855991691501,0.));
#446=CARTESIAN_POINT('',(3.38739566861059,39.7470901129465,0.));
#447=CARTESIAN_POINT('',(3.94984478481504,39.5227278526147,0.));
#448=CARTESIAN_POINT('',(4.24217681871002,39.4389879890377,0.));
#449=CARTESIAN_POINT('',(4.83236606598693,39.3314495978229,0.));
#450=CARTESIAN_POINT('',(5.13481025553885,39.3067098159162,0.));
#451=CARTESIAN_POINT('',(5.74083974580388,39.3181076945165,0.));
#452=CARTESIAN_POINT('',(6.03892381098087,39.3536847508998,0.));
#453=CARTESIAN_POINT('',(6.62553875966868,39.482727650388,0.));
#454=CARTESIAN_POINT('',(6.91700342998031,39.5778291955697,0.));
#455=CARTESIAN_POINT('',(7.4682734152928,39.820195421293,0.));
#456=CARTESIAN_POINT('',(7.72970523629644,39.967126635444,0.));
#457=CARTESIAN_POINT('',(8.22419312872589,40.3124298047417,0.));
#458=CARTESIAN_POINT('',(8.45666432182298,40.511439247991,0.));
#459=CARTESIAN_POINT('',(8.87268654800699,40.9441393881648,0.));
#460=CARTESIAN_POINT('',(9.05917636641703,41.1796502617848,0.));
#461=CARTESIAN_POINT('',(9.38774544928735,41.6902115400609,0.));
#462=CARTESIAN_POINT('',(9.52561073960383,41.9591664855246,0.));
#463=CARTESIAN_POINT('',(9.74698296886824,42.5167762373475,0.));
#464=CARTESIAN_POINT('',(9.83161850720722,42.8092413303739,0.));
#465=CARTESIAN_POINT('',(9.942160269165,43.4040779636556,0.));
#466=CARTESIAN_POINT('',(9.968053345378,43.7031015258494,0.));
#467=CARTESIAN_POINT('',(9.96201817385742,44.3043080906338,0.));
#468=CARTESIAN_POINT('',(9.92910839436387,44.6092143394098,0.));
#469=CARTESIAN_POINT('',(9.80630906367987,45.1982616855586,0.));
#470=CARTESIAN_POINT('',(9.71691361552792,45.484725388147,0.));
#471=CARTESIAN_POINT('',(9.48112628847115,46.0412435522321,0.));
#472=CARTESIAN_POINT('',(9.33492155749822,46.3090380739873,0.));
#473=CARTESIAN_POINT('',(8.9971789371896,46.8051059961897,0.));
#474=CARTESIAN_POINT('',(8.80372556461279,47.0370794815995,0.));
#475=CARTESIAN_POINT('',(8.37002152698996,47.4623780759917,0.));
#476=CARTESIAN_POINT('',(8.13557035747254,47.6503208156914,0.));
#477=CARTESIAN_POINT('',(7.63257807872228,47.9783491530215,0.));
#478=CARTESIAN_POINT('',(7.36071476704123,48.1195005372751,0.));
#479=CARTESIAN_POINT('',(6.80068976568365,48.3425544713022,0.));
#480=CARTESIAN_POINT('',(6.51241595890639,48.425491805373,0.));
#481=CARTESIAN_POINT('',(5.91933941309173,48.5341653359928,0.));
#482=CARTESIAN_POINT('',(5.6141174338745,48.5590550516632,0.));
#483=CARTESIAN_POINT('',(5.01386209915695,48.5485571956569,0.));
#484=CARTESIAN_POINT('',(4.7154228443531,48.514020033687,0.));
#485=CARTESIAN_POINT('',(4.1220313439196,48.3844579218306,0.));
#486=CARTESIAN_POINT('',(3.83482847517786,48.2908917375231,0.));
#487=CARTESIAN_POINT('',(3.28517581211832,48.0506100636188,0.));
#488=CARTESIAN_POINT('',(3.01918726042844,47.9018692662084,0.));
#489=CARTESIAN_POINT('',(2.52310751018012,47.5560236178884,0.));
#490=CARTESIAN_POINT('',(2.2950116339458,47.3611140413572,0.));
#491=CARTESIAN_POINT('',(1.87785071238053,46.9282663452898,0.));
#492=CARTESIAN_POINT('',(1.68759822790573,46.6877005710235,0.));
#493=CARTESIAN_POINT('',(1.36220255208815,46.1817309538773,0.));
#494=CARTESIAN_POINT('',(1.22502761635222,45.9149506509153,0.));
#495=CARTESIAN_POINT('',(1.00223397072143,45.3535231660805,0.));
#496=CARTESIAN_POINT('',(0.917886392148932,45.0600737989274,0.));
#497=CARTESIAN_POINT('',(0.808487942897477,44.4700807116746,0.));
#498=CARTESIAN_POINT('',(0.782128068855174,44.1705670500079,0.));
#499=CARTESIAN_POINT('',(0.788569246198381,43.5621098393262,0.));
#500=CARTESIAN_POINT('',(0.,0.,0.));
#501=CARTESIAN_POINT('',(10.5012596511133,0.,0.));
#502=CARTESIAN_POINT('',(3.50000000000036,0.,0.));
#503=CARTESIAN_POINT('',(39.6535898384862,0.,0.));
#504=CARTESIAN_POINT('',(39.6535898384862,0.,32.3));
#505=CARTESIAN_POINT('',(40.,0.,0.));
#506=CARTESIAN_POINT('',(39.,0.,0.));
#507=CARTESIAN_POINT('',(39.,0.,32.3));
#508=CARTESIAN_POINT('',(0.,0.,0.));
#509=CARTESIAN_POINT('',(32.5721239031347,0.,0.));
#510=CARTESIAN_POINT('',(32.5721239031347,0.,34.6395555688102));
#511=CARTESIAN_POINT('',(39.,0.,0.));
#512=CARTESIAN_POINT('',(18.6397299270075,0.,0.));
#513=CARTESIAN_POINT('',(18.6397299270075,0.,46.3302222155949));
#514=CARTESIAN_POINT('',(32.5721239031347,0.,0.));
#515=CARTESIAN_POINT('',(15.4257918785748,0.,0.));
#516=CARTESIAN_POINT('',(15.4257918785748,0.,47.5));
#517=CARTESIAN_POINT('',(15.4257918785748,0.,0.));
#518=CARTESIAN_POINT('',(0.,0.,0.));
#519=(
GEOMETRIC_REPRESENTATION_CONTEXT(3)
GLOBAL_UNCERTAINTY_ASSIGNED_CONTEXT((#520))
GLOBAL_UNIT_ASSIGNED_CONTEXT((#526,#522,#521))
REPRESENTATION_CONTEXT('model1','TOP_LEVEL_ASSEMBLY_PART')
);
#520=UNCERTAINTY_MEASURE_WITH_UNIT(LENGTH_MEASURE(2.E-5),#526,
'DISTANCE_ACCURACY_VALUE','Maximum Tolerance applied to model');
#521=(
NAMED_UNIT(*)
SI_UNIT($,.STERADIAN.)
SOLID_ANGLE_UNIT()
);
#522=(
CONVERSION_BASED_UNIT('DEGREE',#524)
NAMED_UNIT(#523)
PLANE_ANGLE_UNIT()
);
#523=DIMENSIONAL_EXPONENTS(0.,0.,0.,0.,0.,0.,0.);
#524=PLANE_ANGLE_MEASURE_WITH_UNIT(PLANE_ANGLE_MEASURE(0.0174532925),#525);
#525=(
NAMED_UNIT(*)
PLANE_ANGLE_UNIT()
SI_UNIT($,.RADIAN.)
);
#526=(
LENGTH_UNIT()
NAMED_UNIT(*)
SI_UNIT(.MILLI.,.METRE.)
);
ENDSEC;
END-ISO-10303-21;
