ISO-10303-21;
HEADER;
/* Generated by software containing ST-Developer
 * from STEP Tools, Inc. (www.steptools.com) 
 */
/* OPTION: using custom schema-name function */

FILE_DESCRIPTION(
/* description */ (''),
/* implementation_level */ '2;1');

FILE_NAME(
/* name */ 'model1.stp',
/* time_stamp */ '2023-11-03T08:31:11+03:00',
/* author */ (''),
/* organization */ (''),
/* preprocessor_version */ 'ST-DEVELOPER v19.4',
/* originating_system */ 'SIEMENS PLM Software NX2306.3001',
/* authorisation */ '');

FILE_SCHEMA (('AUTOMOTIVE_DESIGN { 1 0 10303 214 3 1 1 1 }'));
ENDSEC;

DATA;
#10=PROPERTY_DEFINITION_REPRESENTATION(#14,#12);
#11=PROPERTY_DEFINITION_REPRESENTATION(#15,#13);
#12=REPRESENTATION('',(#16),#469);
#13=REPRESENTATION('',(#17),#469);
#14=PROPERTY_DEFINITION('pmi validation property','',#21);
#15=PROPERTY_DEFINITION('pmi validation property','',#21);
#16=VALUE_REPRESENTATION_ITEM('number of annotations',COUNT_MEASURE(0.));
#17=VALUE_REPRESENTATION_ITEM('number of views',COUNT_MEASURE(0.));
#18=SHAPE_REPRESENTATION_RELATIONSHIP('None',
'relationship between model1_objects-None and model1_objects-None',#30,
#19);
#19=ADVANCED_BREP_SHAPE_REPRESENTATION('model1_objects-None',(#125,#126),
#469);
#20=SHAPE_DEFINITION_REPRESENTATION(#21,#30);
#21=PRODUCT_DEFINITION_SHAPE('','',#22);
#22=PRODUCT_DEFINITION(' ','',#24,#23);
#23=PRODUCT_DEFINITION_CONTEXT('part definition',#29,'design');
#24=PRODUCT_DEFINITION_FORMATION_WITH_SPECIFIED_SOURCE(' ',' ',#26,
 .NOT_KNOWN.);
#25=PRODUCT_RELATED_PRODUCT_CATEGORY('part','',(#26));
#26=PRODUCT('model1_objects','model1_objects',' ',(#27));
#27=PRODUCT_CONTEXT(' ',#29,'mechanical');
#28=APPLICATION_PROTOCOL_DEFINITION('international standard',
'automotive_design',2010,#29);
#29=APPLICATION_CONTEXT(
'core data for automotive mechanical design processes');
#30=SHAPE_REPRESENTATION('model1_objects-None',(#233),#469);
#31=OVER_RIDING_STYLED_ITEM('',(#60),#131,#57);
#32=OVER_RIDING_STYLED_ITEM('',(#61),#132,#57);
#33=OVER_RIDING_STYLED_ITEM('',(#62),#133,#57);
#34=OVER_RIDING_STYLED_ITEM('',(#63),#134,#57);
#35=OVER_RIDING_STYLED_ITEM('',(#64),#135,#57);
#36=OVER_RIDING_STYLED_ITEM('',(#65),#136,#57);
#37=OVER_RIDING_STYLED_ITEM('',(#66),#137,#57);
#38=OVER_RIDING_STYLED_ITEM('',(#67),#138,#57);
#39=OVER_RIDING_STYLED_ITEM('',(#68),#139,#57);
#40=COLOUR_RGB('Medium Steel',0.611764705882353,0.658823529411765,0.670588235294118);
#41=COLOUR_RGB('silver gray',0.6,0.6,0.6);
#42=SURFACE_OF_REVOLUTION('',#44,#43);
#43=AXIS1_PLACEMENT('',#461,#280);
#44=B_SPLINE_CURVE_WITH_KNOTS('',3,(#391,#392,#393,#394,#395,#396,#397,
#398,#399,#400,#401,#402,#403,#404,#405,#406,#407,#408,#409,#410,#411,#412,
#413,#414,#415,#416,#417,#418,#419,#420,#421,#422,#423,#424,#425,#426,#427,
#428,#429,#430,#431,#432,#433,#434,#435,#436,#437,#438,#439,#440,#441,#442,
#443,#444,#445,#446,#447,#448,#449,#450,#451,#452,#453,#454,#455,#456,#457,
#458,#459,#460),.UNSPECIFIED.,.T.,.F.,(2,2,2,2,2,2,2,2,2,2,2,2,2,2,2,2,
2,2,2,2,2,2,2,2,2,2,2,2,2,2,2,2,2,2,2,2,2),(-0.03125,0.,0.03125,0.0625,
0.09375,0.125,0.140625,0.15625,0.1875,0.21875,0.25,0.28125,0.3125,0.34375,
0.375,0.40625,0.4375,0.46875,0.5,0.53125,0.5625,0.59375,0.625,0.65625,0.6875,
0.71875,0.734375,0.75,0.78125,0.8125,0.84375,0.875,0.90625,0.9375,0.96875,
1.,1.03125),.UNSPECIFIED.);
#45=CONICAL_SURFACE('',#245,15.0816356296076,65.0000000000013);
#46=VERTEX_LOOP('',#209);
#47=PLANE('',#241);
#48=FACE_OUTER_BOUND('',#170,.T.);
#49=TOROIDAL_SURFACE('',#240,19.5,1.5);
#50=TOROIDAL_SURFACE('',#243,16.,5.);
#51=TOROIDAL_SURFACE('',#250,18.,5.);
#52=TOROIDAL_SURFACE('',#251,70.4,50.);
#53=CYLINDRICAL_SURFACE('',#238,21.);
#54=CYLINDRICAL_SURFACE('',#248,23.);
#55=PRESENTATION_LAYER_ASSIGNMENT('1','Layer 1',(#125,#126));
#56=STYLED_ITEM('',(#58),#125);
#57=STYLED_ITEM('',(#59),#126);
#58=PRESENTATION_STYLE_ASSIGNMENT((#69));
#59=PRESENTATION_STYLE_ASSIGNMENT((#70));
#60=PRESENTATION_STYLE_ASSIGNMENT((#71));
#61=PRESENTATION_STYLE_ASSIGNMENT((#72));
#62=PRESENTATION_STYLE_ASSIGNMENT((#73));
#63=PRESENTATION_STYLE_ASSIGNMENT((#74));
#64=PRESENTATION_STYLE_ASSIGNMENT((#75));
#65=PRESENTATION_STYLE_ASSIGNMENT((#76));
#66=PRESENTATION_STYLE_ASSIGNMENT((#77));
#67=PRESENTATION_STYLE_ASSIGNMENT((#78));
#68=PRESENTATION_STYLE_ASSIGNMENT((#79));
#69=SURFACE_STYLE_USAGE(.BOTH.,#80);
#70=SURFACE_STYLE_USAGE(.BOTH.,#81);
#71=SURFACE_STYLE_USAGE(.BOTH.,#82);
#72=SURFACE_STYLE_USAGE(.BOTH.,#83);
#73=SURFACE_STYLE_USAGE(.BOTH.,#84);
#74=SURFACE_STYLE_USAGE(.BOTH.,#85);
#75=SURFACE_STYLE_USAGE(.BOTH.,#86);
#76=SURFACE_STYLE_USAGE(.BOTH.,#87);
#77=SURFACE_STYLE_USAGE(.BOTH.,#88);
#78=SURFACE_STYLE_USAGE(.BOTH.,#89);
#79=SURFACE_STYLE_USAGE(.BOTH.,#90);
#80=SURFACE_SIDE_STYLE('',(#91));
#81=SURFACE_SIDE_STYLE('',(#92));
#82=SURFACE_SIDE_STYLE('',(#93));
#83=SURFACE_SIDE_STYLE('',(#94));
#84=SURFACE_SIDE_STYLE('',(#95));
#85=SURFACE_SIDE_STYLE('',(#96));
#86=SURFACE_SIDE_STYLE('',(#97));
#87=SURFACE_SIDE_STYLE('',(#98));
#88=SURFACE_SIDE_STYLE('',(#99));
#89=SURFACE_SIDE_STYLE('',(#100));
#90=SURFACE_SIDE_STYLE('',(#101));
#91=SURFACE_STYLE_FILL_AREA(#102);
#92=SURFACE_STYLE_FILL_AREA(#103);
#93=SURFACE_STYLE_FILL_AREA(#104);
#94=SURFACE_STYLE_FILL_AREA(#105);
#95=SURFACE_STYLE_FILL_AREA(#106);
#96=SURFACE_STYLE_FILL_AREA(#107);
#97=SURFACE_STYLE_FILL_AREA(#108);
#98=SURFACE_STYLE_FILL_AREA(#109);
#99=SURFACE_STYLE_FILL_AREA(#110);
#100=SURFACE_STYLE_FILL_AREA(#111);
#101=SURFACE_STYLE_FILL_AREA(#112);
#102=FILL_AREA_STYLE('',(#113));
#103=FILL_AREA_STYLE('',(#114));
#104=FILL_AREA_STYLE('',(#115));
#105=FILL_AREA_STYLE('',(#116));
#106=FILL_AREA_STYLE('',(#117));
#107=FILL_AREA_STYLE('',(#118));
#108=FILL_AREA_STYLE('',(#119));
#109=FILL_AREA_STYLE('',(#120));
#110=FILL_AREA_STYLE('',(#121));
#111=FILL_AREA_STYLE('',(#122));
#112=FILL_AREA_STYLE('',(#123));
#113=FILL_AREA_STYLE_COLOUR('',#124);
#114=FILL_AREA_STYLE_COLOUR('',#40);
#115=FILL_AREA_STYLE_COLOUR('',#41);
#116=FILL_AREA_STYLE_COLOUR('',#41);
#117=FILL_AREA_STYLE_COLOUR('',#41);
#118=FILL_AREA_STYLE_COLOUR('',#41);
#119=FILL_AREA_STYLE_COLOUR('',#41);
#120=FILL_AREA_STYLE_COLOUR('',#41);
#121=FILL_AREA_STYLE_COLOUR('',#41);
#122=FILL_AREA_STYLE_COLOUR('',#41);
#123=FILL_AREA_STYLE_COLOUR('',#41);
#124=DRAUGHTING_PRE_DEFINED_COLOUR('yellow');
#125=MANIFOLD_SOLID_BREP('',#127);
#126=MANIFOLD_SOLID_BREP('',#128);
#127=CLOSED_SHELL('',(#129,#130));
#128=CLOSED_SHELL('',(#131,#132,#133,#134,#135,#136,#137,#138,#139));
#129=ADVANCED_FACE('',(#142,#143),#140,.F.);
#130=ADVANCED_FACE('',(#144,#145),#141,.F.);
#131=ADVANCED_FACE('',(#146,#147),#53,.T.);
#132=ADVANCED_FACE('',(#148,#149),#49,.T.);
#133=ADVANCED_FACE('',(#48),#47,.F.);
#134=ADVANCED_FACE('',(#150,#151),#50,.T.);
#135=ADVANCED_FACE('',(#152,#153),#45,.F.);
#136=ADVANCED_FACE('',(#154,#155),#42,.T.);
#137=ADVANCED_FACE('',(#156,#157),#54,.T.);
#138=ADVANCED_FACE('',(#158,#159),#51,.T.);
#139=ADVANCED_FACE('',(#160,#161),#52,.F.);
#140=(
BOUNDED_SURFACE()
B_SPLINE_SURFACE(3,3,((#296,#297,#298,#299,#300,#301,#302),(#303,#304,#305,
#306,#307,#308,#309),(#310,#311,#312,#313,#314,#315,#316),(#317,#318,#319,
#320,#321,#322,#323),(#324,#325,#326,#327,#328,#329,#330),(#331,#332,#333,
#334,#335,#336,#337),(#338,#339,#340,#341,#342,#343,#344)),
 .UNSPECIFIED.,.T.,.F.,.F.)
B_SPLINE_SURFACE_WITH_KNOTS((1,3,3,3,1),(4,3,4),(-0.5,0.,0.5,1.,1.5),(0.,
0.5,1.),.UNSPECIFIED.)
GEOMETRIC_REPRESENTATION_ITEM()
RATIONAL_B_SPLINE_SURFACE(((1.,0.597716231396291,0.597716231396291,1.,0.597716231396291,
0.597716231396291,1.),(0.333333333333334,0.199238743798763,0.199238743798763,
0.333333333333334,0.199238743798763,0.199238743798763,0.333333333333334),
(0.333333333333334,0.199238743798763,0.199238743798763,0.333333333333334,
0.199238743798763,0.199238743798763,0.333333333333334),(1.,0.597716231396291,
0.597716231396291,1.,0.597716231396291,0.597716231396291,1.),(0.333333333333334,
0.199238743798763,0.199238743798763,0.333333333333334,0.199238743798763,
0.199238743798763,0.333333333333334),(0.333333333333334,0.199238743798763,
0.199238743798763,0.333333333333334,0.199238743798763,0.199238743798763,
0.333333333333334),(1.,0.597716231396291,0.597716231396291,1.,0.597716231396291,
0.597716231396291,1.)))
REPRESENTATION_ITEM('')
SURFACE()
);
#141=(
BOUNDED_SURFACE()
B_SPLINE_SURFACE(3,3,((#345,#346,#347,#348),(#349,#350,#351,#352),(#353,
#354,#355,#356),(#357,#358,#359,#360),(#361,#362,#363,#364),(#365,#366,
#367,#368),(#369,#370,#371,#372)),.UNSPECIFIED.,.T.,.F.,.F.)
B_SPLINE_SURFACE_WITH_KNOTS((1,3,3,3,1),(4,4),(-0.5,0.,0.5,1.,1.5),(0.,
1.),.UNSPECIFIED.)
GEOMETRIC_REPRESENTATION_ITEM()
RATIONAL_B_SPLINE_SURFACE(((1.,0.790305049635496,0.790305049635496,1.),
(0.333333333333334,0.263435016545166,0.263435016545166,0.333333333333334),
(0.333333333333334,0.263435016545166,0.263435016545166,0.333333333333334),
(1.,0.790305049635496,0.790305049635496,1.),(0.333333333333334,0.263435016545166,
0.263435016545166,0.333333333333334),(0.333333333333334,0.263435016545166,
0.263435016545166,0.333333333333334),(1.,0.790305049635496,0.790305049635496,
1.)))
REPRESENTATION_ITEM('')
SURFACE()
);
#142=FACE_BOUND('',#162,.T.);
#143=FACE_BOUND('',#163,.T.);
#144=FACE_BOUND('',#164,.T.);
#145=FACE_BOUND('',#165,.T.);
#146=FACE_BOUND('',#166,.T.);
#147=FACE_BOUND('',#167,.T.);
#148=FACE_BOUND('',#168,.T.);
#149=FACE_BOUND('',#169,.T.);
#150=FACE_BOUND('',#171,.T.);
#151=FACE_BOUND('',#172,.T.);
#152=FACE_BOUND('',#173,.T.);
#153=FACE_BOUND('',#46,.T.);
#154=FACE_BOUND('',#174,.T.);
#155=FACE_BOUND('',#175,.T.);
#156=FACE_BOUND('',#176,.T.);
#157=FACE_BOUND('',#177,.T.);
#158=FACE_BOUND('',#178,.T.);
#159=FACE_BOUND('',#179,.T.);
#160=FACE_BOUND('',#180,.T.);
#161=FACE_BOUND('',#181,.T.);
#162=EDGE_LOOP('',(#182));
#163=EDGE_LOOP('',(#183));
#164=EDGE_LOOP('',(#184));
#165=EDGE_LOOP('',(#185));
#166=EDGE_LOOP('',(#186));
#167=EDGE_LOOP('',(#187));
#168=EDGE_LOOP('',(#188));
#169=EDGE_LOOP('',(#189));
#170=EDGE_LOOP('',(#190));
#171=EDGE_LOOP('',(#191));
#172=EDGE_LOOP('',(#192));
#173=EDGE_LOOP('',(#193));
#174=EDGE_LOOP('',(#194));
#175=EDGE_LOOP('',(#195));
#176=EDGE_LOOP('',(#196));
#177=EDGE_LOOP('',(#197));
#178=EDGE_LOOP('',(#198));
#179=EDGE_LOOP('',(#199));
#180=EDGE_LOOP('',(#200));
#181=EDGE_LOOP('',(#201));
#182=ORIENTED_EDGE('',*,*,#213,.T.);
#183=ORIENTED_EDGE('',*,*,#214,.F.);
#184=ORIENTED_EDGE('',*,*,#214,.T.);
#185=ORIENTED_EDGE('',*,*,#213,.F.);
#186=ORIENTED_EDGE('',*,*,#215,.T.);
#187=ORIENTED_EDGE('',*,*,#216,.F.);
#188=ORIENTED_EDGE('',*,*,#217,.T.);
#189=ORIENTED_EDGE('',*,*,#215,.F.);
#190=ORIENTED_EDGE('',*,*,#217,.F.);
#191=ORIENTED_EDGE('',*,*,#218,.F.);
#192=ORIENTED_EDGE('',*,*,#216,.T.);
#193=ORIENTED_EDGE('',*,*,#219,.T.);
#194=ORIENTED_EDGE('',*,*,#219,.F.);
#195=ORIENTED_EDGE('',*,*,#220,.T.);
#196=ORIENTED_EDGE('',*,*,#220,.F.);
#197=ORIENTED_EDGE('',*,*,#221,.T.);
#198=ORIENTED_EDGE('',*,*,#221,.F.);
#199=ORIENTED_EDGE('',*,*,#222,.T.);
#200=ORIENTED_EDGE('',*,*,#222,.F.);
#201=ORIENTED_EDGE('',*,*,#218,.T.);
#202=VERTEX_POINT('',#293);
#203=VERTEX_POINT('',#295);
#204=VERTEX_POINT('',#374);
#205=VERTEX_POINT('',#376);
#206=VERTEX_POINT('',#379);
#207=VERTEX_POINT('',#383);
#208=VERTEX_POINT('',#386);
#209=VERTEX_POINT('',#387);
#210=VERTEX_POINT('',#390);
#211=VERTEX_POINT('',#463);
#212=VERTEX_POINT('',#466);
#213=EDGE_CURVE('',#202,#202,#223,.T.);
#214=EDGE_CURVE('',#203,#203,#224,.T.);
#215=EDGE_CURVE('',#204,#204,#225,.T.);
#216=EDGE_CURVE('',#205,#205,#226,.T.);
#217=EDGE_CURVE('',#206,#206,#227,.T.);
#218=EDGE_CURVE('',#207,#207,#228,.T.);
#219=EDGE_CURVE('',#208,#208,#229,.T.);
#220=EDGE_CURVE('',#210,#210,#230,.T.);
#221=EDGE_CURVE('',#211,#211,#231,.T.);
#222=EDGE_CURVE('',#212,#212,#232,.T.);
#223=CIRCLE('',#234,6.);
#224=CIRCLE('',#235,6.);
#225=CIRCLE('',#236,21.);
#226=CIRCLE('',#237,21.);
#227=CIRCLE('',#239,19.5);
#228=CIRCLE('',#242,20.9454545454545);
#229=CIRCLE('',#244,15.0816356296076);
#230=CIRCLE('',#246,23.);
#231=CIRCLE('',#247,23.);
#232=CIRCLE('',#249,22.7636363636364);
#233=AXIS2_PLACEMENT_3D('',#291,#252,#253);
#234=AXIS2_PLACEMENT_3D('',#292,#254,#255);
#235=AXIS2_PLACEMENT_3D('',#294,#256,#257);
#236=AXIS2_PLACEMENT_3D('',#373,#258,#259);
#237=AXIS2_PLACEMENT_3D('',#375,#260,#261);
#238=AXIS2_PLACEMENT_3D('',#377,#262,#263);
#239=AXIS2_PLACEMENT_3D('',#378,#264,#265);
#240=AXIS2_PLACEMENT_3D('',#380,#266,#267);
#241=AXIS2_PLACEMENT_3D('',#381,#268,#269);
#242=AXIS2_PLACEMENT_3D('',#382,#270,#271);
#243=AXIS2_PLACEMENT_3D('',#384,#272,#273);
#244=AXIS2_PLACEMENT_3D('',#385,#274,#275);
#245=AXIS2_PLACEMENT_3D('',#388,#276,#277);
#246=AXIS2_PLACEMENT_3D('',#389,#278,#279);
#247=AXIS2_PLACEMENT_3D('',#462,#281,#282);
#248=AXIS2_PLACEMENT_3D('',#464,#283,#284);
#249=AXIS2_PLACEMENT_3D('',#465,#285,#286);
#250=AXIS2_PLACEMENT_3D('',#467,#287,#288);
#251=AXIS2_PLACEMENT_3D('',#468,#289,#290);
#252=DIRECTION('',(0.,0.,1.));
#253=DIRECTION('',(1.,0.,0.));
#254=DIRECTION('',(0.121869343405147,0.992186155810188,0.0267300459520759));
#255=DIRECTION('',(0.992489739031157,-0.122105342096625,0.0073758626161063));
#256=DIRECTION('',(0.121869343405147,-0.0865060970576294,0.988769213876451));
#257=DIRECTION('',(0.992489739031157,0.,-0.122327911442424));
#258=DIRECTION('',(-1.,0.,0.));
#259=DIRECTION('',(0.,0.,1.));
#260=DIRECTION('',(-1.,0.,0.));
#261=DIRECTION('',(0.,0.,1.));
#262=DIRECTION('',(-1.,0.,0.));
#263=DIRECTION('',(0.,0.,1.));
#264=DIRECTION('',(-1.,0.,0.));
#265=DIRECTION('',(0.,0.,1.));
#266=DIRECTION('',(-1.,0.,0.));
#267=DIRECTION('',(0.,0.,1.));
#268=DIRECTION('',(-1.,0.,0.));
#269=DIRECTION('',(0.,0.,1.));
#270=DIRECTION('',(-1.,0.,0.));
#271=DIRECTION('',(0.,0.,1.));
#272=DIRECTION('',(-1.,0.,0.));
#273=DIRECTION('',(0.,0.,1.));
#274=DIRECTION('',(-1.,0.,0.));
#275=DIRECTION('',(0.,0.,1.));
#276=DIRECTION('',(-1.,0.,0.));
#277=DIRECTION('',(2.06840925228174E-17,0.,1.));
#278=DIRECTION('',(-1.,0.,0.));
#279=DIRECTION('',(0.,0.,1.));
#280=DIRECTION('',(-1.,0.,0.));
#281=DIRECTION('',(-1.,0.,0.));
#282=DIRECTION('',(0.,0.,1.));
#283=DIRECTION('',(-1.,0.,0.));
#284=DIRECTION('',(0.,0.,1.));
#285=DIRECTION('',(-1.,0.,0.));
#286=DIRECTION('',(0.,0.,1.));
#287=DIRECTION('',(-1.,0.,0.));
#288=DIRECTION('',(0.,0.,1.));
#289=DIRECTION('',(-1.,0.,0.));
#290=DIRECTION('',(0.,0.,1.));
#291=CARTESIAN_POINT('',(0.,0.,0.));
#292=CARTESIAN_POINT('',(5.95527690984794,0.417993991711412,19.00076817847));
#293=CARTESIAN_POINT('',(11.9102153440349,-0.314638060868337,19.0450233541666));
#294=CARTESIAN_POINT('',(5.95527690984794,-18.9914005511441,-0.728433562560782));
#295=CARTESIAN_POINT('',(11.9102153440349,-18.9914005511441,-1.46240103121532));
#296=CARTESIAN_POINT('',(11.9102153440349,-18.9914005511441,-1.46240103121532));
#297=CARTESIAN_POINT('',(11.9102153440349,-17.4940479176482,-20.9076988818324));
#298=CARTESIAN_POINT('',(11.9102153440349,0.950597854240636,-27.244631559224));
#299=CARTESIAN_POINT('',(11.9102153440349,14.0825919294947,-12.8254635868427));
#300=CARTESIAN_POINT('',(11.9102153440349,27.2145860047486,1.59370438553844));
#301=CARTESIAN_POINT('',(11.9102153440349,19.1855641857436,19.3671813115141));
#302=CARTESIAN_POINT('',(11.9102153440349,-0.314638060868337,19.0450233541666));
#303=CARTESIAN_POINT('',(12.037200666196,-7.03638469566541,-0.432124066895357));
#304=CARTESIAN_POINT('',(12.037200666196,-6.59393279926255,-7.63667940394208));
#305=CARTESIAN_POINT('',(12.037200666196,0.195332857371746,-10.0876492382822));
#306=CARTESIAN_POINT('',(12.037200666196,5.13777815102973,-4.82707742483857));
#307=CARTESIAN_POINT('',(12.037200666196,10.0802234446877,0.433494388604997));
#308=CARTESIAN_POINT('',(12.037200666196,7.21105181881816,7.05687988746463));
#309=CARTESIAN_POINT('',(12.037200666196,-0.00707320330199569,7.04963763355108));
#310=CARTESIAN_POINT('',(0.127323797822132,-7.03638469566541,1.03581087041373));
#311=CARTESIAN_POINT('',(0.127323797822132,-8.09695160003143,-6.168744466633));
#312=CARTESIAN_POINT('',(0.127323797822132,-1.90374464298271,-9.99948947907748));
#313=CARTESIAN_POINT('',(0.127323797822132,4.06895627220792,-5.83328454642165));
#314=CARTESIAN_POINT('',(0.127323797822132,10.0416571873986,-1.6670796137658));
#315=CARTESIAN_POINT('',(0.127323797822132,8.58569016201399,5.46808540073791));
#316=CARTESIAN_POINT('',(0.127323797822132,1.4581909018575,6.96112728215781));
#317=CARTESIAN_POINT('',(0.000338475660986194,-18.9914005511441,0.00553390609376128));
#318=CARTESIAN_POINT('',(0.000338475660986194,-18.9970667184171,-19.4397639445233));
#319=CARTESIAN_POINT('',(0.000338475660986194,-1.14847964611382,-27.1564718000192));
#320=CARTESIAN_POINT('',(0.000338475660986194,13.0137700506729,-13.8316707084258));
#321=CARTESIAN_POINT('',(0.000338475660986194,27.1760197474595,-0.50686961683235));
#322=CARTESIAN_POINT('',(0.000338475660986194,20.5602025289393,17.7783868247874));
#323=CARTESIAN_POINT('',(0.000338475660986194,1.15062604429116,18.9565130027733));
#324=CARTESIAN_POINT('',(-0.12664684650016,-30.9464164066228,-1.02474305822621));
#325=CARTESIAN_POINT('',(-0.12664684650016,-29.8971818368028,-32.7107834224136));
#326=CARTESIAN_POINT('',(-0.12664684650016,-0.393214649244932,-44.313454120961));
#327=CARTESIAN_POINT('',(-0.12664684650016,21.9585838291378,-21.83005687043));
#328=CARTESIAN_POINT('',(-0.12664684650016,44.3103823075206,0.653340380101092));
#329=CARTESIAN_POINT('',(-0.12664684650016,32.5347148958648,30.0886882488369));
#330=CARTESIAN_POINT('',(-0.12664684650016,0.843061186724819,30.9518987233888));
#331=CARTESIAN_POINT('',(11.7832300218737,-30.9464164066228,-2.49267799553529));
#332=CARTESIAN_POINT('',(11.7832300218738,-28.3941630360339,-34.1787183597227));
#333=CARTESIAN_POINT('',(11.7832300218737,1.70586285110953,-44.4016138801657));
#334=CARTESIAN_POINT('',(11.7832300218737,23.0274057079596,-20.8238497488469));
#335=CARTESIAN_POINT('',(11.7832300218738,44.3489485648097,2.75391438247189));
#336=CARTESIAN_POINT('',(11.7832300218737,31.160076552669,31.6774827355636));
#337=CARTESIAN_POINT('',(11.7832300218737,-0.62220291843468,31.0404090747821));
#338=CARTESIAN_POINT('',(11.9102153440349,-18.9914005511441,-1.46240103121532));
#339=CARTESIAN_POINT('',(11.9102153440349,-17.4940479176482,-20.9076988818324));
#340=CARTESIAN_POINT('',(11.9102153440349,0.950597854240636,-27.244631559224));
#341=CARTESIAN_POINT('',(11.9102153440349,14.0825919294947,-12.8254635868427));
#342=CARTESIAN_POINT('',(11.9102153440349,27.2145860047486,1.59370438553844));
#343=CARTESIAN_POINT('',(11.9102153440349,19.1855641857436,19.3671813115141));
#344=CARTESIAN_POINT('',(11.9102153440349,-0.314638060868337,19.0450233541666));
#345=CARTESIAN_POINT('',(11.9102153440349,-0.314638060868338,19.0450233541666));
#346=CARTESIAN_POINT('',(11.9102153440349,-12.0121641354365,18.8517714556199));
#347=CARTESIAN_POINT('',(11.9102153440349,-19.8896128492338,10.2021897129581));
#348=CARTESIAN_POINT('',(11.9102153440349,-18.9914005511441,-1.46240103121532));
#349=CARTESIAN_POINT('',(12.037200666196,-0.00707320330199497,7.04963763355108));
#350=CARTESIAN_POINT('',(12.037200666196,-4.3369875594679,7.04529324507135));
#351=CARTESIAN_POINT('',(12.037200666196,-7.30179694777752,3.88965028420995));
#352=CARTESIAN_POINT('',(12.037200666196,-7.03638469566541,-0.432124066895357));
#353=CARTESIAN_POINT('',(0.127323797822132,1.4581909018575,6.96112728215781));
#354=CARTESIAN_POINT('',(0.127323797822132,-2.81736005847327,7.85675370271793));
#355=CARTESIAN_POINT('',(0.127323797822132,-6.40018570343183,5.35758522151904));
#356=CARTESIAN_POINT('',(0.127323797822132,-7.03638469566541,1.03581087041373));
#357=CARTESIAN_POINT('',(0.000338475660986194,1.15062604429116,18.9565130027733));
#358=CARTESIAN_POINT('',(0.000338475660986194,-10.4925366344419,19.6632319132664));
#359=CARTESIAN_POINT('',(0.000338475660986194,-18.9880016048881,11.6701246502671));
#360=CARTESIAN_POINT('',(0.000338475660986194,-18.9914005511441,0.00553390609376041));
#361=CARTESIAN_POINT('',(-0.12664684650016,0.843061186724819,30.9518987233888));
#362=CARTESIAN_POINT('',(-0.12664684650016,-18.1677132104105,31.4697101238149));
#363=CARTESIAN_POINT('',(-0.12664684650016,-31.5758175063443,17.9826640790152));
#364=CARTESIAN_POINT('',(-0.12664684650016,-30.9464164066229,-1.02474305822621));
#365=CARTESIAN_POINT('',(11.7832300218737,-0.62220291843468,31.0404090747821));
#366=CARTESIAN_POINT('',(11.7832300218737,-19.6873407114051,30.6582496661684));
#367=CARTESIAN_POINT('',(11.7832300218737,-32.47742875069,16.5147291417061));
#368=CARTESIAN_POINT('',(11.7832300218737,-30.9464164066228,-2.49267799553529));
#369=CARTESIAN_POINT('',(11.9102153440349,-0.314638060868338,19.0450233541666));
#370=CARTESIAN_POINT('',(11.9102153440349,-12.0121641354365,18.8517714556199));
#371=CARTESIAN_POINT('',(11.9102153440349,-19.8896128492338,10.2021897129581));
#372=CARTESIAN_POINT('',(11.9102153440349,-18.9914005511441,-1.46240103121532));
#373=CARTESIAN_POINT('',(48.5,0.,0.));
#374=CARTESIAN_POINT('',(48.5,0.,21.));
#375=CARTESIAN_POINT('',(42.,0.,0.));
#376=CARTESIAN_POINT('',(42.,0.,21.));
#377=CARTESIAN_POINT('',(0.,0.,0.));
#378=CARTESIAN_POINT('',(50.,0.,0.));
#379=CARTESIAN_POINT('',(50.,0.,19.5));
#380=CARTESIAN_POINT('',(48.5,0.,0.));
#381=CARTESIAN_POINT('',(50.,12.,0.));
#382=CARTESIAN_POINT('',(41.263468032708,0.,0.));
#383=CARTESIAN_POINT('',(41.263468032708,0.,20.9454545454545));
#384=CARTESIAN_POINT('',(42.,0.,0.));
#385=CARTESIAN_POINT('',(3.00000000000018,0.,0.));
#386=CARTESIAN_POINT('',(3.00000000000018,0.,15.0816356296076));
#387=CARTESIAN_POINT('',(10.0326821915891,0.,0.));
#388=CARTESIAN_POINT('',(3.00000000000018,0.,0.));
#389=CARTESIAN_POINT('',(8.48116400191213,0.,0.));
#390=CARTESIAN_POINT('',(8.48116400191213,0.,23.));
#391=CARTESIAN_POINT('',(0.66816085219991,19.4015379163043,0.));
#392=CARTESIAN_POINT('',(0.674909843403855,18.7690596209515,0.));
#393=CARTESIAN_POINT('',(0.709297259323081,18.4559266156976,0.));
#394=CARTESIAN_POINT('',(0.840702694149522,17.8373119932572,0.));
#395=CARTESIAN_POINT('',(0.936027276898446,17.5395846595291,0.));
#396=CARTESIAN_POINT('',(1.18443365260161,16.966708826546,0.));
#397=CARTESIAN_POINT('',(1.33983602366179,16.6886877681207,0.));
#398=CARTESIAN_POINT('',(1.69984786115364,16.1757805197533,0.));
#399=CARTESIAN_POINT('',(1.90391877889724,15.9399434602254,0.));
#400=CARTESIAN_POINT('',(2.24641353610722,15.6173619175776,0.));
#401=CARTESIAN_POINT('',(2.36744279820152,15.5145438115835,0.));
#402=CARTESIAN_POINT('',(2.61723977097266,15.3235584717927,0.));
#403=CARTESIAN_POINT('',(2.74615810353726,15.23510426807,0.));
#404=CARTESIAN_POINT('',(3.14463629096613,14.9902681324711,0.));
#405=CARTESIAN_POINT('',(3.42580788397981,14.854217532325,0.));
#406=CARTESIAN_POINT('',(4.02012778315726,14.6381052937481,0.));
#407=CARTESIAN_POINT('',(4.32336018886995,14.5617015851827,0.));
#408=CARTESIAN_POINT('',(4.93948924782489,14.4687580612441,0.));
#409=CARTESIAN_POINT('',(5.2558470797387,14.4523615836991,0.));
#410=CARTESIAN_POINT('',(5.88360421502548,14.481132590637,0.));
#411=CARTESIAN_POINT('',(6.19217622632748,14.5254662606137,0.));
#412=CARTESIAN_POINT('',(6.79908513601596,14.6718966480312,0.));
#413=CARTESIAN_POINT('',(7.1002053175427,14.7756200944884,0.));
#414=CARTESIAN_POINT('',(7.67004133636514,15.0344368425895,0.));
#415=CARTESIAN_POINT('',(7.94060340226854,15.1893606173455,0.));
#416=CARTESIAN_POINT('',(8.45288170445954,15.5504770298846,0.));
#417=CARTESIAN_POINT('',(8.69429849863041,15.7574825752786,0.));
#418=CARTESIAN_POINT('',(9.12762541086696,16.2069052995114,0.));
#419=CARTESIAN_POINT('',(9.32241510087099,16.4510934751049,0.));
#420=CARTESIAN_POINT('',(9.66622851166866,16.9802207075649,0.));
#421=CARTESIAN_POINT('',(9.8110242189618,17.259138348631,0.));
#422=CARTESIAN_POINT('',(10.0437530582197,17.8380778624305,0.));
#423=CARTESIAN_POINT('',(10.1329140850472,18.1423875333835,0.));
#424=CARTESIAN_POINT('',(10.2485937658999,18.7599530683962,0.));
#425=CARTESIAN_POINT('',(10.2753988422504,19.0707772817906,0.));
#426=CARTESIAN_POINT('',(10.2670645913075,19.6965003697497,0.));
#427=CARTESIAN_POINT('',(10.2308637146472,20.0132839133329,0.));
#428=CARTESIAN_POINT('',(10.0978966196073,20.6236279502183,0.));
#429=CARTESIAN_POINT('',(10.0014803907923,20.9205110035433,0.));
#430=CARTESIAN_POINT('',(9.7470026062521,21.4972062718215,0.));
#431=CARTESIAN_POINT('',(9.59107937981726,21.7710855072184,0.));
#432=CARTESIAN_POINT('',(9.23017559360051,22.2795950415572,0.));
#433=CARTESIAN_POINT('',(9.02209098379046,22.5181856826005,0.));
#434=CARTESIAN_POINT('',(8.56295200977768,22.9479250741078,0.));
#435=CARTESIAN_POINT('',(8.31501008829829,23.137086422023,0.));
#436=CARTESIAN_POINT('',(7.78330179381338,23.4652803522672,0.));
#437=CARTESIAN_POINT('',(7.49656692705387,23.6049011208205,0.));
#438=CARTESIAN_POINT('',(6.91020482237588,23.8215378568263,0.));
#439=CARTESIAN_POINT('',(6.60859802545907,23.9004021282047,0.));
#440=CARTESIAN_POINT('',(6.14347342699036,23.9742524624328,0.));
#441=CARTESIAN_POINT('',(5.9856131972185,23.9913841326906,0.));
#442=CARTESIAN_POINT('',(5.67218354427423,24.0098741986043,0.));
#443=CARTESIAN_POINT('',(5.51595424224628,24.0114025800237,0.));
#444=CARTESIAN_POINT('',(5.04868689137677,23.9934102213156,0.));
#445=CARTESIAN_POINT('',(4.73905576802067,23.9515286014419,0.));
#446=CARTESIAN_POINT('',(4.12369181044971,23.8058081538641,0.));
#447=CARTESIAN_POINT('',(3.82807901755664,23.7043576723364,0.));
#448=CARTESIAN_POINT('',(3.26015545746537,23.4470458466501,0.));
#449=CARTESIAN_POINT('',(2.98524566497642,23.2892333089685,0.));
#450=CARTESIAN_POINT('',(2.47323247014232,22.9253186432274,0.));
#451=CARTESIAN_POINT('',(2.23756896812195,22.7211048712591,0.));
#452=CARTESIAN_POINT('',(1.80624444294146,22.2689124667071,0.));
#453=CARTESIAN_POINT('',(1.6094035364282,22.0183039464808,0.));
#454=CARTESIAN_POINT('',(1.27218065646891,21.4917144068731,0.));
#455=CARTESIAN_POINT('',(1.12973069244268,21.2142933601433,0.));
#456=CARTESIAN_POINT('',(0.898027861228284,20.6307267053124,0.));
#457=CARTESIAN_POINT('',(0.810096045767257,20.3258724520373,0.));
#458=CARTESIAN_POINT('',(0.6958372082375,19.7127979990885,0.));
#459=CARTESIAN_POINT('',(0.66816085219991,19.4015379163043,0.));
#460=CARTESIAN_POINT('',(0.674909843403855,18.7690596209515,0.));
#461=CARTESIAN_POINT('',(0.,0.,0.));
#462=CARTESIAN_POINT('',(17.1876726035449,0.,0.));
#463=CARTESIAN_POINT('',(17.1876726035449,0.,23.));
#464=CARTESIAN_POINT('',(0.,0.,0.));
#465=CARTESIAN_POINT('',(18.7068067632034,0.,0.));
#466=CARTESIAN_POINT('',(18.7068067632034,0.,22.7636363636364));
#467=CARTESIAN_POINT('',(17.1876726035449,0.,0.));
#468=CARTESIAN_POINT('',(33.8981483597884,0.,0.));
#469=(
GEOMETRIC_REPRESENTATION_CONTEXT(3)
GLOBAL_UNCERTAINTY_ASSIGNED_CONTEXT((#470))
GLOBAL_UNIT_ASSIGNED_CONTEXT((#476,#472,#471))
REPRESENTATION_CONTEXT('model1','TOP_LEVEL_ASSEMBLY_PART')
);
#470=UNCERTAINTY_MEASURE_WITH_UNIT(LENGTH_MEASURE(2.E-5),#476,
'DISTANCE_ACCURACY_VALUE','Maximum Tolerance applied to model');
#471=(
NAMED_UNIT(*)
SI_UNIT($,.STERADIAN.)
SOLID_ANGLE_UNIT()
);
#472=(
CONVERSION_BASED_UNIT('DEGREE',#474)
NAMED_UNIT(#473)
PLANE_ANGLE_UNIT()
);
#473=DIMENSIONAL_EXPONENTS(0.,0.,0.,0.,0.,0.,0.);
#474=PLANE_ANGLE_MEASURE_WITH_UNIT(PLANE_ANGLE_MEASURE(0.0174532925),#475);
#475=(
NAMED_UNIT(*)
PLANE_ANGLE_UNIT()
SI_UNIT($,.RADIAN.)
);
#476=(
LENGTH_UNIT()
NAMED_UNIT(*)
SI_UNIT(.MILLI.,.METRE.)
);
ENDSEC;
END-ISO-10303-21;
