ISO-10303-21;
HEADER;
/* Generated by software containing ST-Developer
 * from STEP Tools, Inc. (www.steptools.com) 
 */
/* OPTION: using custom schema-name function */

FILE_DESCRIPTION(
/* description */ (''),
/* implementation_level */ '2;1');

FILE_NAME(
/* name */ 'model1.stp',
/* time_stamp */ '2023-11-03T11:01:51+03:00',
/* author */ (''),
/* organization */ (''),
/* preprocessor_version */ 'ST-DEVELOPER v19.4',
/* originating_system */ 'SIEMENS PLM Software NX2306.3001',
/* authorisation */ '');

FILE_SCHEMA (('AUTOMOTIVE_DESIGN { 1 0 10303 214 3 1 1 1 }'));
ENDSEC;

DATA;
#10=PROPERTY_DEFINITION_REPRESENTATION(#14,#12);
#11=PROPERTY_DEFINITION_REPRESENTATION(#15,#13);
#12=REPRESENTATION('',(#16),#492);
#13=REPRESENTATION('',(#17),#492);
#14=PROPERTY_DEFINITION('pmi validation property','',#21);
#15=PROPERTY_DEFINITION('pmi validation property','',#21);
#16=VALUE_REPRESENTATION_ITEM('number of annotations',COUNT_MEASURE(0.));
#17=VALUE_REPRESENTATION_ITEM('number of views',COUNT_MEASURE(0.));
#18=SHAPE_REPRESENTATION_RELATIONSHIP('None',
'relationship between model1_objects-None and model1_objects-None',#30,
#19);
#19=ADVANCED_BREP_SHAPE_REPRESENTATION('model1_objects-None',(#133,#134),
#492);
#20=SHAPE_DEFINITION_REPRESENTATION(#21,#30);
#21=PRODUCT_DEFINITION_SHAPE('','',#22);
#22=PRODUCT_DEFINITION(' ','',#24,#23);
#23=PRODUCT_DEFINITION_CONTEXT('part definition',#29,'design');
#24=PRODUCT_DEFINITION_FORMATION_WITH_SPECIFIED_SOURCE(' ',' ',#26,
 .NOT_KNOWN.);
#25=PRODUCT_RELATED_PRODUCT_CATEGORY('part','',(#26));
#26=PRODUCT('model1_objects','model1_objects',' ',(#27));
#27=PRODUCT_CONTEXT(' ',#29,'mechanical');
#28=APPLICATION_PROTOCOL_DEFINITION('international standard',
'automotive_design',2010,#29);
#29=APPLICATION_CONTEXT(
'core data for automotive mechanical design processes');
#30=SHAPE_REPRESENTATION('model1_objects-None',(#251),#492);
#31=OVER_RIDING_STYLED_ITEM('',(#62),#139,#59);
#32=OVER_RIDING_STYLED_ITEM('',(#63),#140,#59);
#33=OVER_RIDING_STYLED_ITEM('',(#64),#141,#59);
#34=OVER_RIDING_STYLED_ITEM('',(#65),#142,#59);
#35=OVER_RIDING_STYLED_ITEM('',(#66),#143,#59);
#36=OVER_RIDING_STYLED_ITEM('',(#67),#144,#59);
#37=OVER_RIDING_STYLED_ITEM('',(#68),#145,#59);
#38=OVER_RIDING_STYLED_ITEM('',(#69),#146,#59);
#39=OVER_RIDING_STYLED_ITEM('',(#70),#147,#59);
#40=OVER_RIDING_STYLED_ITEM('',(#71),#148,#59);
#41=COLOUR_RGB('Medium Steel',0.611764705882353,0.658823529411765,0.670588235294118);
#42=COLOUR_RGB('silver gray',0.6,0.6,0.6);
#43=VERTEX_LOOP('',#228);
#44=SURFACE_OF_REVOLUTION('',#46,#45);
#45=AXIS1_PLACEMENT('',#489,#312);
#46=B_SPLINE_CURVE_WITH_KNOTS('',3,(#423,#424,#425,#426,#427,#428,#429,
#430,#431,#432,#433,#434,#435,#436,#437,#438,#439,#440,#441,#442,#443,#444,
#445,#446,#447,#448,#449,#450,#451,#452,#453,#454,#455,#456,#457,#458,#459,
#460,#461,#462,#463,#464,#465,#466,#467,#468,#469,#470,#471,#472,#473,#474,
#475,#476,#477,#478,#479,#480,#481,#482,#483,#484,#485,#486,#487,#488),
 .UNSPECIFIED.,.T.,.F.,(2,2,2,2,2,2,2,2,2,2,2,2,2,2,2,2,2,2,2,2,2,2,2,2,
2,2,2,2,2,2,2,2,2,2,2),(-0.03125,0.,0.03125,0.0625,0.09375,0.125,0.15625,
0.1875,0.21875,0.25,0.28125,0.3125,0.34375,0.375,0.40625,0.4375,0.46875,
0.5,0.53125,0.5625,0.59375,0.625,0.65625,0.6875,0.71875,0.75,0.78125,0.8125,
0.84375,0.875,0.90625,0.9375,0.96875,1.,1.03125),.UNSPECIFIED.);
#47=CONICAL_SURFACE('',#261,24.,30.);
#48=CONICAL_SURFACE('',#271,21.425488939885,75.0000000000002);
#49=TOROIDAL_SURFACE('',#259,22.5,1.5);
#50=TOROIDAL_SURFACE('',#265,73.8,50.);
#51=TOROIDAL_SURFACE('',#267,24.5,5.);
#52=PLANE('',#258);
#53=FACE_OUTER_BOUND('',#179,.T.);
#54=CYLINDRICAL_SURFACE('',#256,24.);
#55=CYLINDRICAL_SURFACE('',#263,23.8);
#56=CYLINDRICAL_SURFACE('',#269,29.5);
#57=PRESENTATION_LAYER_ASSIGNMENT('1','Layer 1',(#133,#134));
#58=STYLED_ITEM('',(#60),#133);
#59=STYLED_ITEM('',(#61),#134);
#60=PRESENTATION_STYLE_ASSIGNMENT((#72));
#61=PRESENTATION_STYLE_ASSIGNMENT((#73));
#62=PRESENTATION_STYLE_ASSIGNMENT((#74));
#63=PRESENTATION_STYLE_ASSIGNMENT((#75));
#64=PRESENTATION_STYLE_ASSIGNMENT((#76));
#65=PRESENTATION_STYLE_ASSIGNMENT((#77));
#66=PRESENTATION_STYLE_ASSIGNMENT((#78));
#67=PRESENTATION_STYLE_ASSIGNMENT((#79));
#68=PRESENTATION_STYLE_ASSIGNMENT((#80));
#69=PRESENTATION_STYLE_ASSIGNMENT((#81));
#70=PRESENTATION_STYLE_ASSIGNMENT((#82));
#71=PRESENTATION_STYLE_ASSIGNMENT((#83));
#72=SURFACE_STYLE_USAGE(.BOTH.,#84);
#73=SURFACE_STYLE_USAGE(.BOTH.,#85);
#74=SURFACE_STYLE_USAGE(.BOTH.,#86);
#75=SURFACE_STYLE_USAGE(.BOTH.,#87);
#76=SURFACE_STYLE_USAGE(.BOTH.,#88);
#77=SURFACE_STYLE_USAGE(.BOTH.,#89);
#78=SURFACE_STYLE_USAGE(.BOTH.,#90);
#79=SURFACE_STYLE_USAGE(.BOTH.,#91);
#80=SURFACE_STYLE_USAGE(.BOTH.,#92);
#81=SURFACE_STYLE_USAGE(.BOTH.,#93);
#82=SURFACE_STYLE_USAGE(.BOTH.,#94);
#83=SURFACE_STYLE_USAGE(.BOTH.,#95);
#84=SURFACE_SIDE_STYLE('',(#96));
#85=SURFACE_SIDE_STYLE('',(#97));
#86=SURFACE_SIDE_STYLE('',(#98));
#87=SURFACE_SIDE_STYLE('',(#99));
#88=SURFACE_SIDE_STYLE('',(#100));
#89=SURFACE_SIDE_STYLE('',(#101));
#90=SURFACE_SIDE_STYLE('',(#102));
#91=SURFACE_SIDE_STYLE('',(#103));
#92=SURFACE_SIDE_STYLE('',(#104));
#93=SURFACE_SIDE_STYLE('',(#105));
#94=SURFACE_SIDE_STYLE('',(#106));
#95=SURFACE_SIDE_STYLE('',(#107));
#96=SURFACE_STYLE_FILL_AREA(#108);
#97=SURFACE_STYLE_FILL_AREA(#109);
#98=SURFACE_STYLE_FILL_AREA(#110);
#99=SURFACE_STYLE_FILL_AREA(#111);
#100=SURFACE_STYLE_FILL_AREA(#112);
#101=SURFACE_STYLE_FILL_AREA(#113);
#102=SURFACE_STYLE_FILL_AREA(#114);
#103=SURFACE_STYLE_FILL_AREA(#115);
#104=SURFACE_STYLE_FILL_AREA(#116);
#105=SURFACE_STYLE_FILL_AREA(#117);
#106=SURFACE_STYLE_FILL_AREA(#118);
#107=SURFACE_STYLE_FILL_AREA(#119);
#108=FILL_AREA_STYLE('',(#120));
#109=FILL_AREA_STYLE('',(#121));
#110=FILL_AREA_STYLE('',(#122));
#111=FILL_AREA_STYLE('',(#123));
#112=FILL_AREA_STYLE('',(#124));
#113=FILL_AREA_STYLE('',(#125));
#114=FILL_AREA_STYLE('',(#126));
#115=FILL_AREA_STYLE('',(#127));
#116=FILL_AREA_STYLE('',(#128));
#117=FILL_AREA_STYLE('',(#129));
#118=FILL_AREA_STYLE('',(#130));
#119=FILL_AREA_STYLE('',(#131));
#120=FILL_AREA_STYLE_COLOUR('',#132);
#121=FILL_AREA_STYLE_COLOUR('',#41);
#122=FILL_AREA_STYLE_COLOUR('',#42);
#123=FILL_AREA_STYLE_COLOUR('',#42);
#124=FILL_AREA_STYLE_COLOUR('',#42);
#125=FILL_AREA_STYLE_COLOUR('',#42);
#126=FILL_AREA_STYLE_COLOUR('',#42);
#127=FILL_AREA_STYLE_COLOUR('',#42);
#128=FILL_AREA_STYLE_COLOUR('',#42);
#129=FILL_AREA_STYLE_COLOUR('',#42);
#130=FILL_AREA_STYLE_COLOUR('',#42);
#131=FILL_AREA_STYLE_COLOUR('',#42);
#132=DRAUGHTING_PRE_DEFINED_COLOUR('yellow');
#133=MANIFOLD_SOLID_BREP('',#135);
#134=MANIFOLD_SOLID_BREP('',#136);
#135=CLOSED_SHELL('',(#137,#138));
#136=CLOSED_SHELL('',(#139,#140,#141,#142,#143,#144,#145,#146,#147,#148));
#137=ADVANCED_FACE('',(#151,#152),#149,.F.);
#138=ADVANCED_FACE('',(#153,#154),#150,.F.);
#139=ADVANCED_FACE('',(#155,#156),#54,.T.);
#140=ADVANCED_FACE('',(#53),#52,.F.);
#141=ADVANCED_FACE('',(#157,#158),#49,.T.);
#142=ADVANCED_FACE('',(#159,#160),#47,.T.);
#143=ADVANCED_FACE('',(#161,#162),#55,.T.);
#144=ADVANCED_FACE('',(#163,#164),#50,.F.);
#145=ADVANCED_FACE('',(#165,#166),#51,.T.);
#146=ADVANCED_FACE('',(#167,#168),#56,.T.);
#147=ADVANCED_FACE('',(#169,#170),#44,.T.);
#148=ADVANCED_FACE('',(#171,#172),#48,.F.);
#149=(
BOUNDED_SURFACE()
B_SPLINE_SURFACE(3,3,((#320,#321,#322,#323,#324,#325,#326),(#327,#328,#329,
#330,#331,#332,#333),(#334,#335,#336,#337,#338,#339,#340),(#341,#342,#343,
#344,#345,#346,#347),(#348,#349,#350,#351,#352,#353,#354),(#355,#356,#357,
#358,#359,#360,#361),(#362,#363,#364,#365,#366,#367,#368)),
 .UNSPECIFIED.,.T.,.F.,.F.)
B_SPLINE_SURFACE_WITH_KNOTS((1,3,3,3,1),(4,3,4),(-0.5,0.,0.5,1.,1.5),(0.,
0.5,1.),.UNSPECIFIED.)
GEOMETRIC_REPRESENTATION_ITEM()
RATIONAL_B_SPLINE_SURFACE(((1.,0.600861301649515,0.600861301649515,1.,0.600861301649515,
0.600861301649515,1.),(0.333333333333334,0.200287100549839,0.200287100549839,
0.333333333333334,0.200287100549839,0.200287100549839,0.333333333333334),
(0.333333333333334,0.200287100549839,0.200287100549839,0.333333333333334,
0.200287100549839,0.200287100549839,0.333333333333334),(1.,0.600861301649515,
0.600861301649515,1.,0.600861301649515,0.600861301649515,1.),(0.333333333333334,
0.200287100549839,0.200287100549839,0.333333333333334,0.200287100549839,
0.200287100549839,0.333333333333334),(0.333333333333334,0.200287100549839,
0.200287100549839,0.333333333333334,0.200287100549839,0.200287100549839,
0.333333333333334),(1.,0.600861301649515,0.600861301649515,1.,0.600861301649515,
0.600861301649515,1.)))
REPRESENTATION_ITEM('')
SURFACE()
);
#150=(
BOUNDED_SURFACE()
B_SPLINE_SURFACE(3,3,((#369,#370,#371,#372),(#373,#374,#375,#376),(#377,
#378,#379,#380),(#381,#382,#383,#384),(#385,#386,#387,#388),(#389,#390,
#391,#392),(#393,#394,#395,#396)),.UNSPECIFIED.,.T.,.F.,.F.)
B_SPLINE_SURFACE_WITH_KNOTS((1,3,3,3,1),(4,4),(-0.5,0.,0.5,1.,1.5),(0.,
1.),.UNSPECIFIED.)
GEOMETRIC_REPRESENTATION_ITEM()
RATIONAL_B_SPLINE_SURFACE(((1.,0.785286358505849,0.785286358505849,1.),
(0.333333333333334,0.261762119501949,0.261762119501949,0.333333333333334),
(0.333333333333334,0.261762119501949,0.261762119501949,0.333333333333334),
(1.,0.785286358505849,0.785286358505849,1.),(0.333333333333334,0.261762119501949,
0.261762119501949,0.333333333333334),(0.333333333333334,0.261762119501949,
0.261762119501949,0.333333333333334),(1.,0.785286358505849,0.785286358505849,
1.)))
REPRESENTATION_ITEM('')
SURFACE()
);
#151=FACE_BOUND('',#173,.T.);
#152=FACE_BOUND('',#174,.T.);
#153=FACE_BOUND('',#175,.T.);
#154=FACE_BOUND('',#176,.T.);
#155=FACE_BOUND('',#177,.T.);
#156=FACE_BOUND('',#178,.T.);
#157=FACE_BOUND('',#180,.T.);
#158=FACE_BOUND('',#181,.T.);
#159=FACE_BOUND('',#182,.T.);
#160=FACE_BOUND('',#183,.T.);
#161=FACE_BOUND('',#184,.T.);
#162=FACE_BOUND('',#185,.T.);
#163=FACE_BOUND('',#186,.T.);
#164=FACE_BOUND('',#187,.T.);
#165=FACE_BOUND('',#188,.T.);
#166=FACE_BOUND('',#189,.T.);
#167=FACE_BOUND('',#190,.T.);
#168=FACE_BOUND('',#191,.T.);
#169=FACE_BOUND('',#192,.T.);
#170=FACE_BOUND('',#193,.T.);
#171=FACE_BOUND('',#194,.T.);
#172=FACE_BOUND('',#43,.T.);
#173=EDGE_LOOP('',(#195));
#174=EDGE_LOOP('',(#196));
#175=EDGE_LOOP('',(#197));
#176=EDGE_LOOP('',(#198));
#177=EDGE_LOOP('',(#199));
#178=EDGE_LOOP('',(#200));
#179=EDGE_LOOP('',(#201));
#180=EDGE_LOOP('',(#202));
#181=EDGE_LOOP('',(#203));
#182=EDGE_LOOP('',(#204));
#183=EDGE_LOOP('',(#205));
#184=EDGE_LOOP('',(#206));
#185=EDGE_LOOP('',(#207));
#186=EDGE_LOOP('',(#208));
#187=EDGE_LOOP('',(#209));
#188=EDGE_LOOP('',(#210));
#189=EDGE_LOOP('',(#211));
#190=EDGE_LOOP('',(#212));
#191=EDGE_LOOP('',(#213));
#192=EDGE_LOOP('',(#214));
#193=EDGE_LOOP('',(#215));
#194=EDGE_LOOP('',(#216));
#195=ORIENTED_EDGE('',*,*,#229,.T.);
#196=ORIENTED_EDGE('',*,*,#230,.F.);
#197=ORIENTED_EDGE('',*,*,#230,.T.);
#198=ORIENTED_EDGE('',*,*,#229,.F.);
#199=ORIENTED_EDGE('',*,*,#231,.T.);
#200=ORIENTED_EDGE('',*,*,#232,.F.);
#201=ORIENTED_EDGE('',*,*,#233,.F.);
#202=ORIENTED_EDGE('',*,*,#231,.F.);
#203=ORIENTED_EDGE('',*,*,#233,.T.);
#204=ORIENTED_EDGE('',*,*,#234,.F.);
#205=ORIENTED_EDGE('',*,*,#232,.T.);
#206=ORIENTED_EDGE('',*,*,#235,.F.);
#207=ORIENTED_EDGE('',*,*,#234,.T.);
#208=ORIENTED_EDGE('',*,*,#236,.F.);
#209=ORIENTED_EDGE('',*,*,#235,.T.);
#210=ORIENTED_EDGE('',*,*,#237,.F.);
#211=ORIENTED_EDGE('',*,*,#236,.T.);
#212=ORIENTED_EDGE('',*,*,#238,.F.);
#213=ORIENTED_EDGE('',*,*,#237,.T.);
#214=ORIENTED_EDGE('',*,*,#239,.F.);
#215=ORIENTED_EDGE('',*,*,#238,.T.);
#216=ORIENTED_EDGE('',*,*,#239,.T.);
#217=VERTEX_POINT('',#317);
#218=VERTEX_POINT('',#319);
#219=VERTEX_POINT('',#398);
#220=VERTEX_POINT('',#400);
#221=VERTEX_POINT('',#403);
#222=VERTEX_POINT('',#407);
#223=VERTEX_POINT('',#410);
#224=VERTEX_POINT('',#413);
#225=VERTEX_POINT('',#416);
#226=VERTEX_POINT('',#419);
#227=VERTEX_POINT('',#422);
#228=VERTEX_POINT('',#490);
#229=EDGE_CURVE('',#217,#217,#240,.T.);
#230=EDGE_CURVE('',#218,#218,#241,.T.);
#231=EDGE_CURVE('',#219,#219,#242,.T.);
#232=EDGE_CURVE('',#220,#220,#243,.T.);
#233=EDGE_CURVE('',#221,#221,#244,.T.);
#234=EDGE_CURVE('',#222,#222,#245,.T.);
#235=EDGE_CURVE('',#223,#223,#246,.T.);
#236=EDGE_CURVE('',#224,#224,#247,.T.);
#237=EDGE_CURVE('',#225,#225,#248,.T.);
#238=EDGE_CURVE('',#226,#226,#249,.T.);
#239=EDGE_CURVE('',#227,#227,#250,.T.);
#240=CIRCLE('',#252,6.);
#241=CIRCLE('',#253,6.);
#242=CIRCLE('',#254,24.);
#243=CIRCLE('',#255,24.);
#244=CIRCLE('',#257,22.5);
#245=CIRCLE('',#260,23.8);
#246=CIRCLE('',#262,23.8);
#247=CIRCLE('',#264,28.9818181818182);
#248=CIRCLE('',#266,29.5);
#249=CIRCLE('',#268,29.5);
#250=CIRCLE('',#270,21.425488939885);
#251=AXIS2_PLACEMENT_3D('',#315,#272,#273);
#252=AXIS2_PLACEMENT_3D('',#316,#274,#275);
#253=AXIS2_PLACEMENT_3D('',#318,#276,#277);
#254=AXIS2_PLACEMENT_3D('',#397,#278,#279);
#255=AXIS2_PLACEMENT_3D('',#399,#280,#281);
#256=AXIS2_PLACEMENT_3D('',#401,#282,#283);
#257=AXIS2_PLACEMENT_3D('',#402,#284,#285);
#258=AXIS2_PLACEMENT_3D('',#404,#286,#287);
#259=AXIS2_PLACEMENT_3D('',#405,#288,#289);
#260=AXIS2_PLACEMENT_3D('',#406,#290,#291);
#261=AXIS2_PLACEMENT_3D('',#408,#292,#293);
#262=AXIS2_PLACEMENT_3D('',#409,#294,#295);
#263=AXIS2_PLACEMENT_3D('',#411,#296,#297);
#264=AXIS2_PLACEMENT_3D('',#412,#298,#299);
#265=AXIS2_PLACEMENT_3D('',#414,#300,#301);
#266=AXIS2_PLACEMENT_3D('',#415,#302,#303);
#267=AXIS2_PLACEMENT_3D('',#417,#304,#305);
#268=AXIS2_PLACEMENT_3D('',#418,#306,#307);
#269=AXIS2_PLACEMENT_3D('',#420,#308,#309);
#270=AXIS2_PLACEMENT_3D('',#421,#310,#311);
#271=AXIS2_PLACEMENT_3D('',#491,#313,#314);
#272=DIRECTION('',(0.,0.,1.));
#273=DIRECTION('',(1.,0.,0.));
#274=DIRECTION('',(0.121869343405147,0.992526108424336,0.00630771226688291));
#275=DIRECTION('',(0.992489739031157,-0.121927711165789,0.00988691902148569));
#276=DIRECTION('',(0.121869343405147,-0.0865060970576294,0.988769213876451));
#277=DIRECTION('',(0.992489739031157,0.,-0.122327911442424));
#278=DIRECTION('',(-1.,0.,0.));
#279=DIRECTION('',(0.,0.,1.));
#280=DIRECTION('',(-1.,0.,0.));
#281=DIRECTION('',(0.,0.,1.));
#282=DIRECTION('',(-1.,0.,0.));
#283=DIRECTION('',(0.,0.,1.));
#284=DIRECTION('',(-1.,0.,0.));
#285=DIRECTION('',(0.,0.,1.));
#286=DIRECTION('',(-1.,0.,0.));
#287=DIRECTION('',(0.,0.,1.));
#288=DIRECTION('',(-1.,0.,0.));
#289=DIRECTION('',(0.,0.,1.));
#290=DIRECTION('',(-1.,0.,0.));
#291=DIRECTION('',(0.,0.,1.));
#292=DIRECTION('',(1.,0.,0.));
#293=DIRECTION('',(5.76942778562153E-17,0.,-1.));
#294=DIRECTION('',(-1.,0.,0.));
#295=DIRECTION('',(0.,0.,1.));
#296=DIRECTION('',(-1.,0.,0.));
#297=DIRECTION('',(0.,0.,1.));
#298=DIRECTION('',(-1.,0.,0.));
#299=DIRECTION('',(0.,0.,1.));
#300=DIRECTION('',(-1.,0.,0.));
#301=DIRECTION('',(0.,0.,1.));
#302=DIRECTION('',(-1.,0.,0.));
#303=DIRECTION('',(0.,0.,1.));
#304=DIRECTION('',(-1.,0.,0.));
#305=DIRECTION('',(0.,0.,1.));
#306=DIRECTION('',(-1.,0.,0.));
#307=DIRECTION('',(0.,0.,1.));
#308=DIRECTION('',(-1.,0.,0.));
#309=DIRECTION('',(0.,0.,1.));
#310=DIRECTION('',(-1.,0.,0.));
#311=DIRECTION('',(0.,0.,1.));
#312=DIRECTION('',(-1.,0.,0.));
#313=DIRECTION('',(-1.,0.,0.));
#314=DIRECTION('',(6.93246742062943E-19,0.,1.));
#315=CARTESIAN_POINT('',(0.,0.,0.));
#316=CARTESIAN_POINT('',(5.95527690984794,1.33476402694043,25.4733025057235));
#317=CARTESIAN_POINT('',(11.9102153440349,0.603197759945701,25.5326240198524));
#318=CARTESIAN_POINT('',(5.95527690984794,-25.4978454011442,-0.728433562560782));
#319=CARTESIAN_POINT('',(11.9102153440349,-25.4978454011442,-1.46240103121532));
#320=CARTESIAN_POINT('',(11.9102153440349,-25.4978454011442,-1.46240103121532));
#321=CARTESIAN_POINT('',(11.9102153440349,-24.0116604714506,-27.3749330699441));
#322=CARTESIAN_POINT('',(11.9102153440349,0.319322484094757,-36.4121522617283));
#323=CARTESIAN_POINT('',(11.9102153440349,18.3607928660992,-17.7527468918178));
#324=CARTESIAN_POINT('',(11.9102153440349,36.4022632481037,0.906658478092747));
#325=CARTESIAN_POINT('',(11.9102153440349,26.551074042761,24.9196160956777));
#326=CARTESIAN_POINT('',(11.9102153440349,0.603197759945702,25.5326240198524));
#327=CARTESIAN_POINT('',(12.037200666196,-13.5428295456654,-0.432124066895357));
#328=CARTESIAN_POINT('',(12.037200666196,-13.1036775878443,-14.1952087109551));
#329=CARTESIAN_POINT('',(12.037200666196,-0.321149308918838,-19.3159824962421));
#330=CARTESIAN_POINT('',(12.037200666196,9.49875019447529,-9.66274847313608));
#331=CARTESIAN_POINT('',(12.037200666196,19.3186496978694,-0.00951445003006222));
#332=CARTESIAN_POINT('',(12.037200666196,14.4174147085803,12.8587895929035));
#333=CARTESIAN_POINT('',(12.037200666196,0.663862888412028,13.5334492786402));
#334=CARTESIAN_POINT('',(0.127323797822134,-13.5428295456654,1.03581087041373));
#335=CARTESIAN_POINT('',(0.127323797822134,-14.5954864248406,-12.7272737736461));
#336=CARTESIAN_POINT('',(0.127323797822134,-2.41160902683168,-19.214470161541));
#337=CARTESIAN_POINT('',(0.127323797822134,8.41963175185177,-10.657904926646));
#338=CARTESIAN_POINT('',(0.127323797822134,19.2508725305352,-2.101339691751));
#339=CARTESIAN_POINT('',(0.127323797822134,15.75997465212,11.2532182353129));
#340=CARTESIAN_POINT('',(0.127323797822134,2.1269954224015,13.4148062503824));
#341=CARTESIAN_POINT('',(0.000338475660987929,-25.4978454011442,0.00553390609376106));
#342=CARTESIAN_POINT('',(0.000338475660987929,-25.5034693084468,-25.906998132635));
#343=CARTESIAN_POINT('',(0.000338475660987929,-1.77113723381809,-36.3106399270272));
#344=CARTESIAN_POINT('',(0.000338475660987929,17.2816744234757,-18.7479033453277));
#345=CARTESIAN_POINT('',(0.000338475660987929,36.3344860807695,-1.1851667636282));
#346=CARTESIAN_POINT('',(0.000338475660987929,27.8936339863007,23.3140447380871));
#347=CARTESIAN_POINT('',(0.000338475660987929,2.06633029393517,25.4139809915946));
#348=CARTESIAN_POINT('',(-0.126646846500158,-37.4528612566228,-1.02474305822621));
#349=CARTESIAN_POINT('',(-0.126646846500158,-36.411452192053,-39.0867224916239));
#350=CARTESIAN_POINT('',(-0.126646846500158,-1.13066544080449,-53.4068096925134));
#351=CARTESIAN_POINT('',(-0.126646846500158,26.1437170950996,-26.8379017640094));
#352=CARTESIAN_POINT('',(-0.126646846500158,53.4180996310037,-0.268993835505393));
#353=CARTESIAN_POINT('',(-0.126646846500158,40.0272933204815,35.3748712408613));
#354=CARTESIAN_POINT('',(-0.126646846500158,2.00566516546885,37.4131557328067));
#355=CARTESIAN_POINT('',(11.7832300218737,-37.4528612566228,-2.49267799553529));
#356=CARTESIAN_POINT('',(11.7832300218737,-34.9196433550567,-40.5546574289329));
#357=CARTESIAN_POINT('',(11.7832300218737,0.959794277108349,-53.5083220272146));
#358=CARTESIAN_POINT('',(11.7832300218737,27.2228355377231,-25.8427453104995));
#359=CARTESIAN_POINT('',(11.7832300218737,53.4858767983378,1.82283140621555));
#360=CARTESIAN_POINT('',(11.7832300218737,38.6847333769417,36.9804425984519));
#361=CARTESIAN_POINT('',(11.7832300218737,0.542532631479373,37.5317987610645));
#362=CARTESIAN_POINT('',(11.9102153440349,-25.4978454011442,-1.46240103121532));
#363=CARTESIAN_POINT('',(11.9102153440349,-24.0116604714506,-27.3749330699441));
#364=CARTESIAN_POINT('',(11.9102153440349,0.319322484094757,-36.4121522617283));
#365=CARTESIAN_POINT('',(11.9102153440349,18.3607928660992,-17.7527468918178));
#366=CARTESIAN_POINT('',(11.9102153440349,36.4022632481037,0.906658478092747));
#367=CARTESIAN_POINT('',(11.9102153440349,26.551074042761,24.9196160956777));
#368=CARTESIAN_POINT('',(11.9102153440349,0.603197759945702,25.5326240198524));
#369=CARTESIAN_POINT('',(11.9102153440349,0.603197759945702,25.5326240198524));
#370=CARTESIAN_POINT('',(11.9102153440349,-15.3313024312874,25.909070044896));
#371=CARTESIAN_POINT('',(11.9102153440349,-26.4105063753331,14.4503943831791));
#372=CARTESIAN_POINT('',(11.9102153440349,-25.4978454011442,-1.46240103121532));
#373=CARTESIAN_POINT('',(12.037200666196,0.663862888412028,13.5334492786402));
#374=CARTESIAN_POINT('',(12.037200666196,-7.78214524419758,13.947755435114));
#375=CARTESIAN_POINT('',(12.037200666196,-13.8125112290375,8.01973813956857));
#376=CARTESIAN_POINT('',(12.037200666196,-13.5428295456654,-0.432124066895356));
#377=CARTESIAN_POINT('',(0.127323797822134,2.1269954224015,13.4148062503824));
#378=CARTESIAN_POINT('',(0.127323797822134,-6.24496950356421,14.7422299001669));
#379=CARTESIAN_POINT('',(0.127323797822134,-12.8963966330178,9.48767307687766));
#380=CARTESIAN_POINT('',(0.127323797822134,-13.5428295456654,1.03581087041373));
#381=CARTESIAN_POINT('',(0.000338475660987929,2.06633029393517,25.4139809915946));
#382=CARTESIAN_POINT('',(0.000338475660987929,-13.7941266906541,26.7035445099489));
#383=CARTESIAN_POINT('',(0.000338475660987929,-25.4943917793134,15.9183293204882));
#384=CARTESIAN_POINT('',(0.000338475660987929,-25.4978454011442,0.00553390609376279));
#385=CARTESIAN_POINT('',(-0.126646846500158,2.00566516546884,37.4131557328067));
#386=CARTESIAN_POINT('',(-0.126646846500158,-21.3432838777439,38.664859119731));
#387=CARTESIAN_POINT('',(-0.126646846500158,-38.0923869256091,22.3489855640987));
#388=CARTESIAN_POINT('',(-0.126646846500158,-37.4528612566228,-1.0247430582262));
#389=CARTESIAN_POINT('',(11.7832300218737,0.542532631479375,37.5317987610645));
#390=CARTESIAN_POINT('',(11.7832300218737,-22.8804596183773,37.870384654678));
#391=CARTESIAN_POINT('',(11.7832300218737,-39.0085015216287,20.8810506267897));
#392=CARTESIAN_POINT('',(11.7832300218737,-37.4528612566228,-2.49267799553529));
#393=CARTESIAN_POINT('',(11.9102153440349,0.603197759945702,25.5326240198524));
#394=CARTESIAN_POINT('',(11.9102153440349,-15.3313024312874,25.909070044896));
#395=CARTESIAN_POINT('',(11.9102153440349,-26.4105063753331,14.4503943831791));
#396=CARTESIAN_POINT('',(11.9102153440349,-25.4978454011442,-1.46240103121532));
#397=CARTESIAN_POINT('',(48.5,0.,0.));
#398=CARTESIAN_POINT('',(48.5,0.,24.));
#399=CARTESIAN_POINT('',(42.,0.,0.));
#400=CARTESIAN_POINT('',(42.,0.,24.));
#401=CARTESIAN_POINT('',(0.,0.,0.));
#402=CARTESIAN_POINT('',(50.,0.,0.));
#403=CARTESIAN_POINT('',(50.,0.,22.5));
#404=CARTESIAN_POINT('',(50.,12.,0.));
#405=CARTESIAN_POINT('',(48.5,0.,0.));
#406=CARTESIAN_POINT('',(41.6535898384862,0.,0.));
#407=CARTESIAN_POINT('',(41.6535898384862,0.,23.8));
#408=CARTESIAN_POINT('',(42.,0.,0.));
#409=CARTESIAN_POINT('',(41.,0.,0.));
#410=CARTESIAN_POINT('',(41.,0.,23.8));
#411=CARTESIAN_POINT('',(0.,0.,0.));
#412=CARTESIAN_POINT('',(18.8340220492667,0.,0.));
#413=CARTESIAN_POINT('',(18.8340220492667,0.,28.9818181818182));
#414=CARTESIAN_POINT('',(41.,0.,0.));
#415=CARTESIAN_POINT('',(16.6174242541933,0.,0.));
#416=CARTESIAN_POINT('',(16.6174242541933,0.,29.5));
#417=CARTESIAN_POINT('',(16.6174242541933,0.,0.));
#418=CARTESIAN_POINT('',(8.3056760912224,0.,0.));
#419=CARTESIAN_POINT('',(8.3056760912224,0.,29.5));
#420=CARTESIAN_POINT('',(0.,0.,0.));
#421=CARTESIAN_POINT('',(3.,0.,0.));
#422=CARTESIAN_POINT('',(3.,0.,21.425488939885));
#423=CARTESIAN_POINT('',(0.668165826421028,25.7978391133659,0.));
#424=CARTESIAN_POINT('',(0.674904869182731,25.1627907071482,0.));
#425=CARTESIAN_POINT('',(0.709154912195378,24.8486985465798,0.));
#426=CARTESIAN_POINT('',(0.839719011055964,24.2275458025457,0.));
#427=CARTESIAN_POINT('',(0.934634605061486,23.9276260530084,0.));
#428=CARTESIAN_POINT('',(1.18096661520205,23.3515082139599,0.));
#429=CARTESIAN_POINT('',(1.33460571208165,23.0719632050582,0.));
#430=CARTESIAN_POINT('',(1.69199778533332,22.5528463997629,0.));
#431=CARTESIAN_POINT('',(1.89435906835822,22.3138229807889,0.));
#432=CARTESIAN_POINT('',(2.34634700912346,21.8767896054413,0.));
#433=CARTESIAN_POINT('',(2.59762676238377,21.6786117885042,0.));
#434=CARTESIAN_POINT('',(3.12628650178497,21.3417262354954,0.));
#435=CARTESIAN_POINT('',(3.40600573739863,21.2003061004871,0.));
#436=CARTESIAN_POINT('',(3.99710616083877,20.9730619861895,0.));
#437=CARTESIAN_POINT('',(4.30204335361821,20.8901153512503,0.));
#438=CARTESIAN_POINT('',(4.91922765242606,20.7859853908314,0.));
#439=CARTESIAN_POINT('',(5.23604114161794,20.7642883868306,0.));
#440=CARTESIAN_POINT('',(5.86743056399972,20.7840107871999,0.));
#441=CARTESIAN_POINT('',(6.17791355255822,20.8246799850371,0.));
#442=CARTESIAN_POINT('',(6.78879709693591,20.965618552492,0.));
#443=CARTESIAN_POINT('',(7.09208994207472,21.0675733698173,0.));
#444=CARTESIAN_POINT('',(7.66543160657688,21.3245767019657,0.));
#445=CARTESIAN_POINT('',(7.93743858747211,21.4794261652348,0.));
#446=CARTESIAN_POINT('',(8.45211951609386,21.8418302638509,0.));
#447=CARTESIAN_POINT('',(8.69420984876623,22.0500273568813,0.));
#448=CARTESIAN_POINT('',(9.12802669023726,22.5021603557001,0.));
#449=CARTESIAN_POINT('',(9.3227363845338,22.7479587390608,0.));
#450=CARTESIAN_POINT('',(9.66611887326727,23.2804765364551,0.));
#451=CARTESIAN_POINT('',(9.81048338506141,23.5609895463098,0.));
#452=CARTESIAN_POINT('',(10.0425368497565,24.1427359044482,0.));
#453=CARTESIAN_POINT('',(10.1314215670013,24.4480491331239,0.));
#454=CARTESIAN_POINT('',(10.2474434761321,25.0685565418829,0.));
#455=CARTESIAN_POINT('',(10.2746686646166,25.3806431147725,0.));
#456=CARTESIAN_POINT('',(10.2681035500342,26.0084488930093,0.));
#457=CARTESIAN_POINT('',(10.2332686098292,26.3266977729124,0.));
#458=CARTESIAN_POINT('',(10.1035489755684,26.9408335476445,0.));
#459=CARTESIAN_POINT('',(10.0091158627381,27.2395513944468,0.));
#460=CARTESIAN_POINT('',(9.75968674776414,27.8198871142256,0.));
#461=CARTESIAN_POINT('',(9.60562263159622,28.0977324759292,0.));
#462=CARTESIAN_POINT('',(9.2493456697609,28.6127232914275,0.));
#463=CARTESIAN_POINT('',(9.04447454386165,28.854043999161,0.));
#464=CARTESIAN_POINT('',(8.58846697696221,29.2927756456275,0.));
#465=CARTESIAN_POINT('',(8.34200055637178,29.4863167519689,0.));
#466=CARTESIAN_POINT('',(7.81318896032236,29.8232133557458,0.));
#467=CARTESIAN_POINT('',(7.527483574474,29.9674875932164,0.));
#468=CARTESIAN_POINT('',(6.94111968393568,30.1934615848548,0.));
#469=CARTESIAN_POINT('',(6.6393488890368,30.2766882787289,0.));
#470=CARTESIAN_POINT('',(6.01857585815663,30.3834348475587,0.));
#471=CARTESIAN_POINT('',(5.70021708905935,30.4059585185308,0.));
#472=CARTESIAN_POINT('',(5.07416422988267,30.3887660363611,0.));
#473=CARTESIAN_POINT('',(4.76293989834215,30.3498246902346,0.));
#474=CARTESIAN_POINT('',(4.14422059215693,30.2091442346319,0.));
#475=CARTESIAN_POINT('',(3.84597825623427,30.1093932242777,0.));
#476=CARTESIAN_POINT('',(3.27402969040442,29.8547486973979,0.));
#477=CARTESIAN_POINT('',(2.99717771851379,29.6977913094173,0.));
#478=CARTESIAN_POINT('',(2.48141824502314,29.3344721669417,0.));
#479=CARTESIAN_POINT('',(2.24416285793813,29.13014367562,0.));
#480=CARTESIAN_POINT('',(1.81011298637333,28.6770147468165,0.));
#481=CARTESIAN_POINT('',(1.61213323490144,28.4255451379527,0.));
#482=CARTESIAN_POINT('',(1.27332427342601,27.8969912064842,0.));
#483=CARTESIAN_POINT('',(1.13036874088544,27.6184227683202,0.));
#484=CARTESIAN_POINT('',(0.898047807617418,27.0323289033966,0.));
#485=CARTESIAN_POINT('',(0.810022924653771,26.7261261638704,0.));
#486=CARTESIAN_POINT('',(0.695758108879547,26.1104153256153,0.));
#487=CARTESIAN_POINT('',(0.668165826421028,25.7978391133659,0.));
#488=CARTESIAN_POINT('',(0.674904869182731,25.1627907071482,0.));
#489=CARTESIAN_POINT('',(0.,0.,0.));
#490=CARTESIAN_POINT('',(8.74094245888408,0.,0.));
#491=CARTESIAN_POINT('',(3.,0.,0.));
#492=(
GEOMETRIC_REPRESENTATION_CONTEXT(3)
GLOBAL_UNCERTAINTY_ASSIGNED_CONTEXT((#493))
GLOBAL_UNIT_ASSIGNED_CONTEXT((#499,#495,#494))
REPRESENTATION_CONTEXT('model1','TOP_LEVEL_ASSEMBLY_PART')
);
#493=UNCERTAINTY_MEASURE_WITH_UNIT(LENGTH_MEASURE(2.E-5),#499,
'DISTANCE_ACCURACY_VALUE','Maximum Tolerance applied to model');
#494=(
NAMED_UNIT(*)
SI_UNIT($,.STERADIAN.)
SOLID_ANGLE_UNIT()
);
#495=(
CONVERSION_BASED_UNIT('DEGREE',#497)
NAMED_UNIT(#496)
PLANE_ANGLE_UNIT()
);
#496=DIMENSIONAL_EXPONENTS(0.,0.,0.,0.,0.,0.,0.);
#497=PLANE_ANGLE_MEASURE_WITH_UNIT(PLANE_ANGLE_MEASURE(0.0174532925),#498);
#498=(
NAMED_UNIT(*)
PLANE_ANGLE_UNIT()
SI_UNIT($,.RADIAN.)
);
#499=(
LENGTH_UNIT()
NAMED_UNIT(*)
SI_UNIT(.MILLI.,.METRE.)
);
ENDSEC;
END-ISO-10303-21;
