ISO-10303-21;
HEADER;
/* Generated by software containing ST-Developer
 * from STEP Tools, Inc. (www.steptools.com) 
 */
/* OPTION: using custom schema-name function */

FILE_DESCRIPTION(
/* description */ (''),
/* implementation_level */ '2;1');

FILE_NAME(
/* name */ 'model1.stp',
/* time_stamp */ '2023-11-03T11:21:51+03:00',
/* author */ (''),
/* organization */ (''),
/* preprocessor_version */ 'ST-DEVELOPER v19.4',
/* originating_system */ 'SIEMENS PLM Software NX2306.3001',
/* authorisation */ '');

FILE_SCHEMA (('AUTOMOTIVE_DESIGN { 1 0 10303 214 3 1 1 1 }'));
ENDSEC;

DATA;
#10=PROPERTY_DEFINITION_REPRESENTATION(#14,#12);
#11=PROPERTY_DEFINITION_REPRESENTATION(#15,#13);
#12=REPRESENTATION('',(#16),#492);
#13=REPRESENTATION('',(#17),#492);
#14=PROPERTY_DEFINITION('pmi validation property','',#21);
#15=PROPERTY_DEFINITION('pmi validation property','',#21);
#16=VALUE_REPRESENTATION_ITEM('number of annotations',COUNT_MEASURE(0.));
#17=VALUE_REPRESENTATION_ITEM('number of views',COUNT_MEASURE(0.));
#18=SHAPE_REPRESENTATION_RELATIONSHIP('None',
'relationship between model1_objects-None and model1_objects-None',#30,
#19);
#19=ADVANCED_BREP_SHAPE_REPRESENTATION('model1_objects-None',(#133,#134),
#492);
#20=SHAPE_DEFINITION_REPRESENTATION(#21,#30);
#21=PRODUCT_DEFINITION_SHAPE('','',#22);
#22=PRODUCT_DEFINITION(' ','',#24,#23);
#23=PRODUCT_DEFINITION_CONTEXT('part definition',#29,'design');
#24=PRODUCT_DEFINITION_FORMATION_WITH_SPECIFIED_SOURCE(' ',' ',#26,
 .NOT_KNOWN.);
#25=PRODUCT_RELATED_PRODUCT_CATEGORY('part','',(#26));
#26=PRODUCT('model1_objects','model1_objects',' ',(#27));
#27=PRODUCT_CONTEXT(' ',#29,'mechanical');
#28=APPLICATION_PROTOCOL_DEFINITION('international standard',
'automotive_design',2010,#29);
#29=APPLICATION_CONTEXT(
'core data for automotive mechanical design processes');
#30=SHAPE_REPRESENTATION('model1_objects-None',(#251),#492);
#31=OVER_RIDING_STYLED_ITEM('',(#62),#139,#59);
#32=OVER_RIDING_STYLED_ITEM('',(#63),#140,#59);
#33=OVER_RIDING_STYLED_ITEM('',(#64),#141,#59);
#34=OVER_RIDING_STYLED_ITEM('',(#65),#142,#59);
#35=OVER_RIDING_STYLED_ITEM('',(#66),#143,#59);
#36=OVER_RIDING_STYLED_ITEM('',(#67),#144,#59);
#37=OVER_RIDING_STYLED_ITEM('',(#68),#145,#59);
#38=OVER_RIDING_STYLED_ITEM('',(#69),#146,#59);
#39=OVER_RIDING_STYLED_ITEM('',(#70),#147,#59);
#40=OVER_RIDING_STYLED_ITEM('',(#71),#148,#59);
#41=COLOUR_RGB('Medium Steel',0.611764705882353,0.658823529411765,0.670588235294118);
#42=COLOUR_RGB('silver gray',0.6,0.6,0.6);
#43=VERTEX_LOOP('',#228);
#44=SURFACE_OF_REVOLUTION('',#46,#45);
#45=AXIS1_PLACEMENT('',#489,#312);
#46=B_SPLINE_CURVE_WITH_KNOTS('',3,(#423,#424,#425,#426,#427,#428,#429,
#430,#431,#432,#433,#434,#435,#436,#437,#438,#439,#440,#441,#442,#443,#444,
#445,#446,#447,#448,#449,#450,#451,#452,#453,#454,#455,#456,#457,#458,#459,
#460,#461,#462,#463,#464,#465,#466,#467,#468,#469,#470,#471,#472,#473,#474,
#475,#476,#477,#478,#479,#480,#481,#482,#483,#484,#485,#486,#487,#488),
 .UNSPECIFIED.,.T.,.F.,(2,2,2,2,2,2,2,2,2,2,2,2,2,2,2,2,2,2,2,2,2,2,2,2,
2,2,2,2,2,2,2,2,2,2,2),(-0.03125,0.,0.0312499999999994,0.062499999999999,
0.0937499999999986,0.124999999999998,0.15625,0.1875,0.21875,0.25,0.28125,
0.3125,0.34375,0.375,0.40625,0.4375,0.46875,0.5,0.53125,0.5625,0.59375,
0.625,0.65625,0.6875,0.71875,0.75,0.78125,0.8125,0.84375,0.875,0.90625,
0.9375,0.96875,1.,1.03125),.UNSPECIFIED.);
#47=CONICAL_SURFACE('',#261,29.,29.9999999999996);
#48=CONICAL_SURFACE('',#271,29.5637261764988,75.0000000000699);
#49=CYLINDRICAL_SURFACE('',#259,29.);
#50=CYLINDRICAL_SURFACE('',#263,28.8);
#51=CYLINDRICAL_SURFACE('',#269,38.);
#52=TOROIDAL_SURFACE('',#257,27.,2.);
#53=TOROIDAL_SURFACE('',#265,61.8,33.);
#54=TOROIDAL_SURFACE('',#267,33.,5.);
#55=PLANE('',#255);
#56=FACE_OUTER_BOUND('',#177,.T.);
#57=PRESENTATION_LAYER_ASSIGNMENT('1','Layer 1',(#133,#134));
#58=STYLED_ITEM('',(#60),#133);
#59=STYLED_ITEM('',(#61),#134);
#60=PRESENTATION_STYLE_ASSIGNMENT((#72));
#61=PRESENTATION_STYLE_ASSIGNMENT((#73));
#62=PRESENTATION_STYLE_ASSIGNMENT((#74));
#63=PRESENTATION_STYLE_ASSIGNMENT((#75));
#64=PRESENTATION_STYLE_ASSIGNMENT((#76));
#65=PRESENTATION_STYLE_ASSIGNMENT((#77));
#66=PRESENTATION_STYLE_ASSIGNMENT((#78));
#67=PRESENTATION_STYLE_ASSIGNMENT((#79));
#68=PRESENTATION_STYLE_ASSIGNMENT((#80));
#69=PRESENTATION_STYLE_ASSIGNMENT((#81));
#70=PRESENTATION_STYLE_ASSIGNMENT((#82));
#71=PRESENTATION_STYLE_ASSIGNMENT((#83));
#72=SURFACE_STYLE_USAGE(.BOTH.,#84);
#73=SURFACE_STYLE_USAGE(.BOTH.,#85);
#74=SURFACE_STYLE_USAGE(.BOTH.,#86);
#75=SURFACE_STYLE_USAGE(.BOTH.,#87);
#76=SURFACE_STYLE_USAGE(.BOTH.,#88);
#77=SURFACE_STYLE_USAGE(.BOTH.,#89);
#78=SURFACE_STYLE_USAGE(.BOTH.,#90);
#79=SURFACE_STYLE_USAGE(.BOTH.,#91);
#80=SURFACE_STYLE_USAGE(.BOTH.,#92);
#81=SURFACE_STYLE_USAGE(.BOTH.,#93);
#82=SURFACE_STYLE_USAGE(.BOTH.,#94);
#83=SURFACE_STYLE_USAGE(.BOTH.,#95);
#84=SURFACE_SIDE_STYLE('',(#96));
#85=SURFACE_SIDE_STYLE('',(#97));
#86=SURFACE_SIDE_STYLE('',(#98));
#87=SURFACE_SIDE_STYLE('',(#99));
#88=SURFACE_SIDE_STYLE('',(#100));
#89=SURFACE_SIDE_STYLE('',(#101));
#90=SURFACE_SIDE_STYLE('',(#102));
#91=SURFACE_SIDE_STYLE('',(#103));
#92=SURFACE_SIDE_STYLE('',(#104));
#93=SURFACE_SIDE_STYLE('',(#105));
#94=SURFACE_SIDE_STYLE('',(#106));
#95=SURFACE_SIDE_STYLE('',(#107));
#96=SURFACE_STYLE_FILL_AREA(#108);
#97=SURFACE_STYLE_FILL_AREA(#109);
#98=SURFACE_STYLE_FILL_AREA(#110);
#99=SURFACE_STYLE_FILL_AREA(#111);
#100=SURFACE_STYLE_FILL_AREA(#112);
#101=SURFACE_STYLE_FILL_AREA(#113);
#102=SURFACE_STYLE_FILL_AREA(#114);
#103=SURFACE_STYLE_FILL_AREA(#115);
#104=SURFACE_STYLE_FILL_AREA(#116);
#105=SURFACE_STYLE_FILL_AREA(#117);
#106=SURFACE_STYLE_FILL_AREA(#118);
#107=SURFACE_STYLE_FILL_AREA(#119);
#108=FILL_AREA_STYLE('',(#120));
#109=FILL_AREA_STYLE('',(#121));
#110=FILL_AREA_STYLE('',(#122));
#111=FILL_AREA_STYLE('',(#123));
#112=FILL_AREA_STYLE('',(#124));
#113=FILL_AREA_STYLE('',(#125));
#114=FILL_AREA_STYLE('',(#126));
#115=FILL_AREA_STYLE('',(#127));
#116=FILL_AREA_STYLE('',(#128));
#117=FILL_AREA_STYLE('',(#129));
#118=FILL_AREA_STYLE('',(#130));
#119=FILL_AREA_STYLE('',(#131));
#120=FILL_AREA_STYLE_COLOUR('',#132);
#121=FILL_AREA_STYLE_COLOUR('',#41);
#122=FILL_AREA_STYLE_COLOUR('',#42);
#123=FILL_AREA_STYLE_COLOUR('',#42);
#124=FILL_AREA_STYLE_COLOUR('',#42);
#125=FILL_AREA_STYLE_COLOUR('',#42);
#126=FILL_AREA_STYLE_COLOUR('',#42);
#127=FILL_AREA_STYLE_COLOUR('',#42);
#128=FILL_AREA_STYLE_COLOUR('',#42);
#129=FILL_AREA_STYLE_COLOUR('',#42);
#130=FILL_AREA_STYLE_COLOUR('',#42);
#131=FILL_AREA_STYLE_COLOUR('',#42);
#132=DRAUGHTING_PRE_DEFINED_COLOUR('yellow');
#133=MANIFOLD_SOLID_BREP('',#135);
#134=MANIFOLD_SOLID_BREP('',#136);
#135=CLOSED_SHELL('',(#137,#138));
#136=CLOSED_SHELL('',(#139,#140,#141,#142,#143,#144,#145,#146,#147,#148));
#137=ADVANCED_FACE('',(#151,#152),#149,.F.);
#138=ADVANCED_FACE('',(#153,#154),#150,.F.);
#139=ADVANCED_FACE('',(#56),#55,.F.);
#140=ADVANCED_FACE('',(#155,#156),#52,.T.);
#141=ADVANCED_FACE('',(#157,#158),#49,.T.);
#142=ADVANCED_FACE('',(#159,#160),#47,.T.);
#143=ADVANCED_FACE('',(#161,#162),#50,.T.);
#144=ADVANCED_FACE('',(#163,#164),#53,.F.);
#145=ADVANCED_FACE('',(#165,#166),#54,.T.);
#146=ADVANCED_FACE('',(#167,#168),#51,.T.);
#147=ADVANCED_FACE('',(#169,#170),#44,.T.);
#148=ADVANCED_FACE('',(#171,#172),#48,.F.);
#149=(
BOUNDED_SURFACE()
B_SPLINE_SURFACE(3,3,((#320,#321,#322,#323,#324,#325,#326),(#327,#328,#329,
#330,#331,#332,#333),(#334,#335,#336,#337,#338,#339,#340),(#341,#342,#343,
#344,#345,#346,#347),(#348,#349,#350,#351,#352,#353,#354),(#355,#356,#357,
#358,#359,#360,#361),(#362,#363,#364,#365,#366,#367,#368)),
 .UNSPECIFIED.,.T.,.F.,.F.)
B_SPLINE_SURFACE_WITH_KNOTS((1,3,3,3,1),(4,3,4),(-0.5,0.,0.5,1.,1.5),(0.,
0.5,1.),.UNSPECIFIED.)
GEOMETRIC_REPRESENTATION_ITEM()
RATIONAL_B_SPLINE_SURFACE(((1.,0.596906269178183,0.596906269178183,1.,0.596906269178183,
0.596906269178183,1.),(0.333333333333334,0.198968756392727,0.198968756392727,
0.333333333333334,0.198968756392727,0.198968756392727,0.333333333333334),
(0.333333333333334,0.198968756392727,0.198968756392727,0.333333333333334,
0.198968756392727,0.198968756392727,0.333333333333334),(1.,0.596906269178183,
0.596906269178183,1.,0.596906269178183,0.596906269178183,1.),(0.333333333333334,
0.198968756392727,0.198968756392727,0.333333333333334,0.198968756392727,
0.198968756392727,0.333333333333334),(0.333333333333334,0.198968756392727,
0.198968756392727,0.333333333333334,0.198968756392727,0.198968756392727,
0.333333333333334),(1.,0.596906269178183,0.596906269178183,1.,0.596906269178183,
0.596906269178183,1.)))
REPRESENTATION_ITEM('')
SURFACE()
);
#150=(
BOUNDED_SURFACE()
B_SPLINE_SURFACE(3,3,((#369,#370,#371,#372),(#373,#374,#375,#376),(#377,
#378,#379,#380),(#381,#382,#383,#384),(#385,#386,#387,#388),(#389,#390,
#391,#392),(#393,#394,#395,#396)),.UNSPECIFIED.,.T.,.F.,.F.)
B_SPLINE_SURFACE_WITH_KNOTS((1,3,3,3,1),(4,4),(-0.5,0.,0.5,1.,1.5),(0.,
1.),.UNSPECIFIED.)
GEOMETRIC_REPRESENTATION_ITEM()
RATIONAL_B_SPLINE_SURFACE(((1.,0.79158792247038,0.79158792247038,1.),(0.333333333333334,
0.26386264082346,0.26386264082346,0.333333333333334),(0.333333333333334,
0.26386264082346,0.26386264082346,0.333333333333334),(1.,0.79158792247038,
0.79158792247038,1.),(0.333333333333334,0.26386264082346,0.26386264082346,
0.333333333333334),(0.333333333333334,0.26386264082346,0.26386264082346,
0.333333333333334),(1.,0.79158792247038,0.79158792247038,1.)))
REPRESENTATION_ITEM('')
SURFACE()
);
#151=FACE_BOUND('',#173,.T.);
#152=FACE_BOUND('',#174,.T.);
#153=FACE_BOUND('',#175,.T.);
#154=FACE_BOUND('',#176,.T.);
#155=FACE_BOUND('',#178,.T.);
#156=FACE_BOUND('',#179,.T.);
#157=FACE_BOUND('',#180,.T.);
#158=FACE_BOUND('',#181,.T.);
#159=FACE_BOUND('',#182,.T.);
#160=FACE_BOUND('',#183,.T.);
#161=FACE_BOUND('',#184,.T.);
#162=FACE_BOUND('',#185,.T.);
#163=FACE_BOUND('',#186,.T.);
#164=FACE_BOUND('',#187,.T.);
#165=FACE_BOUND('',#188,.T.);
#166=FACE_BOUND('',#189,.T.);
#167=FACE_BOUND('',#190,.T.);
#168=FACE_BOUND('',#191,.T.);
#169=FACE_BOUND('',#192,.T.);
#170=FACE_BOUND('',#193,.T.);
#171=FACE_BOUND('',#194,.T.);
#172=FACE_BOUND('',#43,.T.);
#173=EDGE_LOOP('',(#195));
#174=EDGE_LOOP('',(#196));
#175=EDGE_LOOP('',(#197));
#176=EDGE_LOOP('',(#198));
#177=EDGE_LOOP('',(#199));
#178=EDGE_LOOP('',(#200));
#179=EDGE_LOOP('',(#201));
#180=EDGE_LOOP('',(#202));
#181=EDGE_LOOP('',(#203));
#182=EDGE_LOOP('',(#204));
#183=EDGE_LOOP('',(#205));
#184=EDGE_LOOP('',(#206));
#185=EDGE_LOOP('',(#207));
#186=EDGE_LOOP('',(#208));
#187=EDGE_LOOP('',(#209));
#188=EDGE_LOOP('',(#210));
#189=EDGE_LOOP('',(#211));
#190=EDGE_LOOP('',(#212));
#191=EDGE_LOOP('',(#213));
#192=EDGE_LOOP('',(#214));
#193=EDGE_LOOP('',(#215));
#194=EDGE_LOOP('',(#216));
#195=ORIENTED_EDGE('',*,*,#229,.T.);
#196=ORIENTED_EDGE('',*,*,#230,.F.);
#197=ORIENTED_EDGE('',*,*,#230,.T.);
#198=ORIENTED_EDGE('',*,*,#229,.F.);
#199=ORIENTED_EDGE('',*,*,#231,.F.);
#200=ORIENTED_EDGE('',*,*,#232,.F.);
#201=ORIENTED_EDGE('',*,*,#231,.T.);
#202=ORIENTED_EDGE('',*,*,#232,.T.);
#203=ORIENTED_EDGE('',*,*,#233,.F.);
#204=ORIENTED_EDGE('',*,*,#234,.F.);
#205=ORIENTED_EDGE('',*,*,#233,.T.);
#206=ORIENTED_EDGE('',*,*,#235,.F.);
#207=ORIENTED_EDGE('',*,*,#234,.T.);
#208=ORIENTED_EDGE('',*,*,#236,.F.);
#209=ORIENTED_EDGE('',*,*,#235,.T.);
#210=ORIENTED_EDGE('',*,*,#237,.F.);
#211=ORIENTED_EDGE('',*,*,#236,.T.);
#212=ORIENTED_EDGE('',*,*,#238,.F.);
#213=ORIENTED_EDGE('',*,*,#237,.T.);
#214=ORIENTED_EDGE('',*,*,#239,.F.);
#215=ORIENTED_EDGE('',*,*,#238,.T.);
#216=ORIENTED_EDGE('',*,*,#239,.T.);
#217=VERTEX_POINT('',#317);
#218=VERTEX_POINT('',#319);
#219=VERTEX_POINT('',#398);
#220=VERTEX_POINT('',#401);
#221=VERTEX_POINT('',#404);
#222=VERTEX_POINT('',#407);
#223=VERTEX_POINT('',#410);
#224=VERTEX_POINT('',#413);
#225=VERTEX_POINT('',#416);
#226=VERTEX_POINT('',#419);
#227=VERTEX_POINT('',#422);
#228=VERTEX_POINT('',#490);
#229=EDGE_CURVE('',#217,#217,#240,.T.);
#230=EDGE_CURVE('',#218,#218,#241,.T.);
#231=EDGE_CURVE('',#219,#219,#242,.T.);
#232=EDGE_CURVE('',#220,#220,#243,.T.);
#233=EDGE_CURVE('',#221,#221,#244,.T.);
#234=EDGE_CURVE('',#222,#222,#245,.T.);
#235=EDGE_CURVE('',#223,#223,#246,.T.);
#236=EDGE_CURVE('',#224,#224,#247,.T.);
#237=EDGE_CURVE('',#225,#225,#248,.T.);
#238=EDGE_CURVE('',#226,#226,#249,.T.);
#239=EDGE_CURVE('',#227,#227,#250,.T.);
#240=CIRCLE('',#252,6.);
#241=CIRCLE('',#253,6.);
#242=CIRCLE('',#254,27.);
#243=CIRCLE('',#256,29.);
#244=CIRCLE('',#258,29.);
#245=CIRCLE('',#260,28.8);
#246=CIRCLE('',#262,28.8);
#247=CIRCLE('',#264,36.7894736842105);
#248=CIRCLE('',#266,38.);
#249=CIRCLE('',#268,38.);
#250=CIRCLE('',#270,29.5637261764988);
#251=AXIS2_PLACEMENT_3D('',#315,#272,#273);
#252=AXIS2_PLACEMENT_3D('',#316,#274,#275);
#253=AXIS2_PLACEMENT_3D('',#318,#276,#277);
#254=AXIS2_PLACEMENT_3D('',#397,#278,#279);
#255=AXIS2_PLACEMENT_3D('',#399,#280,#281);
#256=AXIS2_PLACEMENT_3D('',#400,#282,#283);
#257=AXIS2_PLACEMENT_3D('',#402,#284,#285);
#258=AXIS2_PLACEMENT_3D('',#403,#286,#287);
#259=AXIS2_PLACEMENT_3D('',#405,#288,#289);
#260=AXIS2_PLACEMENT_3D('',#406,#290,#291);
#261=AXIS2_PLACEMENT_3D('',#408,#292,#293);
#262=AXIS2_PLACEMENT_3D('',#409,#294,#295);
#263=AXIS2_PLACEMENT_3D('',#411,#296,#297);
#264=AXIS2_PLACEMENT_3D('',#412,#298,#299);
#265=AXIS2_PLACEMENT_3D('',#414,#300,#301);
#266=AXIS2_PLACEMENT_3D('',#415,#302,#303);
#267=AXIS2_PLACEMENT_3D('',#417,#304,#305);
#268=AXIS2_PLACEMENT_3D('',#418,#306,#307);
#269=AXIS2_PLACEMENT_3D('',#420,#308,#309);
#270=AXIS2_PLACEMENT_3D('',#421,#310,#311);
#271=AXIS2_PLACEMENT_3D('',#491,#313,#314);
#272=DIRECTION('',(0.,0.,1.));
#273=DIRECTION('',(1.,0.,0.));
#274=DIRECTION('',(0.121869343405147,0.992030796856994,0.0319806382874973));
#275=DIRECTION('',(0.992489739031157,-0.122142667507195,0.00672953877261494));
#276=DIRECTION('',(0.121869343405147,-0.0865060970576294,0.988769213876451));
#277=DIRECTION('',(0.992489739031157,0.,-0.122327911442424));
#278=DIRECTION('',(-1.,0.,0.));
#279=DIRECTION('',(0.,0.,1.));
#280=DIRECTION('',(-1.,0.,0.));
#281=DIRECTION('',(0.,0.,1.));
#282=DIRECTION('',(-1.,0.,0.));
#283=DIRECTION('',(0.,0.,1.));
#284=DIRECTION('',(-1.,0.,0.));
#285=DIRECTION('',(0.,0.,1.));
#286=DIRECTION('',(-1.,0.,0.));
#287=DIRECTION('',(0.,0.,1.));
#288=DIRECTION('',(-1.,0.,0.));
#289=DIRECTION('',(0.,0.,1.));
#290=DIRECTION('',(-1.,0.,0.));
#291=DIRECTION('',(0.,0.,1.));
#292=DIRECTION('',(1.,0.,0.));
#293=DIRECTION('',(5.72185274460339E-17,0.,-1.));
#294=DIRECTION('',(-1.,0.,0.));
#295=DIRECTION('',(0.,0.,1.));
#296=DIRECTION('',(-1.,0.,0.));
#297=DIRECTION('',(0.,0.,1.));
#298=DIRECTION('',(-1.,0.,0.));
#299=DIRECTION('',(0.,0.,1.));
#300=DIRECTION('',(-1.,0.,0.));
#301=DIRECTION('',(0.,0.,1.));
#302=DIRECTION('',(-1.,0.,0.));
#303=DIRECTION('',(0.,0.,1.));
#304=DIRECTION('',(-1.,0.,0.));
#305=DIRECTION('',(0.,0.,1.));
#306=DIRECTION('',(-1.,0.,0.));
#307=DIRECTION('',(0.,0.,1.));
#308=DIRECTION('',(-1.,0.,0.));
#309=DIRECTION('',(0.,0.,1.));
#310=DIRECTION('',(-1.,0.,0.));
#311=DIRECTION('',(0.,0.,1.));
#312=DIRECTION('',(-1.,0.,0.));
#313=DIRECTION('',(-1.,0.,0.));
#314=DIRECTION('',(-1.0491494735636E-17,0.,1.));
#315=CARTESIAN_POINT('',(0.,0.,0.));
#316=CARTESIAN_POINT('',(5.95527690984794,1.1432580268383,33.991681912959));
#317=CARTESIAN_POINT('',(11.9102153440349,0.410402021795132,34.0320591455946));
#318=CARTESIAN_POINT('',(5.95527690984794,-34.0031007811441,-0.728433562560781));
#319=CARTESIAN_POINT('',(11.9102153440349,-34.0031007811441,-1.46240103121532));
#320=CARTESIAN_POINT('',(11.9102153440349,-34.0031007811441,-1.46240103121532));
#321=CARTESIAN_POINT('',(11.9102153440349,-32.502860650058,-36.3453197958757));
#322=CARTESIAN_POINT('',(11.9102153440349,0.131158878601767,-48.7585994348702));
#323=CARTESIAN_POINT('',(11.9102153440349,24.4352517542766,-23.6910943439484));
#324=CARTESIAN_POINT('',(11.9102153440349,48.7393446299515,1.37641074697337));
#325=CARTESIAN_POINT('',(11.9102153440349,35.3230284381543,33.6110381193278));
#326=CARTESIAN_POINT('',(11.9102153440349,0.410402021795129,34.0320591455947));
#327=CARTESIAN_POINT('',(12.037200666196,-22.0480849256654,-0.432124066895356));
#328=CARTESIAN_POINT('',(12.0372006661961,-21.6047798042065,-23.0506952474629));
#329=CARTESIAN_POINT('',(12.0372006661961,-0.653757803078037,-31.5859725592639));
#330=CARTESIAN_POINT('',(12.037200666196,15.4693042088254,-15.7164056766603));
#331=CARTESIAN_POINT('',(12.0372006661961,31.5923662207289,0.153161205943261));
#332=CARTESIAN_POINT('',(12.0372006661961,23.3901525874584,21.2368035192464));
#333=CARTESIAN_POINT('',(12.037200666196,0.781445992311567,22.0384691451027));
#334=CARTESIAN_POINT('',(0.127323797822127,-22.0480849256654,1.03581087041373));
#335=CARTESIAN_POINT('',(0.127323797822128,-23.1106970292131,-21.5827603101538));
#336=CARTESIAN_POINT('',(0.127323797822128,-2.7550535642861,-31.5012625086606));
#337=CARTESIAN_POINT('',(0.127323797822127,14.403148666447,-16.725437559025));
#338=CARTESIAN_POINT('',(0.127323797822128,31.5613508971803,-1.94961260938956));
#339=CARTESIAN_POINT('',(0.127323797822128,24.7730206395752,19.6524122736322));
#340=CARTESIAN_POINT('',(0.127323797822127,2.24715800239791,21.9577146798313));
#341=CARTESIAN_POINT('',(0.00033847566098099,-34.0031007811441,0.00553390609376236));
#342=CARTESIAN_POINT('',(0.000338475660980991,-34.0087778750645,-34.8773848585667));
#343=CARTESIAN_POINT('',(0.000338475660980991,-1.97013688260629,-48.6738893842669));
#344=CARTESIAN_POINT('',(0.00033847566098099,23.3690962118983,-24.7001262263132));
#345=CARTESIAN_POINT('',(0.000338475660980991,48.7083293064028,-0.726363068359451));
#346=CARTESIAN_POINT('',(0.000338475660980991,36.7058964902712,32.0266468737137));
#347=CARTESIAN_POINT('',(0.00033847566098099,1.87611403188148,33.9513046803233));
#348=CARTESIAN_POINT('',(-0.126646846500165,-45.9581166366229,-1.02474305822621));
#349=CARTESIAN_POINT('',(-0.126646846500166,-44.9068587209161,-48.1720094069796));
#350=CARTESIAN_POINT('',(-0.126646846500166,-1.18522020092649,-65.8465162598733));
#351=CARTESIAN_POINT('',(-0.126646846500165,32.3350437573495,-32.6748148936013));
#352=CARTESIAN_POINT('',(-0.126646846500166,65.8553077156255,0.496886472670649));
#353=CARTESIAN_POINT('',(-0.126646846500166,48.6387723409672,44.4008814737952));
#354=CARTESIAN_POINT('',(-0.126646846500165,1.50507006136504,45.9448946808151));
#355=CARTESIAN_POINT('',(11.7832300218737,-45.9581166366229,-2.49267799553529));
#356=CARTESIAN_POINT('',(11.7832300218738,-43.4009414959095,-49.6399443442887));
#357=CARTESIAN_POINT('',(11.7832300218738,0.916075560281575,-65.9312263104767));
#358=CARTESIAN_POINT('',(11.7832300218737,33.4011992997278,-31.6657830112365));
#359=CARTESIAN_POINT('',(11.7832300218738,65.8863230391742,2.59966028800347));
#360=CARTESIAN_POINT('',(11.7832300218738,47.2559042888504,45.9852727194093));
#361=CARTESIAN_POINT('',(11.7832300218737,0.0393580512786928,46.0256491460865));
#362=CARTESIAN_POINT('',(11.9102153440349,-34.0031007811441,-1.46240103121532));
#363=CARTESIAN_POINT('',(11.9102153440349,-32.502860650058,-36.3453197958757));
#364=CARTESIAN_POINT('',(11.9102153440349,0.131158878601767,-48.7585994348702));
#365=CARTESIAN_POINT('',(11.9102153440349,24.4352517542766,-23.6910943439484));
#366=CARTESIAN_POINT('',(11.9102153440349,48.7393446299515,1.37641074697337));
#367=CARTESIAN_POINT('',(11.9102153440349,35.3230284381543,33.6110381193278));
#368=CARTESIAN_POINT('',(11.9102153440349,0.410402021795129,34.0320591455947));
#369=CARTESIAN_POINT('',(11.9102153440349,0.41040202179513,34.0320591455947));
#370=CARTESIAN_POINT('',(11.9102153440349,-20.4062829961344,34.2830933125806));
#371=CARTESIAN_POINT('',(11.9102153440349,-34.8976203136375,19.3365707725704));
#372=CARTESIAN_POINT('',(11.9102153440349,-34.0031007811441,-1.46240103121532));
#373=CARTESIAN_POINT('',(12.037200666196,0.781445992311568,22.0384691451027));
#374=CARTESIAN_POINT('',(12.037200666196,-12.6990157249263,22.5164629982187));
#375=CARTESIAN_POINT('',(12.037200666196,-22.3124060045265,13.0542194183049));
#376=CARTESIAN_POINT('',(12.037200666196,-22.0480849256654,-0.432124066895355));
#377=CARTESIAN_POINT('',(0.127323797822127,2.24715800239792,21.9577146798313));
#378=CARTESIAN_POINT('',(0.127323797822127,-11.1839079301137,23.3322533206262));
#379=CARTESIAN_POINT('',(0.127323797822127,-21.4145014996581,14.5221543556139));
#380=CARTESIAN_POINT('',(0.127323797822127,-22.0480849256654,1.03581087041373));
#381=CARTESIAN_POINT('',(0.00033847566098099,1.87611403188148,33.9513046803233));
#382=CARTESIAN_POINT('',(0.00033847566098099,-18.8911752013219,35.0988836349881));
#383=CARTESIAN_POINT('',(0.00033847566098099,-33.9997158087691,20.8045057098795));
#384=CARTESIAN_POINT('',(0.00033847566098099,-34.0031007811441,0.00553390609376431));
#385=CARTESIAN_POINT('',(-0.126646846500165,1.50507006136504,45.9448946808151));
#386=CARTESIAN_POINT('',(-0.126646846500165,-26.59844247253,46.86551394935));
#387=CARTESIAN_POINT('',(-0.126646846500165,-46.5849301178802,27.0868570641452));
#388=CARTESIAN_POINT('',(-0.126646846500165,-45.9581166366229,-1.0247430582262));
#389=CARTESIAN_POINT('',(11.7832300218737,0.0393580512786907,46.0256491460865));
#390=CARTESIAN_POINT('',(11.7832300218738,-28.1135502673426,46.0497236269425));
#391=CARTESIAN_POINT('',(11.7832300218738,-47.4828346227486,25.6189221268361));
#392=CARTESIAN_POINT('',(11.7832300218737,-45.9581166366229,-2.49267799553529));
#393=CARTESIAN_POINT('',(11.9102153440349,0.41040202179513,34.0320591455947));
#394=CARTESIAN_POINT('',(11.9102153440349,-20.4062829961344,34.2830933125806));
#395=CARTESIAN_POINT('',(11.9102153440349,-34.8976203136375,19.3365707725704));
#396=CARTESIAN_POINT('',(11.9102153440349,-34.0031007811441,-1.46240103121532));
#397=CARTESIAN_POINT('',(50.,0.,0.));
#398=CARTESIAN_POINT('',(50.,0.,27.));
#399=CARTESIAN_POINT('',(50.,14.5,0.));
#400=CARTESIAN_POINT('',(48.,0.,0.));
#401=CARTESIAN_POINT('',(48.,0.,29.));
#402=CARTESIAN_POINT('',(48.,0.,0.));
#403=CARTESIAN_POINT('',(40.,0.,0.));
#404=CARTESIAN_POINT('',(40.,0.,29.));
#405=CARTESIAN_POINT('',(0.,0.,0.));
#406=CARTESIAN_POINT('',(39.6535898384862,0.,0.));
#407=CARTESIAN_POINT('',(39.6535898384862,0.,28.8));
#408=CARTESIAN_POINT('',(40.,0.,0.));
#409=CARTESIAN_POINT('',(39.,0.,0.));
#410=CARTESIAN_POINT('',(39.,0.,28.8));
#411=CARTESIAN_POINT('',(0.,0.,0.));
#412=CARTESIAN_POINT('',(17.4715636097927,0.,0.));
#413=CARTESIAN_POINT('',(17.4715636097927,0.,36.7894736842105));
#414=CARTESIAN_POINT('',(39.,0.,0.));
#415=CARTESIAN_POINT('',(14.2096793082461,0.,0.));
#416=CARTESIAN_POINT('',(14.2096793082461,0.,38.));
#417=CARTESIAN_POINT('',(14.2096793082461,0.,0.));
#418=CARTESIAN_POINT('',(8.15717650400469,0.,0.));
#419=CARTESIAN_POINT('',(8.15717650400469,0.,38.));
#420=CARTESIAN_POINT('',(0.,0.,0.));
#421=CARTESIAN_POINT('',(3.5000000000253,0.,0.));
#422=CARTESIAN_POINT('',(3.5000000000253,0.,29.5637261764988));
#423=CARTESIAN_POINT('',(0.668167463817221,34.2219713233484,0.));
#424=CARTESIAN_POINT('',(0.674903231786536,33.5858537226001,0.));
#425=CARTESIAN_POINT('',(0.709119326557295,33.2713071662161,0.));
#426=CARTESIAN_POINT('',(0.839253477245603,32.6493079772135,0.));
#427=CARTESIAN_POINT('',(0.934003295802112,32.3482947343661,0.));
#428=CARTESIAN_POINT('',(1.17930859018295,31.7707790248313,0.));
#429=CARTESIAN_POINT('',(1.33196757439499,31.4907426665766,0.));
#430=CARTESIAN_POINT('',(1.6880062119252,30.9686392451358,0.));
#431=CARTESIAN_POINT('',(1.88945910816871,30.7280944672775,0.));
#432=CARTESIAN_POINT('',(2.3388928915949,30.2877219718251,0.));
#433=CARTESIAN_POINT('',(2.58912711294055,30.0871350447095,0.));
#434=CARTESIAN_POINT('',(3.11614511275729,29.7448360682688,0.));
#435=CARTESIAN_POINT('',(3.3949083908718,29.6005989775197,0.));
#436=CARTESIAN_POINT('',(3.98372872536623,29.3673349205302,0.));
#437=CARTESIAN_POINT('',(4.28932116948257,29.2806630492431,0.));
#438=CARTESIAN_POINT('',(4.90658857452243,29.1698811410084,0.));
#439=CARTESIAN_POINT('',(5.22307511903838,29.1448795823632,0.));
#440=CARTESIAN_POINT('',(5.85639046360645,29.1585044271499,0.));
#441=CARTESIAN_POINT('',(6.16787994880059,29.1964990396024,0.));
#442=CARTESIAN_POINT('',(6.7808496089377,29.332879308636,0.));
#443=CARTESIAN_POINT('',(7.08535655348059,29.4329738270819,0.));
#444=CARTESIAN_POINT('',(7.66115738818105,29.6873928754118,0.));
#445=CARTESIAN_POINT('',(7.93423831124543,29.841410961767,0.));
#446=CARTESIAN_POINT('',(8.45079578436275,30.2030016390832,0.));
#447=CARTESIAN_POINT('',(8.69365790967948,30.4112281553533,0.));
#448=CARTESIAN_POINT('',(9.12840924081121,30.8638029811481,0.));
#449=CARTESIAN_POINT('',(9.32335141195878,31.110047921034,0.));
#450=CARTESIAN_POINT('',(9.6669048422981,31.6437552058397,0.));
#451=CARTESIAN_POINT('',(9.81114826510952,31.924910050174,0.));
#452=CARTESIAN_POINT('',(10.0428431455937,32.5078057561227,0.));
#453=CARTESIAN_POINT('',(10.1314838894467,32.8135484955501,0.));
#454=CARTESIAN_POINT('',(10.2473186553311,33.4353559292689,0.));
#455=CARTESIAN_POINT('',(10.2745097036806,33.7479711067582,0.));
#456=CARTESIAN_POINT('',(10.2683170893409,34.3765754806199,0.));
#457=CARTESIAN_POINT('',(10.2339035688908,34.6953609129868,0.));
#458=CARTESIAN_POINT('',(10.1053718953306,35.3110963820373,0.));
#459=CARTESIAN_POINT('',(10.0117592974607,35.6105537552562,0.));
#460=CARTESIAN_POINT('',(9.7647068849403,36.1923228784499,0.));
#461=CARTESIAN_POINT('',(9.61160137201713,36.4719984476824,0.));
#462=CARTESIAN_POINT('',(9.25781390913036,36.990107429932,0.));
#463=CARTESIAN_POINT('',(9.05497086592688,37.2325094946325,0.));
#464=CARTESIAN_POINT('',(8.60090007387741,37.6761138701625,0.));
#465=CARTESIAN_POINT('',(8.35543668591718,37.8720716579003,0.));
#466=CARTESIAN_POINT('',(7.82879288056743,38.213895763856,0.));
#467=CARTESIAN_POINT('',(7.54414337012359,38.3608434623552,0.));
#468=CARTESIAN_POINT('',(6.95827159429849,38.5926066951139,0.));
#469=CARTESIAN_POINT('',(6.65670255966073,38.6786118149432,0.));
#470=CARTESIAN_POINT('',(6.0362824154144,38.7908144468232,0.));
#471=CARTESIAN_POINT('',(5.71721529885838,38.8161009142512,0.));
#472=CARTESIAN_POINT('',(5.08976211454112,38.8037945213806,0.));
#473=CARTESIAN_POINT('',(4.77780732108108,38.7670678101773,0.));
#474=CARTESIAN_POINT('',(4.15755869404876,38.6304421937277,0.));
#475=CARTESIAN_POINT('',(3.85762607287335,38.5321693677011,0.));
#476=CARTESIAN_POINT('',(3.28335538508008,38.2801241563258,0.));
#477=CARTESIAN_POINT('',(3.00543160654431,38.124239890593,0.));
#478=CARTESIAN_POINT('',(2.48724820930354,37.7621503937833,0.));
#479=CARTESIAN_POINT('',(2.24896602372807,37.5581762830228,0.));
#480=CARTESIAN_POINT('',(1.8131504167556,37.1053282516229,0.));
#481=CARTESIAN_POINT('',(1.61439108720783,36.8537259697246,0.));
#482=CARTESIAN_POINT('',(1.2744195007294,36.3246324026147,0.));
#483=CARTESIAN_POINT('',(1.13107719384258,36.0456850046199,0.));
#484=CARTESIAN_POINT('',(0.898244494910968,35.4586836325525,0.));
#485=CARTESIAN_POINT('',(0.810088148341477,35.151905022711,0.));
#486=CARTESIAN_POINT('',(0.695731818186806,34.5350974856558,0.));
#487=CARTESIAN_POINT('',(0.668167463817221,34.2219713233484,0.));
#488=CARTESIAN_POINT('',(0.674903231786536,33.5858537226001,0.));
#489=CARTESIAN_POINT('',(0.,0.,0.));
#490=CARTESIAN_POINT('',(11.4215765542343,0.,0.));
#491=CARTESIAN_POINT('',(3.5000000000253,0.,0.));
#492=(
GEOMETRIC_REPRESENTATION_CONTEXT(3)
GLOBAL_UNCERTAINTY_ASSIGNED_CONTEXT((#493))
GLOBAL_UNIT_ASSIGNED_CONTEXT((#499,#495,#494))
REPRESENTATION_CONTEXT('model1','TOP_LEVEL_ASSEMBLY_PART')
);
#493=UNCERTAINTY_MEASURE_WITH_UNIT(LENGTH_MEASURE(2.E-5),#499,
'DISTANCE_ACCURACY_VALUE','Maximum Tolerance applied to model');
#494=(
NAMED_UNIT(*)
SI_UNIT($,.STERADIAN.)
SOLID_ANGLE_UNIT()
);
#495=(
CONVERSION_BASED_UNIT('DEGREE',#497)
NAMED_UNIT(#496)
PLANE_ANGLE_UNIT()
);
#496=DIMENSIONAL_EXPONENTS(0.,0.,0.,0.,0.,0.,0.);
#497=PLANE_ANGLE_MEASURE_WITH_UNIT(PLANE_ANGLE_MEASURE(0.0174532925),#498);
#498=(
NAMED_UNIT(*)
PLANE_ANGLE_UNIT()
SI_UNIT($,.RADIAN.)
);
#499=(
LENGTH_UNIT()
NAMED_UNIT(*)
SI_UNIT(.MILLI.,.METRE.)
);
ENDSEC;
END-ISO-10303-21;
