ISO-10303-21;
HEADER;
/* Generated by software containing ST-Developer
 * from STEP Tools, Inc. (www.steptools.com) 
 */
/* OPTION: using custom schema-name function */

FILE_DESCRIPTION(
/* description */ (''),
/* implementation_level */ '2;1');

FILE_NAME(
/* name */ 'model1.stp',
/* time_stamp */ '2023-11-02T15:41:30+03:00',
/* author */ (''),
/* organization */ (''),
/* preprocessor_version */ 'ST-DEVELOPER v19.4',
/* originating_system */ 'SIEMENS PLM Software NX2306.3001',
/* authorisation */ '');

FILE_SCHEMA (('AUTOMOTIVE_DESIGN { 1 0 10303 214 3 1 1 1 }'));
ENDSEC;

DATA;
#10=PROPERTY_DEFINITION_REPRESENTATION(#14,#12);
#11=PROPERTY_DEFINITION_REPRESENTATION(#15,#13);
#12=REPRESENTATION('',(#16),#519);
#13=REPRESENTATION('',(#17),#519);
#14=PROPERTY_DEFINITION('pmi validation property','',#21);
#15=PROPERTY_DEFINITION('pmi validation property','',#21);
#16=VALUE_REPRESENTATION_ITEM('number of annotations',COUNT_MEASURE(0.));
#17=VALUE_REPRESENTATION_ITEM('number of views',COUNT_MEASURE(0.));
#18=SHAPE_REPRESENTATION_RELATIONSHIP('None',
'relationship between model1_objects-None and model1_objects-None',#30,
#19);
#19=ADVANCED_BREP_SHAPE_REPRESENTATION('model1_objects-None',(#141,#142),
#519);
#20=SHAPE_DEFINITION_REPRESENTATION(#21,#30);
#21=PRODUCT_DEFINITION_SHAPE('','',#22);
#22=PRODUCT_DEFINITION(' ','',#24,#23);
#23=PRODUCT_DEFINITION_CONTEXT('part definition',#29,'design');
#24=PRODUCT_DEFINITION_FORMATION_WITH_SPECIFIED_SOURCE(' ',' ',#26,
 .NOT_KNOWN.);
#25=PRODUCT_RELATED_PRODUCT_CATEGORY('part','',(#26));
#26=PRODUCT('model1_objects','model1_objects',' ',(#27));
#27=PRODUCT_CONTEXT(' ',#29,'mechanical');
#28=APPLICATION_PROTOCOL_DEFINITION('international standard',
'automotive_design',2010,#29);
#29=APPLICATION_CONTEXT(
'core data for automotive mechanical design processes');
#30=SHAPE_REPRESENTATION('model1_objects-None',(#269),#519);
#31=OVER_RIDING_STYLED_ITEM('',(#64),#147,#61);
#32=OVER_RIDING_STYLED_ITEM('',(#65),#148,#61);
#33=OVER_RIDING_STYLED_ITEM('',(#66),#149,#61);
#34=OVER_RIDING_STYLED_ITEM('',(#67),#150,#61);
#35=OVER_RIDING_STYLED_ITEM('',(#68),#151,#61);
#36=OVER_RIDING_STYLED_ITEM('',(#69),#152,#61);
#37=OVER_RIDING_STYLED_ITEM('',(#70),#153,#61);
#38=OVER_RIDING_STYLED_ITEM('',(#71),#154,#61);
#39=OVER_RIDING_STYLED_ITEM('',(#72),#155,#61);
#40=OVER_RIDING_STYLED_ITEM('',(#73),#156,#61);
#41=OVER_RIDING_STYLED_ITEM('',(#74),#157,#61);
#42=COLOUR_RGB('Medium Steel',0.611764705882353,0.658823529411765,0.670588235294118);
#43=COLOUR_RGB('silver gray',0.6,0.6,0.6);
#44=VERTEX_LOOP('',#244);
#45=SURFACE_OF_REVOLUTION('',#47,#46);
#46=AXIS1_PLACEMENT('',#516,#336);
#47=B_SPLINE_CURVE_WITH_KNOTS('',3,(#450,#451,#452,#453,#454,#455,#456,
#457,#458,#459,#460,#461,#462,#463,#464,#465,#466,#467,#468,#469,#470,#471,
#472,#473,#474,#475,#476,#477,#478,#479,#480,#481,#482,#483,#484,#485,#486,
#487,#488,#489,#490,#491,#492,#493,#494,#495,#496,#497,#498,#499,#500,#501,
#502,#503,#504,#505,#506,#507,#508,#509,#510,#511,#512,#513,#514,#515),
 .UNSPECIFIED.,.T.,.F.,(2,2,2,2,2,2,2,2,2,2,2,2,2,2,2,2,2,2,2,2,2,2,2,2,
2,2,2,2,2,2,2,2,2,2,2),(-0.03125,0.,0.03125,0.0625,0.09375,0.125,0.15625,
0.1875,0.21875,0.25,0.28125,0.3125,0.34375,0.375,0.40625,0.4375,0.46875,
0.5,0.53125,0.5625,0.59375,0.625,0.65625,0.6875,0.71875,0.75,0.78125,0.8125,
0.84375,0.875,0.90625,0.9375,0.96875,1.,1.03125),.UNSPECIFIED.);
#48=CONICAL_SURFACE('',#279,32.5,30.);
#49=CONICAL_SURFACE('',#285,34.6395555688103,40.0000000000001);
#50=CONICAL_SURFACE('',#291,39.4978389944067,80.0000000000002);
#51=CYLINDRICAL_SURFACE('',#277,32.5);
#52=CYLINDRICAL_SURFACE('',#281,32.3);
#53=CYLINDRICAL_SURFACE('',#289,47.4999999999991);
#54=TOROIDAL_SURFACE('',#275,30.5,2.);
#55=TOROIDAL_SURFACE('',#283,42.3,10.);
#56=TOROIDAL_SURFACE('',#287,42.5,5.);
#57=PLANE('',#273);
#58=FACE_OUTER_BOUND('',#188,.T.);
#59=PRESENTATION_LAYER_ASSIGNMENT('1','Layer 1',(#141,#142));
#60=STYLED_ITEM('',(#62),#141);
#61=STYLED_ITEM('',(#63),#142);
#62=PRESENTATION_STYLE_ASSIGNMENT((#75));
#63=PRESENTATION_STYLE_ASSIGNMENT((#76));
#64=PRESENTATION_STYLE_ASSIGNMENT((#77));
#65=PRESENTATION_STYLE_ASSIGNMENT((#78));
#66=PRESENTATION_STYLE_ASSIGNMENT((#79));
#67=PRESENTATION_STYLE_ASSIGNMENT((#80));
#68=PRESENTATION_STYLE_ASSIGNMENT((#81));
#69=PRESENTATION_STYLE_ASSIGNMENT((#82));
#70=PRESENTATION_STYLE_ASSIGNMENT((#83));
#71=PRESENTATION_STYLE_ASSIGNMENT((#84));
#72=PRESENTATION_STYLE_ASSIGNMENT((#85));
#73=PRESENTATION_STYLE_ASSIGNMENT((#86));
#74=PRESENTATION_STYLE_ASSIGNMENT((#87));
#75=SURFACE_STYLE_USAGE(.BOTH.,#88);
#76=SURFACE_STYLE_USAGE(.BOTH.,#89);
#77=SURFACE_STYLE_USAGE(.BOTH.,#90);
#78=SURFACE_STYLE_USAGE(.BOTH.,#91);
#79=SURFACE_STYLE_USAGE(.BOTH.,#92);
#80=SURFACE_STYLE_USAGE(.BOTH.,#93);
#81=SURFACE_STYLE_USAGE(.BOTH.,#94);
#82=SURFACE_STYLE_USAGE(.BOTH.,#95);
#83=SURFACE_STYLE_USAGE(.BOTH.,#96);
#84=SURFACE_STYLE_USAGE(.BOTH.,#97);
#85=SURFACE_STYLE_USAGE(.BOTH.,#98);
#86=SURFACE_STYLE_USAGE(.BOTH.,#99);
#87=SURFACE_STYLE_USAGE(.BOTH.,#100);
#88=SURFACE_SIDE_STYLE('',(#101));
#89=SURFACE_SIDE_STYLE('',(#102));
#90=SURFACE_SIDE_STYLE('',(#103));
#91=SURFACE_SIDE_STYLE('',(#104));
#92=SURFACE_SIDE_STYLE('',(#105));
#93=SURFACE_SIDE_STYLE('',(#106));
#94=SURFACE_SIDE_STYLE('',(#107));
#95=SURFACE_SIDE_STYLE('',(#108));
#96=SURFACE_SIDE_STYLE('',(#109));
#97=SURFACE_SIDE_STYLE('',(#110));
#98=SURFACE_SIDE_STYLE('',(#111));
#99=SURFACE_SIDE_STYLE('',(#112));
#100=SURFACE_SIDE_STYLE('',(#113));
#101=SURFACE_STYLE_FILL_AREA(#114);
#102=SURFACE_STYLE_FILL_AREA(#115);
#103=SURFACE_STYLE_FILL_AREA(#116);
#104=SURFACE_STYLE_FILL_AREA(#117);
#105=SURFACE_STYLE_FILL_AREA(#118);
#106=SURFACE_STYLE_FILL_AREA(#119);
#107=SURFACE_STYLE_FILL_AREA(#120);
#108=SURFACE_STYLE_FILL_AREA(#121);
#109=SURFACE_STYLE_FILL_AREA(#122);
#110=SURFACE_STYLE_FILL_AREA(#123);
#111=SURFACE_STYLE_FILL_AREA(#124);
#112=SURFACE_STYLE_FILL_AREA(#125);
#113=SURFACE_STYLE_FILL_AREA(#126);
#114=FILL_AREA_STYLE('',(#127));
#115=FILL_AREA_STYLE('',(#128));
#116=FILL_AREA_STYLE('',(#129));
#117=FILL_AREA_STYLE('',(#130));
#118=FILL_AREA_STYLE('',(#131));
#119=FILL_AREA_STYLE('',(#132));
#120=FILL_AREA_STYLE('',(#133));
#121=FILL_AREA_STYLE('',(#134));
#122=FILL_AREA_STYLE('',(#135));
#123=FILL_AREA_STYLE('',(#136));
#124=FILL_AREA_STYLE('',(#137));
#125=FILL_AREA_STYLE('',(#138));
#126=FILL_AREA_STYLE('',(#139));
#127=FILL_AREA_STYLE_COLOUR('',#140);
#128=FILL_AREA_STYLE_COLOUR('',#42);
#129=FILL_AREA_STYLE_COLOUR('',#43);
#130=FILL_AREA_STYLE_COLOUR('',#43);
#131=FILL_AREA_STYLE_COLOUR('',#43);
#132=FILL_AREA_STYLE_COLOUR('',#43);
#133=FILL_AREA_STYLE_COLOUR('',#43);
#134=FILL_AREA_STYLE_COLOUR('',#43);
#135=FILL_AREA_STYLE_COLOUR('',#43);
#136=FILL_AREA_STYLE_COLOUR('',#43);
#137=FILL_AREA_STYLE_COLOUR('',#43);
#138=FILL_AREA_STYLE_COLOUR('',#43);
#139=FILL_AREA_STYLE_COLOUR('',#43);
#140=DRAUGHTING_PRE_DEFINED_COLOUR('yellow');
#141=MANIFOLD_SOLID_BREP('',#143);
#142=MANIFOLD_SOLID_BREP('',#144);
#143=CLOSED_SHELL('',(#145,#146));
#144=CLOSED_SHELL('',(#147,#148,#149,#150,#151,#152,#153,#154,#155,#156,
#157));
#145=ADVANCED_FACE('',(#160,#161),#158,.F.);
#146=ADVANCED_FACE('',(#162,#163),#159,.F.);
#147=ADVANCED_FACE('',(#58),#57,.F.);
#148=ADVANCED_FACE('',(#164,#165),#54,.T.);
#149=ADVANCED_FACE('',(#166,#167),#51,.T.);
#150=ADVANCED_FACE('',(#168,#169),#48,.T.);
#151=ADVANCED_FACE('',(#170,#171),#52,.T.);
#152=ADVANCED_FACE('',(#172,#173),#55,.F.);
#153=ADVANCED_FACE('',(#174,#175),#49,.T.);
#154=ADVANCED_FACE('',(#176,#177),#56,.T.);
#155=ADVANCED_FACE('',(#178,#179),#53,.T.);
#156=ADVANCED_FACE('',(#180,#181),#45,.T.);
#157=ADVANCED_FACE('',(#182,#183),#50,.F.);
#158=(
BOUNDED_SURFACE()
B_SPLINE_SURFACE(3,3,((#344,#345,#346,#347,#348,#349,#350),(#351,#352,#353,
#354,#355,#356,#357),(#358,#359,#360,#361,#362,#363,#364),(#365,#366,#367,
#368,#369,#370,#371),(#372,#373,#374,#375,#376,#377,#378),(#379,#380,#381,
#382,#383,#384,#385),(#386,#387,#388,#389,#390,#391,#392)),
 .UNSPECIFIED.,.T.,.F.,.F.)
B_SPLINE_SURFACE_WITH_KNOTS((1,3,3,3,1),(4,3,4),(-0.5,0.,0.5,1.,1.5),(0.,
0.5,1.),.UNSPECIFIED.)
GEOMETRIC_REPRESENTATION_ITEM()
RATIONAL_B_SPLINE_SURFACE(((1.,0.592891651222171,0.592891651222171,1.,0.592891651222171,
0.592891651222171,1.),(0.333333333333334,0.19763055040739,0.19763055040739,
0.333333333333334,0.19763055040739,0.19763055040739,0.333333333333334),
(0.333333333333334,0.19763055040739,0.19763055040739,0.333333333333334,
0.19763055040739,0.19763055040739,0.333333333333334),(1.,0.592891651222171,
0.592891651222171,1.,0.592891651222171,0.592891651222171,1.),(0.333333333333334,
0.19763055040739,0.19763055040739,0.333333333333334,0.19763055040739,0.19763055040739,
0.333333333333334),(0.333333333333334,0.19763055040739,0.19763055040739,
0.333333333333334,0.19763055040739,0.19763055040739,0.333333333333334),
(1.,0.592891651222171,0.592891651222171,1.,0.592891651222171,0.592891651222171,
1.)))
REPRESENTATION_ITEM('')
SURFACE()
);
#159=(
BOUNDED_SURFACE()
B_SPLINE_SURFACE(3,3,((#393,#394,#395,#396),(#397,#398,#399,#400),(#401,
#402,#403,#404),(#405,#406,#407,#408),(#409,#410,#411,#412),(#413,#414,
#415,#416),(#417,#418,#419,#420)),.UNSPECIFIED.,.T.,.F.,.F.)
B_SPLINE_SURFACE_WITH_KNOTS((1,3,3,3,1),(4,4),(-0.5,0.,0.5,1.,1.5),(0.,
1.),.UNSPECIFIED.)
GEOMETRIC_REPRESENTATION_ITEM()
RATIONAL_B_SPLINE_SURFACE(((1.,0.797888438844152,0.797888438844152,1.),
(0.333333333333334,0.265962812948051,0.265962812948051,0.333333333333334),
(0.333333333333334,0.265962812948051,0.265962812948051,0.333333333333334),
(1.,0.797888438844152,0.797888438844152,1.),(0.333333333333334,0.265962812948051,
0.265962812948051,0.333333333333334),(0.333333333333334,0.265962812948051,
0.265962812948051,0.333333333333334),(1.,0.797888438844152,0.797888438844152,
1.)))
REPRESENTATION_ITEM('')
SURFACE()
);
#160=FACE_BOUND('',#184,.T.);
#161=FACE_BOUND('',#185,.T.);
#162=FACE_BOUND('',#186,.T.);
#163=FACE_BOUND('',#187,.T.);
#164=FACE_BOUND('',#189,.T.);
#165=FACE_BOUND('',#190,.T.);
#166=FACE_BOUND('',#191,.T.);
#167=FACE_BOUND('',#192,.T.);
#168=FACE_BOUND('',#193,.T.);
#169=FACE_BOUND('',#194,.T.);
#170=FACE_BOUND('',#195,.T.);
#171=FACE_BOUND('',#196,.T.);
#172=FACE_BOUND('',#197,.T.);
#173=FACE_BOUND('',#198,.T.);
#174=FACE_BOUND('',#199,.T.);
#175=FACE_BOUND('',#200,.T.);
#176=FACE_BOUND('',#201,.T.);
#177=FACE_BOUND('',#202,.T.);
#178=FACE_BOUND('',#203,.T.);
#179=FACE_BOUND('',#204,.T.);
#180=FACE_BOUND('',#205,.T.);
#181=FACE_BOUND('',#206,.T.);
#182=FACE_BOUND('',#207,.T.);
#183=FACE_BOUND('',#44,.T.);
#184=EDGE_LOOP('',(#208));
#185=EDGE_LOOP('',(#209));
#186=EDGE_LOOP('',(#210));
#187=EDGE_LOOP('',(#211));
#188=EDGE_LOOP('',(#212));
#189=EDGE_LOOP('',(#213));
#190=EDGE_LOOP('',(#214));
#191=EDGE_LOOP('',(#215));
#192=EDGE_LOOP('',(#216));
#193=EDGE_LOOP('',(#217));
#194=EDGE_LOOP('',(#218));
#195=EDGE_LOOP('',(#219));
#196=EDGE_LOOP('',(#220));
#197=EDGE_LOOP('',(#221));
#198=EDGE_LOOP('',(#222));
#199=EDGE_LOOP('',(#223));
#200=EDGE_LOOP('',(#224));
#201=EDGE_LOOP('',(#225));
#202=EDGE_LOOP('',(#226));
#203=EDGE_LOOP('',(#227));
#204=EDGE_LOOP('',(#228));
#205=EDGE_LOOP('',(#229));
#206=EDGE_LOOP('',(#230));
#207=EDGE_LOOP('',(#231));
#208=ORIENTED_EDGE('',*,*,#245,.T.);
#209=ORIENTED_EDGE('',*,*,#246,.F.);
#210=ORIENTED_EDGE('',*,*,#246,.T.);
#211=ORIENTED_EDGE('',*,*,#245,.F.);
#212=ORIENTED_EDGE('',*,*,#247,.F.);
#213=ORIENTED_EDGE('',*,*,#247,.T.);
#214=ORIENTED_EDGE('',*,*,#248,.F.);
#215=ORIENTED_EDGE('',*,*,#248,.T.);
#216=ORIENTED_EDGE('',*,*,#249,.F.);
#217=ORIENTED_EDGE('',*,*,#250,.F.);
#218=ORIENTED_EDGE('',*,*,#249,.T.);
#219=ORIENTED_EDGE('',*,*,#251,.F.);
#220=ORIENTED_EDGE('',*,*,#250,.T.);
#221=ORIENTED_EDGE('',*,*,#252,.F.);
#222=ORIENTED_EDGE('',*,*,#251,.T.);
#223=ORIENTED_EDGE('',*,*,#253,.F.);
#224=ORIENTED_EDGE('',*,*,#252,.T.);
#225=ORIENTED_EDGE('',*,*,#254,.F.);
#226=ORIENTED_EDGE('',*,*,#253,.T.);
#227=ORIENTED_EDGE('',*,*,#255,.F.);
#228=ORIENTED_EDGE('',*,*,#254,.T.);
#229=ORIENTED_EDGE('',*,*,#256,.F.);
#230=ORIENTED_EDGE('',*,*,#255,.T.);
#231=ORIENTED_EDGE('',*,*,#256,.T.);
#232=VERTEX_POINT('',#341);
#233=VERTEX_POINT('',#343);
#234=VERTEX_POINT('',#422);
#235=VERTEX_POINT('',#425);
#236=VERTEX_POINT('',#428);
#237=VERTEX_POINT('',#431);
#238=VERTEX_POINT('',#434);
#239=VERTEX_POINT('',#437);
#240=VERTEX_POINT('',#440);
#241=VERTEX_POINT('',#443);
#242=VERTEX_POINT('',#446);
#243=VERTEX_POINT('',#449);
#244=VERTEX_POINT('',#517);
#245=EDGE_CURVE('',#232,#232,#257,.T.);
#246=EDGE_CURVE('',#233,#233,#258,.T.);
#247=EDGE_CURVE('',#234,#234,#259,.T.);
#248=EDGE_CURVE('',#235,#235,#260,.T.);
#249=EDGE_CURVE('',#236,#236,#261,.T.);
#250=EDGE_CURVE('',#237,#237,#262,.T.);
#251=EDGE_CURVE('',#238,#238,#263,.T.);
#252=EDGE_CURVE('',#239,#239,#264,.T.);
#253=EDGE_CURVE('',#240,#240,#265,.T.);
#254=EDGE_CURVE('',#241,#241,#266,.T.);
#255=EDGE_CURVE('',#242,#242,#267,.T.);
#256=EDGE_CURVE('',#243,#243,#268,.T.);
#257=CIRCLE('',#270,6.);
#258=CIRCLE('',#271,6.);
#259=CIRCLE('',#272,30.5);
#260=CIRCLE('',#274,32.5);
#261=CIRCLE('',#276,32.5);
#262=CIRCLE('',#278,32.3);
#263=CIRCLE('',#280,32.3);
#264=CIRCLE('',#282,34.6395555688103);
#265=CIRCLE('',#284,46.3302222155949);
#266=CIRCLE('',#286,47.5);
#267=CIRCLE('',#288,47.4999999999983);
#268=CIRCLE('',#290,39.4978389944067);
#269=AXIS2_PLACEMENT_3D('',#339,#292,#293);
#270=AXIS2_PLACEMENT_3D('',#340,#294,#295);
#271=AXIS2_PLACEMENT_3D('',#342,#296,#297);
#272=AXIS2_PLACEMENT_3D('',#421,#298,#299);
#273=AXIS2_PLACEMENT_3D('',#423,#300,#301);
#274=AXIS2_PLACEMENT_3D('',#424,#302,#303);
#275=AXIS2_PLACEMENT_3D('',#426,#304,#305);
#276=AXIS2_PLACEMENT_3D('',#427,#306,#307);
#277=AXIS2_PLACEMENT_3D('',#429,#308,#309);
#278=AXIS2_PLACEMENT_3D('',#430,#310,#311);
#279=AXIS2_PLACEMENT_3D('',#432,#312,#313);
#280=AXIS2_PLACEMENT_3D('',#433,#314,#315);
#281=AXIS2_PLACEMENT_3D('',#435,#316,#317);
#282=AXIS2_PLACEMENT_3D('',#436,#318,#319);
#283=AXIS2_PLACEMENT_3D('',#438,#320,#321);
#284=AXIS2_PLACEMENT_3D('',#439,#322,#323);
#285=AXIS2_PLACEMENT_3D('',#441,#324,#325);
#286=AXIS2_PLACEMENT_3D('',#442,#326,#327);
#287=AXIS2_PLACEMENT_3D('',#444,#328,#329);
#288=AXIS2_PLACEMENT_3D('',#445,#330,#331);
#289=AXIS2_PLACEMENT_3D('',#447,#332,#333);
#290=AXIS2_PLACEMENT_3D('',#448,#334,#335);
#291=AXIS2_PLACEMENT_3D('',#518,#337,#338);
#292=DIRECTION('',(0.,0.,1.));
#293=DIRECTION('',(1.,0.,0.));
#294=DIRECTION('',(0.121869343405147,0.990853254312448,0.0579455913459276));
#295=DIRECTION('',(0.992489739031157,-0.122276998029893,0.00352897586603299));
#296=DIRECTION('',(0.121869343405147,-0.0865060970576294,0.988769213876451));
#297=DIRECTION('',(0.992489739031157,0.,-0.122327911442424));
#298=DIRECTION('',(-1.,0.,0.));
#299=DIRECTION('',(0.,0.,1.));
#300=DIRECTION('',(-1.,0.,0.));
#301=DIRECTION('',(0.,0.,1.));
#302=DIRECTION('',(-1.,0.,0.));
#303=DIRECTION('',(0.,0.,1.));
#304=DIRECTION('',(-1.,0.,0.));
#305=DIRECTION('',(0.,0.,1.));
#306=DIRECTION('',(-1.,0.,0.));
#307=DIRECTION('',(0.,0.,1.));
#308=DIRECTION('',(-1.,0.,0.));
#309=DIRECTION('',(0.,0.,1.));
#310=DIRECTION('',(-1.,0.,0.));
#311=DIRECTION('',(0.,0.,1.));
#312=DIRECTION('',(1.,0.,0.));
#313=DIRECTION('',(5.68901438145438E-17,0.,-1.));
#314=DIRECTION('',(-1.,0.,0.));
#315=DIRECTION('',(0.,0.,1.));
#316=DIRECTION('',(-1.,0.,0.));
#317=DIRECTION('',(0.,0.,1.));
#318=DIRECTION('',(-1.,0.,0.));
#319=DIRECTION('',(0.,0.,1.));
#320=DIRECTION('',(-1.,0.,0.));
#321=DIRECTION('',(0.,0.,1.));
#322=DIRECTION('',(-1.,0.,0.));
#323=DIRECTION('',(0.,0.,1.));
#324=DIRECTION('',(-1.,0.,0.));
#325=DIRECTION('',(-2.3824823273917E-17,0.,1.));
#326=DIRECTION('',(-1.,0.,0.));
#327=DIRECTION('',(0.,0.,1.));
#328=DIRECTION('',(-1.,0.,0.));
#329=DIRECTION('',(0.,0.,1.));
#330=DIRECTION('',(-1.,0.,0.));
#331=DIRECTION('',(0.,0.,1.));
#332=DIRECTION('',(-1.,0.,0.));
#333=DIRECTION('',(0.,0.,1.));
#334=DIRECTION('',(-1.,0.,0.));
#335=DIRECTION('',(0.,0.,1.));
#336=DIRECTION('',(-1.,0.,0.));
#337=DIRECTION('',(-1.,0.,0.));
#338=DIRECTION('',(-9.18883029730664E-18,0.,1.));
#339=CARTESIAN_POINT('',(0.,0.,0.));
#340=CARTESIAN_POINT('',(5.95527690984794,0.541404926937618,44.0096876297872));
#341=CARTESIAN_POINT('',(11.9102153440349,-0.192257061241738,44.0308614849834));
#342=CARTESIAN_POINT('',(5.95527690984794,-44.0069893211441,-0.728433562560782));
#343=CARTESIAN_POINT('',(11.9102153440349,-44.0069893211441,-1.46240103121532));
#344=CARTESIAN_POINT('',(11.9102153440349,-44.0069893211441,-1.46240103121532));
#345=CARTESIAN_POINT('',(11.9102153440349,-42.4923668353177,-47.0408532728229));
#346=CARTESIAN_POINT('',(11.9102153440349,0.0794250965049716,-63.391141396543));
#347=CARTESIAN_POINT('',(11.9102153440349,31.7143907206911,-30.5442490021074));
#348=CARTESIAN_POINT('',(11.9102153440349,63.3493563448772,2.30264339232826));
#349=CARTESIAN_POINT('',(11.9102153440349,45.4109198047093,44.2299839293745));
#350=CARTESIAN_POINT('',(11.9102153440349,-0.192257061241745,44.0308614849835));
#351=CARTESIAN_POINT('',(12.037200666196,-32.0519734656654,-0.432124066895357));
#352=CARTESIAN_POINT('',(12.037200666196,-31.604418510208,-33.6286540815535));
#353=CARTESIAN_POINT('',(12.037200666196,-0.853004830659076,-46.1410666051841));
#354=CARTESIAN_POINT('',(12.037200666196,22.644795835986,-22.6876388326203));
#355=CARTESIAN_POINT('',(12.037200666196,46.1425965026311,0.765788939943556));
#356=CARTESIAN_POINT('',(12.037200666196,33.688331668447,31.5407982476962));
#357=CARTESIAN_POINT('',(12.037200666196,0.492706909093132,32.0510994219331));
#358=CARTESIAN_POINT('',(0.12732379782213,-32.0519734656654,1.03581087041373));
#359=CARTESIAN_POINT('',(0.12732379782213,-33.1247725145611,-32.1607191442444));
#360=CARTESIAN_POINT('',(0.12732379782213,-2.96528962696047,-46.0735224119519));
#361=CARTESIAN_POINT('',(0.12732379782213,21.5919433620438,-23.7105438371472));
#362=CARTESIAN_POINT('',(0.12732379782213,46.1491763510479,-1.34756526234251));
#363=CARTESIAN_POINT('',(0.12732379782213,35.1117957233378,29.9787293109463));
#364=CARTESIAN_POINT('',(0.12732379782213,1.96003088545185,32.0087517115407));
#365=CARTESIAN_POINT('',(0.000338475660983592,-44.0069893211441,0.0055339060937616));
#366=CARTESIAN_POINT('',(0.000338475660983592,-44.0127208396709,-45.5729183355138));
#367=CARTESIAN_POINT('',(0.000338475660983592,-2.03285969979642,-63.3235972033108));
#368=CARTESIAN_POINT('',(0.000338475660983592,30.6615382467488,-31.5671540066344));
#369=CARTESIAN_POINT('',(0.000338475660983592,63.355936193294,0.1892891900422));
#370=CARTESIAN_POINT('',(0.000338475660983592,46.8343838596002,42.6679149926247));
#371=CARTESIAN_POINT('',(0.000338475660983592,1.27506691511696,43.988513774591));
#372=CARTESIAN_POINT('',(-0.126646846500163,-55.9620051766228,-1.02474305822621));
#373=CARTESIAN_POINT('',(-0.126646846500162,-54.9006691647807,-58.985117526783));
#374=CARTESIAN_POINT('',(-0.126646846500162,-1.10042977263238,-80.5736719946696));
#375=CARTESIAN_POINT('',(-0.126646846500163,39.7311331314539,-39.4237641761214));
#376=CARTESIAN_POINT('',(-0.126646846500162,80.5626960355402,1.72614364242689));
#377=CARTESIAN_POINT('',(-0.126646846500162,58.5569719958623,55.3571006743028));
#378=CARTESIAN_POINT('',(-0.126646846500163,0.590102944782088,55.9682758376413));
#379=CARTESIAN_POINT('',(11.7832300218737,-55.9620051766228,-2.49267799553529));
#380=CARTESIAN_POINT('',(11.7832300218737,-53.3803151604275,-60.4530524640922));
#381=CARTESIAN_POINT('',(11.7832300218737,1.01185502366901,-80.6412161879018));
#382=CARTESIAN_POINT('',(11.7832300218737,40.7839856053961,-38.4008591715945));
#383=CARTESIAN_POINT('',(11.7832300218737,80.5561161871232,3.83949784471297));
#384=CARTESIAN_POINT('',(11.7832300218737,57.1335079409714,56.9191696110527));
#385=CARTESIAN_POINT('',(11.7832300218737,-0.877221031576627,56.0106235480338));
#386=CARTESIAN_POINT('',(11.9102153440349,-44.0069893211441,-1.46240103121532));
#387=CARTESIAN_POINT('',(11.9102153440349,-42.4923668353177,-47.0408532728229));
#388=CARTESIAN_POINT('',(11.9102153440349,0.0794250965049716,-63.391141396543));
#389=CARTESIAN_POINT('',(11.9102153440349,31.7143907206911,-30.5442490021074));
#390=CARTESIAN_POINT('',(11.9102153440349,63.3493563448772,2.30264339232826));
#391=CARTESIAN_POINT('',(11.9102153440349,45.4109198047093,44.2299839293745));
#392=CARTESIAN_POINT('',(11.9102153440349,-0.192257061241745,44.0308614849835));
#393=CARTESIAN_POINT('',(11.9102153440349,-0.192257061241739,44.0308614849834));
#394=CARTESIAN_POINT('',(11.9102153440349,-26.5789198110567,43.9156463366724));
#395=CARTESIAN_POINT('',(11.9102153440349,-44.8833719653679,24.9099556906209));
#396=CARTESIAN_POINT('',(11.9102153440349,-44.0069893211441,-1.46240103121532));
#397=CARTESIAN_POINT('',(12.037200666196,0.492706909093138,32.0510994219331));
#398=CARTESIAN_POINT('',(12.037200666196,-18.7147653656833,32.3463671184141));
#399=CARTESIAN_POINT('',(12.037200666196,-32.3109352855048,18.7758720017932));
#400=CARTESIAN_POINT('',(12.037200666196,-32.0519734656654,-0.432124066895354));
#401=CARTESIAN_POINT('',(0.12732379782213,1.96003088545185,32.0087517115407));
#402=CARTESIAN_POINT('',(0.12732379782213,-17.2220633995541,33.1833522578253));
#403=CARTESIAN_POINT('',(0.12732379782213,-31.4312363011309,20.2438069391023));
#404=CARTESIAN_POINT('',(0.12732379782213,-32.0519734656654,1.03581087041373));
#405=CARTESIAN_POINT('',(0.000338475660983592,1.27506691511698,43.988513774591));
#406=CARTESIAN_POINT('',(0.000338475660983592,-25.0862178449276,44.7526314760835));
#407=CARTESIAN_POINT('',(0.000338475660983592,-44.003672980994,26.3778906279299));
#408=CARTESIAN_POINT('',(0.000338475660983592,-44.0069893211441,0.00553390609376626));
#409=CARTESIAN_POINT('',(-0.126646846500163,0.590102944782099,55.9682758376413));
#410=CARTESIAN_POINT('',(-0.126646846500163,-32.950372290301,56.3219106943417));
#411=CARTESIAN_POINT('',(-0.126646846500163,-56.5761096608572,32.5119743167576));
#412=CARTESIAN_POINT('',(-0.126646846500163,-55.9620051766228,-1.0247430582262));
#413=CARTESIAN_POINT('',(11.7832300218737,-0.877221031576616,56.0106235480338));
#414=CARTESIAN_POINT('',(11.7832300218737,-34.4430742564302,55.4849255549306));
#415=CARTESIAN_POINT('',(11.7832300218737,-57.4558086452312,31.0440393794486));
#416=CARTESIAN_POINT('',(11.7832300218737,-55.9620051766228,-2.49267799553529));
#417=CARTESIAN_POINT('',(11.9102153440349,-0.192257061241739,44.0308614849834));
#418=CARTESIAN_POINT('',(11.9102153440349,-26.5789198110567,43.9156463366724));
#419=CARTESIAN_POINT('',(11.9102153440349,-44.8833719653679,24.9099556906209));
#420=CARTESIAN_POINT('',(11.9102153440349,-44.0069893211441,-1.46240103121532));
#421=CARTESIAN_POINT('',(50.,0.,0.));
#422=CARTESIAN_POINT('',(50.,0.,30.5));
#423=CARTESIAN_POINT('',(50.,17.2,0.));
#424=CARTESIAN_POINT('',(48.,0.,0.));
#425=CARTESIAN_POINT('',(48.,0.,32.5));
#426=CARTESIAN_POINT('',(48.,0.,0.));
#427=CARTESIAN_POINT('',(40.,0.,0.));
#428=CARTESIAN_POINT('',(40.,0.,32.5));
#429=CARTESIAN_POINT('',(0.,0.,0.));
#430=CARTESIAN_POINT('',(39.6535898384862,0.,0.));
#431=CARTESIAN_POINT('',(39.6535898384862,0.,32.3));
#432=CARTESIAN_POINT('',(40.,0.,0.));
#433=CARTESIAN_POINT('',(39.,0.,0.));
#434=CARTESIAN_POINT('',(39.,0.,32.3));
#435=CARTESIAN_POINT('',(0.,0.,0.));
#436=CARTESIAN_POINT('',(32.5721239031346,0.,0.));
#437=CARTESIAN_POINT('',(32.5721239031346,0.,34.6395555688103));
#438=CARTESIAN_POINT('',(39.,0.,0.));
#439=CARTESIAN_POINT('',(18.6397299270077,0.,0.));
#440=CARTESIAN_POINT('',(18.6397299270077,0.,46.3302222155949));
#441=CARTESIAN_POINT('',(32.5721239031346,0.,0.));
#442=CARTESIAN_POINT('',(15.425791878575,0.,0.));
#443=CARTESIAN_POINT('',(15.425791878575,0.,47.5));
#444=CARTESIAN_POINT('',(15.425791878575,0.,0.));
#445=CARTESIAN_POINT('',(8.69759593894125,0.,0.));
#446=CARTESIAN_POINT('',(8.69759593894125,0.,47.4999999999983));
#447=CARTESIAN_POINT('',(0.,0.,0.));
#448=CARTESIAN_POINT('',(3.5,0.,0.));
#449=CARTESIAN_POINT('',(3.5,0.,39.4978389944067));
#450=CARTESIAN_POINT('',(0.668167530949744,44.1703487762396,0.));
#451=CARTESIAN_POINT('',(0.67490316465401,43.5338877408491,0.));
#452=CARTESIAN_POINT('',(0.709116262676963,43.2192182268677,0.));
#453=CARTESIAN_POINT('',(0.83906027987282,42.597018736217,0.));
#454=CARTESIAN_POINT('',(0.933748656616166,42.2955400465699,0.));
#455=CARTESIAN_POINT('',(1.17854496495079,41.7175433710801,0.));
#456=CARTESIAN_POINT('',(1.33066212312663,41.4374405872526,0.));
#457=CARTESIAN_POINT('',(1.68598676454309,40.9139819420715,0.));
#458=CARTESIAN_POINT('',(1.88693865990755,40.6727539754347,0.));
#459=CARTESIAN_POINT('',(2.33490767842014,40.2308483590231,0.));
#460=CARTESIAN_POINT('',(2.58445117250601,40.0291201452,0.));
#461=CARTESIAN_POINT('',(3.11042141570864,39.6840283324731,0.));
#462=CARTESIAN_POINT('',(3.3885461008292,39.5383170484704,0.));
#463=CARTESIAN_POINT('',(3.97577168770541,39.3017993048017,0.));
#464=CARTESIAN_POINT('',(4.28157377242461,39.2130111228595,0.));
#465=CARTESIAN_POINT('',(4.89858122312269,39.0983130314413,0.));
#466=CARTESIAN_POINT('',(5.21452163870335,39.0712996013038,0.));
#467=CARTESIAN_POINT('',(5.84881056511408,39.0809844248362,0.));
#468=CARTESIAN_POINT('',(6.16079873808852,39.1171631656421,0.));
#469=CARTESIAN_POINT('',(6.77478815033065,39.2502142519029,0.));
#470=CARTESIAN_POINT('',(7.07992015627181,39.3487968127771,0.));
#471=CARTESIAN_POINT('',(7.6573158630158,39.6009097119292,0.));
#472=CARTESIAN_POINT('',(7.93111343886054,39.7540170546564,0.));
#473=CARTESIAN_POINT('',(8.44895836503239,40.1142421550325,0.));
#474=CARTESIAN_POINT('',(8.69247778375932,40.3221036050875,0.));
#475=CARTESIAN_POINT('',(9.12814523231811,40.7742510117579,0.));
#476=CARTESIAN_POINT('',(9.3233926713402,41.0204407450954,0.));
#477=CARTESIAN_POINT('',(9.66733240501982,41.554283633937,0.));
#478=CARTESIAN_POINT('',(9.81164540959824,41.8356339694266,0.));
#479=CARTESIAN_POINT('',(10.0432700930478,42.4188431176735,0.));
#480=CARTESIAN_POINT('',(10.1317897336454,42.7247000908866,0.));
#481=CARTESIAN_POINT('',(10.2474405267418,43.3469794640692,0.));
#482=CARTESIAN_POINT('',(10.2745226734456,43.6597615066894,0.));
#483=CARTESIAN_POINT('',(10.2682977778337,44.2885516838091,0.));
#484=CARTESIAN_POINT('',(10.2339677269363,44.607480203534,0.));
#485=CARTESIAN_POINT('',(10.1058009614249,45.2237749752868,0.));
#486=CARTESIAN_POINT('',(10.0124994120742,45.5234608287398,0.));
#487=CARTESIAN_POINT('',(9.7665319160727,46.1056407049773,0.));
#488=CARTESIAN_POINT('',(9.61388850232406,46.3861119056821,0.));
#489=CARTESIAN_POINT('',(9.26140502680525,46.9055977979525,0.));
#490=CARTESIAN_POINT('',(9.05979296997383,47.1483213512083,0.));
#491=CARTESIAN_POINT('',(8.60686555240907,47.5944532035568,0.));
#492=CARTESIAN_POINT('',(8.36204472084586,47.7916865128729,0.));
#493=CARTESIAN_POINT('',(7.83689780519384,48.136189223986,0.));
#494=CARTESIAN_POINT('',(7.55310997827581,48.2846120371501,0.));
#495=CARTESIAN_POINT('',(6.96779419738334,48.519841410029,0.));
#496=CARTESIAN_POINT('',(6.66651335894668,48.6075537559468,0.));
#497=CARTESIAN_POINT('',(6.04671946545342,48.7232212035217,0.));
#498=CARTESIAN_POINT('',(5.72740824532719,48.7503386295392,0.));
#499=CARTESIAN_POINT('',(5.09937495768404,48.7413826155758,0.));
#500=CARTESIAN_POINT('',(4.78712540443625,48.7062315794526,0.));
#501=CARTESIAN_POINT('',(4.166272916978,48.5726317602431,0.));
#502=CARTESIAN_POINT('',(3.86527374070097,48.4755235191547,0.));
#503=CARTESIAN_POINT('',(3.28967450299681,48.2256490306025,0.));
#504=CARTESIAN_POINT('',(3.01117895022986,48.0707658450822,0.));
#505=CARTESIAN_POINT('',(2.49142123088891,47.709968467879,0.));
#506=CARTESIAN_POINT('',(2.25247134121627,47.5064796035952,0.));
#507=CARTESIAN_POINT('',(1.81549946968467,47.0543475945342,0.));
#508=CARTESIAN_POINT('',(1.61620293538242,46.8029186499309,0.));
#509=CARTESIAN_POINT('',(1.27537826942534,46.2739159404239,0.));
#510=CARTESIAN_POINT('',(1.13174092490746,45.994941569439,0.));
#511=CARTESIAN_POINT('',(0.898495268792135,45.4077878449323,0.));
#512=CARTESIAN_POINT('',(0.810205258420943,45.1008118378926,0.));
#513=CARTESIAN_POINT('',(0.695730558206484,44.483653555215,0.));
#514=CARTESIAN_POINT('',(0.668167530949744,44.1703487762396,0.));
#515=CARTESIAN_POINT('',(0.67490316465401,43.5338877408491,0.));
#516=CARTESIAN_POINT('',(0.,0.,0.));
#517=CARTESIAN_POINT('',(10.4645346943927,0.,0.));
#518=CARTESIAN_POINT('',(3.5,0.,0.));
#519=(
GEOMETRIC_REPRESENTATION_CONTEXT(3)
GLOBAL_UNCERTAINTY_ASSIGNED_CONTEXT((#520))
GLOBAL_UNIT_ASSIGNED_CONTEXT((#526,#522,#521))
REPRESENTATION_CONTEXT('model1','TOP_LEVEL_ASSEMBLY_PART')
);
#520=UNCERTAINTY_MEASURE_WITH_UNIT(LENGTH_MEASURE(2.E-5),#526,
'DISTANCE_ACCURACY_VALUE','Maximum Tolerance applied to model');
#521=(
NAMED_UNIT(*)
SI_UNIT($,.STERADIAN.)
SOLID_ANGLE_UNIT()
);
#522=(
CONVERSION_BASED_UNIT('DEGREE',#524)
NAMED_UNIT(#523)
PLANE_ANGLE_UNIT()
);
#523=DIMENSIONAL_EXPONENTS(0.,0.,0.,0.,0.,0.,0.);
#524=PLANE_ANGLE_MEASURE_WITH_UNIT(PLANE_ANGLE_MEASURE(0.0174532925),#525);
#525=(
NAMED_UNIT(*)
PLANE_ANGLE_UNIT()
SI_UNIT($,.RADIAN.)
);
#526=(
LENGTH_UNIT()
NAMED_UNIT(*)
SI_UNIT(.MILLI.,.METRE.)
);
ENDSEC;
END-ISO-10303-21;
