ISO-10303-21;
HEADER;
/* Generated by software containing ST-Developer
 * from STEP Tools, Inc. (www.steptools.com) 
 */
/* OPTION: using custom schema-name function */

FILE_DESCRIPTION(
/* description */ (''),
/* implementation_level */ '2;1');

FILE_NAME(
/* name */ 'model1.stp',
/* time_stamp */ '2023-11-06T16:16:18+03:00',
/* author */ (''),
/* organization */ (''),
/* preprocessor_version */ 'ST-DEVELOPER v19.4',
/* originating_system */ 'SIEMENS PLM Software NX2306.3001',
/* authorisation */ '');

FILE_SCHEMA (('AUTOMOTIVE_DESIGN { 1 0 10303 214 3 1 1 1 }'));
ENDSEC;

DATA;
#10=PROPERTY_DEFINITION_REPRESENTATION(#14,#12);
#11=PROPERTY_DEFINITION_REPRESENTATION(#15,#13);
#12=REPRESENTATION('',(#16),#483);
#13=REPRESENTATION('',(#17),#483);
#14=PROPERTY_DEFINITION('pmi validation property','',#21);
#15=PROPERTY_DEFINITION('pmi validation property','',#21);
#16=VALUE_REPRESENTATION_ITEM('number of annotations',COUNT_MEASURE(0.));
#17=VALUE_REPRESENTATION_ITEM('number of views',COUNT_MEASURE(0.));
#18=SHAPE_REPRESENTATION_RELATIONSHIP('None',
'relationship between model1_objects-None and model1_objects-None',#30,
#19);
#19=ADVANCED_BREP_SHAPE_REPRESENTATION('model1_objects-None',(#125,#126),
#483);
#20=SHAPE_DEFINITION_REPRESENTATION(#21,#30);
#21=PRODUCT_DEFINITION_SHAPE('','',#22);
#22=PRODUCT_DEFINITION(' ','',#24,#23);
#23=PRODUCT_DEFINITION_CONTEXT('part definition',#29,'design');
#24=PRODUCT_DEFINITION_FORMATION_WITH_SPECIFIED_SOURCE(' ',' ',#26,
 .NOT_KNOWN.);
#25=PRODUCT_RELATED_PRODUCT_CATEGORY('part','',(#26));
#26=PRODUCT('model1_objects','model1_objects',' ',(#27));
#27=PRODUCT_CONTEXT(' ',#29,'mechanical');
#28=APPLICATION_PROTOCOL_DEFINITION('international standard',
'automotive_design',2010,#29);
#29=APPLICATION_CONTEXT(
'core data for automotive mechanical design processes');
#30=SHAPE_REPRESENTATION('model1_objects-None',(#233),#483);
#31=OVER_RIDING_STYLED_ITEM('',(#60),#131,#57);
#32=OVER_RIDING_STYLED_ITEM('',(#61),#132,#57);
#33=OVER_RIDING_STYLED_ITEM('',(#62),#133,#57);
#34=OVER_RIDING_STYLED_ITEM('',(#63),#134,#57);
#35=OVER_RIDING_STYLED_ITEM('',(#64),#135,#57);
#36=OVER_RIDING_STYLED_ITEM('',(#65),#136,#57);
#37=OVER_RIDING_STYLED_ITEM('',(#66),#137,#57);
#38=OVER_RIDING_STYLED_ITEM('',(#67),#138,#57);
#39=OVER_RIDING_STYLED_ITEM('',(#68),#139,#57);
#40=COLOUR_RGB('Medium Steel',0.611764705882353,0.658823529411765,0.670588235294118);
#41=COLOUR_RGB('silver gray',0.6,0.6,0.6);
#42=CONICAL_SURFACE('',#251,11.1333593773829,85.0000000016191);
#43=VERTEX_LOOP('',#212);
#44=SURFACE_OF_REVOLUTION('',#46,#45);
#45=AXIS1_PLACEMENT('',#480,#288);
#46=B_SPLINE_CURVE_WITH_KNOTS('',3,(#396,#397,#398,#399,#400,#401,#402,
#403,#404,#405,#406,#407,#408,#409,#410,#411,#412,#413,#414,#415,#416,#417,
#418,#419,#420,#421,#422,#423,#424,#425,#426,#427,#428,#429,#430,#431,#432,
#433,#434,#435,#436,#437,#438,#439,#440,#441,#442,#443,#444,#445,#446,#447,
#448,#449,#450,#451,#452,#453,#454,#455,#456,#457,#458,#459,#460,#461,#462,
#463,#464,#465,#466,#467,#468,#469,#470,#471,#472,#473,#474,#475,#476,#477,
#478,#479),.UNSPECIFIED.,.T.,.F.,(2,2,2,2,2,2,2,2,2,2,2,2,2,2,2,2,2,2,2,
2,2,2,2,2,2,2,2,2,2,2,2,2,2,2,2,2,2,2,2,2,2,2,2,2),(-0.03125,0.,0.03125,
0.0625,0.093750000000001,0.125000000000001,0.140625000000002,0.15625,0.1875,
0.218750000000003,0.234375000000003,0.25,0.281250000000003,0.296875000000003,
0.312500000000004,0.343750000000004,0.375000000000004,0.406250000000004,
0.437500000000005,0.453125,0.46875,0.5,0.515625,0.53125,0.5625,0.59375,
0.609375,0.625,0.65625,0.6875,0.71875,0.734375,0.75,0.78125,0.8125,0.828125,
0.84375,0.875,0.90625,0.9375,0.953125,0.96875,1.,1.03125),.UNSPECIFIED.);
#47=TOROIDAL_SURFACE('',#241,19.5,1.5);
#48=TOROIDAL_SURFACE('',#243,16.,5.);
#49=TOROIDAL_SURFACE('',#245,60.,40.);
#50=TOROIDAL_SURFACE('',#247,17.5,5.);
#51=PLANE('',#240);
#52=FACE_OUTER_BOUND('',#168,.T.);
#53=CYLINDRICAL_SURFACE('',#238,21.);
#54=CYLINDRICAL_SURFACE('',#249,22.5);
#55=PRESENTATION_LAYER_ASSIGNMENT('1','Layer 1',(#125,#126));
#56=STYLED_ITEM('',(#58),#125);
#57=STYLED_ITEM('',(#59),#126);
#58=PRESENTATION_STYLE_ASSIGNMENT((#69));
#59=PRESENTATION_STYLE_ASSIGNMENT((#70));
#60=PRESENTATION_STYLE_ASSIGNMENT((#71));
#61=PRESENTATION_STYLE_ASSIGNMENT((#72));
#62=PRESENTATION_STYLE_ASSIGNMENT((#73));
#63=PRESENTATION_STYLE_ASSIGNMENT((#74));
#64=PRESENTATION_STYLE_ASSIGNMENT((#75));
#65=PRESENTATION_STYLE_ASSIGNMENT((#76));
#66=PRESENTATION_STYLE_ASSIGNMENT((#77));
#67=PRESENTATION_STYLE_ASSIGNMENT((#78));
#68=PRESENTATION_STYLE_ASSIGNMENT((#79));
#69=SURFACE_STYLE_USAGE(.BOTH.,#80);
#70=SURFACE_STYLE_USAGE(.BOTH.,#81);
#71=SURFACE_STYLE_USAGE(.BOTH.,#82);
#72=SURFACE_STYLE_USAGE(.BOTH.,#83);
#73=SURFACE_STYLE_USAGE(.BOTH.,#84);
#74=SURFACE_STYLE_USAGE(.BOTH.,#85);
#75=SURFACE_STYLE_USAGE(.BOTH.,#86);
#76=SURFACE_STYLE_USAGE(.BOTH.,#87);
#77=SURFACE_STYLE_USAGE(.BOTH.,#88);
#78=SURFACE_STYLE_USAGE(.BOTH.,#89);
#79=SURFACE_STYLE_USAGE(.BOTH.,#90);
#80=SURFACE_SIDE_STYLE('',(#91));
#81=SURFACE_SIDE_STYLE('',(#92));
#82=SURFACE_SIDE_STYLE('',(#93));
#83=SURFACE_SIDE_STYLE('',(#94));
#84=SURFACE_SIDE_STYLE('',(#95));
#85=SURFACE_SIDE_STYLE('',(#96));
#86=SURFACE_SIDE_STYLE('',(#97));
#87=SURFACE_SIDE_STYLE('',(#98));
#88=SURFACE_SIDE_STYLE('',(#99));
#89=SURFACE_SIDE_STYLE('',(#100));
#90=SURFACE_SIDE_STYLE('',(#101));
#91=SURFACE_STYLE_FILL_AREA(#102);
#92=SURFACE_STYLE_FILL_AREA(#103);
#93=SURFACE_STYLE_FILL_AREA(#104);
#94=SURFACE_STYLE_FILL_AREA(#105);
#95=SURFACE_STYLE_FILL_AREA(#106);
#96=SURFACE_STYLE_FILL_AREA(#107);
#97=SURFACE_STYLE_FILL_AREA(#108);
#98=SURFACE_STYLE_FILL_AREA(#109);
#99=SURFACE_STYLE_FILL_AREA(#110);
#100=SURFACE_STYLE_FILL_AREA(#111);
#101=SURFACE_STYLE_FILL_AREA(#112);
#102=FILL_AREA_STYLE('',(#113));
#103=FILL_AREA_STYLE('',(#114));
#104=FILL_AREA_STYLE('',(#115));
#105=FILL_AREA_STYLE('',(#116));
#106=FILL_AREA_STYLE('',(#117));
#107=FILL_AREA_STYLE('',(#118));
#108=FILL_AREA_STYLE('',(#119));
#109=FILL_AREA_STYLE('',(#120));
#110=FILL_AREA_STYLE('',(#121));
#111=FILL_AREA_STYLE('',(#122));
#112=FILL_AREA_STYLE('',(#123));
#113=FILL_AREA_STYLE_COLOUR('',#124);
#114=FILL_AREA_STYLE_COLOUR('',#40);
#115=FILL_AREA_STYLE_COLOUR('',#41);
#116=FILL_AREA_STYLE_COLOUR('',#41);
#117=FILL_AREA_STYLE_COLOUR('',#41);
#118=FILL_AREA_STYLE_COLOUR('',#41);
#119=FILL_AREA_STYLE_COLOUR('',#41);
#120=FILL_AREA_STYLE_COLOUR('',#41);
#121=FILL_AREA_STYLE_COLOUR('',#41);
#122=FILL_AREA_STYLE_COLOUR('',#41);
#123=FILL_AREA_STYLE_COLOUR('',#41);
#124=DRAUGHTING_PRE_DEFINED_COLOUR('yellow');
#125=MANIFOLD_SOLID_BREP('',#127);
#126=MANIFOLD_SOLID_BREP('',#128);
#127=CLOSED_SHELL('',(#129,#130));
#128=CLOSED_SHELL('',(#131,#132,#133,#134,#135,#136,#137,#138,#139));
#129=ADVANCED_FACE('',(#142,#143),#140,.F.);
#130=ADVANCED_FACE('',(#144,#145),#141,.F.);
#131=ADVANCED_FACE('',(#146,#147),#53,.T.);
#132=ADVANCED_FACE('',(#52),#51,.F.);
#133=ADVANCED_FACE('',(#148,#149),#47,.T.);
#134=ADVANCED_FACE('',(#150,#151),#48,.T.);
#135=ADVANCED_FACE('',(#152,#153),#49,.F.);
#136=ADVANCED_FACE('',(#154,#155),#50,.T.);
#137=ADVANCED_FACE('',(#156,#157),#54,.T.);
#138=ADVANCED_FACE('',(#158,#159),#44,.T.);
#139=ADVANCED_FACE('',(#160,#161),#42,.F.);
#140=(
BOUNDED_SURFACE()
B_SPLINE_SURFACE(3,3,((#296,#297,#298,#299,#300,#301,#302),(#303,#304,#305,
#306,#307,#308,#309),(#310,#311,#312,#313,#314,#315,#316),(#317,#318,#319,
#320,#321,#322,#323),(#324,#325,#326,#327,#328,#329,#330),(#331,#332,#333,
#334,#335,#336,#337),(#338,#339,#340,#341,#342,#343,#344)),
 .UNSPECIFIED.,.T.,.F.,.F.)
B_SPLINE_SURFACE_WITH_KNOTS((1,3,3,3,1),(4,3,4),(-0.5,0.,0.5,1.,1.5),(0.,
0.5,1.),.UNSPECIFIED.)
GEOMETRIC_REPRESENTATION_ITEM()
RATIONAL_B_SPLINE_SURFACE(((1.,0.585234021606878,0.585234021606878,1.,0.585234021606878,
0.585234021606878,1.),(0.333333333333334,0.195078007202292,0.195078007202292,
0.333333333333334,0.195078007202292,0.195078007202292,0.333333333333334),
(0.333333333333334,0.195078007202292,0.195078007202292,0.333333333333334,
0.195078007202292,0.195078007202292,0.333333333333334),(1.,0.585234021606878,
0.585234021606878,1.,0.585234021606878,0.585234021606878,1.),(0.333333333333334,
0.195078007202292,0.195078007202292,0.333333333333334,0.195078007202292,
0.195078007202292,0.333333333333334),(0.333333333333334,0.195078007202292,
0.195078007202292,0.333333333333334,0.195078007202292,0.195078007202292,
0.333333333333334),(1.,0.585234021606878,0.585234021606878,1.,0.585234021606878,
0.585234021606878,1.)))
REPRESENTATION_ITEM('')
SURFACE()
);
#141=(
BOUNDED_SURFACE()
B_SPLINE_SURFACE(3,3,((#345,#346,#347,#348),(#349,#350,#351,#352),(#353,
#354,#355,#356),(#357,#358,#359,#360),(#361,#362,#363,#364),(#365,#366,
#367,#368),(#369,#370,#371,#372)),.UNSPECIFIED.,.T.,.F.,.F.)
B_SPLINE_SURFACE_WITH_KNOTS((1,3,3,3,1),(4,4),(-0.5,0.,0.5,1.,1.5),(0.,
1.),.UNSPECIFIED.)
GEOMETRIC_REPRESENTATION_ITEM()
RATIONAL_B_SPLINE_SURFACE(((1.,0.809638129741944,0.809638129741944,1.),
(0.333333333333334,0.269879376580648,0.269879376580648,0.333333333333334),
(0.333333333333334,0.269879376580648,0.269879376580648,0.333333333333334),
(1.,0.809638129741944,0.809638129741944,1.),(0.333333333333334,0.269879376580648,
0.269879376580648,0.333333333333334),(0.333333333333334,0.269879376580648,
0.269879376580648,0.333333333333334),(1.,0.809638129741944,0.809638129741944,
1.)))
REPRESENTATION_ITEM('')
SURFACE()
);
#142=FACE_BOUND('',#162,.T.);
#143=FACE_BOUND('',#163,.T.);
#144=FACE_BOUND('',#164,.T.);
#145=FACE_BOUND('',#165,.T.);
#146=FACE_BOUND('',#166,.T.);
#147=FACE_BOUND('',#167,.T.);
#148=FACE_BOUND('',#169,.T.);
#149=FACE_BOUND('',#170,.T.);
#150=FACE_BOUND('',#171,.T.);
#151=FACE_BOUND('',#172,.T.);
#152=FACE_BOUND('',#173,.T.);
#153=FACE_BOUND('',#174,.T.);
#154=FACE_BOUND('',#175,.T.);
#155=FACE_BOUND('',#176,.T.);
#156=FACE_BOUND('',#177,.T.);
#157=FACE_BOUND('',#178,.T.);
#158=FACE_BOUND('',#179,.T.);
#159=FACE_BOUND('',#180,.T.);
#160=FACE_BOUND('',#181,.T.);
#161=FACE_BOUND('',#43,.T.);
#162=EDGE_LOOP('',(#182));
#163=EDGE_LOOP('',(#183));
#164=EDGE_LOOP('',(#184));
#165=EDGE_LOOP('',(#185));
#166=EDGE_LOOP('',(#186));
#167=EDGE_LOOP('',(#187));
#168=EDGE_LOOP('',(#188));
#169=EDGE_LOOP('',(#189));
#170=EDGE_LOOP('',(#190));
#171=EDGE_LOOP('',(#191));
#172=EDGE_LOOP('',(#192));
#173=EDGE_LOOP('',(#193));
#174=EDGE_LOOP('',(#194));
#175=EDGE_LOOP('',(#195));
#176=EDGE_LOOP('',(#196));
#177=EDGE_LOOP('',(#197));
#178=EDGE_LOOP('',(#198));
#179=EDGE_LOOP('',(#199));
#180=EDGE_LOOP('',(#200));
#181=EDGE_LOOP('',(#201));
#182=ORIENTED_EDGE('',*,*,#213,.T.);
#183=ORIENTED_EDGE('',*,*,#214,.F.);
#184=ORIENTED_EDGE('',*,*,#214,.T.);
#185=ORIENTED_EDGE('',*,*,#213,.F.);
#186=ORIENTED_EDGE('',*,*,#215,.T.);
#187=ORIENTED_EDGE('',*,*,#216,.F.);
#188=ORIENTED_EDGE('',*,*,#217,.F.);
#189=ORIENTED_EDGE('',*,*,#217,.T.);
#190=ORIENTED_EDGE('',*,*,#215,.F.);
#191=ORIENTED_EDGE('',*,*,#218,.F.);
#192=ORIENTED_EDGE('',*,*,#216,.T.);
#193=ORIENTED_EDGE('',*,*,#219,.F.);
#194=ORIENTED_EDGE('',*,*,#218,.T.);
#195=ORIENTED_EDGE('',*,*,#220,.F.);
#196=ORIENTED_EDGE('',*,*,#219,.T.);
#197=ORIENTED_EDGE('',*,*,#221,.F.);
#198=ORIENTED_EDGE('',*,*,#220,.T.);
#199=ORIENTED_EDGE('',*,*,#222,.F.);
#200=ORIENTED_EDGE('',*,*,#221,.T.);
#201=ORIENTED_EDGE('',*,*,#222,.T.);
#202=VERTEX_POINT('',#293);
#203=VERTEX_POINT('',#295);
#204=VERTEX_POINT('',#374);
#205=VERTEX_POINT('',#376);
#206=VERTEX_POINT('',#379);
#207=VERTEX_POINT('',#383);
#208=VERTEX_POINT('',#386);
#209=VERTEX_POINT('',#389);
#210=VERTEX_POINT('',#392);
#211=VERTEX_POINT('',#395);
#212=VERTEX_POINT('',#481);
#213=EDGE_CURVE('',#202,#202,#223,.T.);
#214=EDGE_CURVE('',#203,#203,#224,.T.);
#215=EDGE_CURVE('',#204,#204,#225,.T.);
#216=EDGE_CURVE('',#205,#205,#226,.T.);
#217=EDGE_CURVE('',#206,#206,#227,.T.);
#218=EDGE_CURVE('',#207,#207,#228,.T.);
#219=EDGE_CURVE('',#208,#208,#229,.T.);
#220=EDGE_CURVE('',#209,#209,#230,.T.);
#221=EDGE_CURVE('',#210,#210,#231,.T.);
#222=EDGE_CURVE('',#211,#211,#232,.T.);
#223=CIRCLE('',#234,8.);
#224=CIRCLE('',#235,8.);
#225=CIRCLE('',#236,21.);
#226=CIRCLE('',#237,21.);
#227=CIRCLE('',#239,19.5);
#228=CIRCLE('',#242,20.8888888888889);
#229=CIRCLE('',#244,22.2222222222222);
#230=CIRCLE('',#246,22.5);
#231=CIRCLE('',#248,22.5);
#232=CIRCLE('',#250,11.1333593773829);
#233=AXIS2_PLACEMENT_3D('',#291,#252,#253);
#234=AXIS2_PLACEMENT_3D('',#292,#254,#255);
#235=AXIS2_PLACEMENT_3D('',#294,#256,#257);
#236=AXIS2_PLACEMENT_3D('',#373,#258,#259);
#237=AXIS2_PLACEMENT_3D('',#375,#260,#261);
#238=AXIS2_PLACEMENT_3D('',#377,#262,#263);
#239=AXIS2_PLACEMENT_3D('',#378,#264,#265);
#240=AXIS2_PLACEMENT_3D('',#380,#266,#267);
#241=AXIS2_PLACEMENT_3D('',#381,#268,#269);
#242=AXIS2_PLACEMENT_3D('',#382,#270,#271);
#243=AXIS2_PLACEMENT_3D('',#384,#272,#273);
#244=AXIS2_PLACEMENT_3D('',#385,#274,#275);
#245=AXIS2_PLACEMENT_3D('',#387,#276,#277);
#246=AXIS2_PLACEMENT_3D('',#388,#278,#279);
#247=AXIS2_PLACEMENT_3D('',#390,#280,#281);
#248=AXIS2_PLACEMENT_3D('',#391,#282,#283);
#249=AXIS2_PLACEMENT_3D('',#393,#284,#285);
#250=AXIS2_PLACEMENT_3D('',#394,#286,#287);
#251=AXIS2_PLACEMENT_3D('',#482,#289,#290);
#252=DIRECTION('',(0.,0.,1.));
#253=DIRECTION('',(1.,0.,0.));
#254=DIRECTION('',(0.0871557427476584,0.995977138618053,0.0208186420378593));
#255=DIRECTION('',(0.996194698091746,-0.0871367087600676,-0.00182139516831685));
#256=DIRECTION('',(0.0871557427476584,0.,0.996194698091746));
#257=DIRECTION('',(0.996194698091746,0.,-0.0871557427476584));
#258=DIRECTION('',(-1.,0.,0.));
#259=DIRECTION('',(0.,0.,1.));
#260=DIRECTION('',(-1.,0.,0.));
#261=DIRECTION('',(0.,0.,1.));
#262=DIRECTION('',(-1.,0.,0.));
#263=DIRECTION('',(0.,0.,1.));
#264=DIRECTION('',(-1.,0.,0.));
#265=DIRECTION('',(0.,0.,1.));
#266=DIRECTION('',(-1.,0.,0.));
#267=DIRECTION('',(0.,0.,1.));
#268=DIRECTION('',(-1.,0.,0.));
#269=DIRECTION('',(0.,0.,1.));
#270=DIRECTION('',(-1.,0.,0.));
#271=DIRECTION('',(0.,0.,1.));
#272=DIRECTION('',(-1.,0.,0.));
#273=DIRECTION('',(0.,0.,1.));
#274=DIRECTION('',(-1.,0.,0.));
#275=DIRECTION('',(0.,0.,1.));
#276=DIRECTION('',(-1.,0.,0.));
#277=DIRECTION('',(0.,0.,1.));
#278=DIRECTION('',(-1.,0.,0.));
#279=DIRECTION('',(0.,0.,1.));
#280=DIRECTION('',(-1.,0.,0.));
#281=DIRECTION('',(0.,0.,1.));
#282=DIRECTION('',(-1.,0.,0.));
#283=DIRECTION('',(0.,0.,1.));
#284=DIRECTION('',(-1.,0.,0.));
#285=DIRECTION('',(0.,0.,1.));
#286=DIRECTION('',(-1.,0.,0.));
#287=DIRECTION('',(0.,0.,1.));
#288=DIRECTION('',(-1.,0.,0.));
#289=DIRECTION('',(-1.,0.,0.));
#290=DIRECTION('',(-2.57755620377761E-18,0.,1.));
#291=CARTESIAN_POINT('',(0.,0.,0.));
#292=CARTESIAN_POINT('',(7.96955758473396,0.447580263058436,17.0001302737915));
#293=CARTESIAN_POINT('',(15.9391151694679,-0.249513407022104,16.985559112445));
#294=CARTESIAN_POINT('',(7.96955758473396,-16.987064,0.802754058018734));
#295=CARTESIAN_POINT('',(15.9391151694679,-16.987064,0.105508116037467));
#296=CARTESIAN_POINT('',(15.939115169468,-16.987064,0.105508116037467));
#297=CARTESIAN_POINT('',(15.9391151694679,-17.0983430397677,-17.8106886789234));
#298=CARTESIAN_POINT('',(15.9391151694679,-0.55238524717382,-24.6833716591111));
#299=CARTESIAN_POINT('',(15.939115169468,12.0627082608921,-11.9608755831356));
#300=CARTESIAN_POINT('',(15.9391151694679,24.6778017689581,0.761620492839861));
#301=CARTESIAN_POINT('',(15.9391151694679,17.665096188315,17.2487200273146));
#302=CARTESIAN_POINT('',(15.939115169468,-0.249513407022104,16.9855591124449));
#303=CARTESIAN_POINT('',(15.9391151694679,-0.987063999999995,0.105508116037466));
#304=CARTESIAN_POINT('',(15.9391151694679,-1.09834303976772,-0.935544821257715));
#305=CARTESIAN_POINT('',(15.9391151694679,-0.176514000823786,-1.43193727275377));
#306=CARTESIAN_POINT('',(15.9391151694679,0.631393147085482,-0.766009136015529));
#307=CARTESIAN_POINT('',(15.9391151694679,1.43930029499475,-0.10008099927729));
#308=CARTESIAN_POINT('',(15.9391151694679,1.1280083559092,0.899554720174006));
#309=CARTESIAN_POINT('',(15.9391151694679,0.0848572468709672,0.98905336069357));
#310=CARTESIAN_POINT('',(-1.51746831460062E-15,-0.987063999999995,1.5));
#311=CARTESIAN_POINT('',(-1.51746831460062E-15,-2.56910873665616,0.458947062704819));
#312=CARTESIAN_POINT('',(-1.51746831460062E-15,-2.20301003471521,-1.39917793510064));
#313=CARTESIAN_POINT('',(-1.51746831460062E-15,-0.34430375307411,-1.76231389534188));
#314=CARTESIAN_POINT('',(-1.51746831460062E-15,1.51440252856699,-2.12544985558312));
#315=CARTESIAN_POINT('',(-1.51746831460062E-15,2.55293200155729,-0.541747452742586));
#316=CARTESIAN_POINT('',(-1.51746831460062E-15,1.47904458703205,1.01819568338664));
#317=CARTESIAN_POINT('',(-3.46944695195361E-15,-16.987064,1.5));
#318=CARTESIAN_POINT('',(-3.46944695195361E-15,-18.5691087366562,-16.4161967949609));
#319=CARTESIAN_POINT('',(-3.46944695195361E-15,-2.57888128106524,-24.650612321458));
#320=CARTESIAN_POINT('',(-3.46944695195361E-15,11.0870113607325,-12.957180342462));
#321=CARTESIAN_POINT('',(-3.46944695195361E-15,24.7529040025303,-1.26374836346597));
#322=CARTESIAN_POINT('',(-3.46944695195361E-15,19.0900198339631,15.807417854398));
#323=CARTESIAN_POINT('',(-3.46944695195361E-15,1.14467393313898,17.0147014351381));
#324=CARTESIAN_POINT('',(-5.42142558930661E-15,-32.987064,1.5));
#325=CARTESIAN_POINT('',(-5.4214255893066E-15,-34.5691087366562,-33.2913406526267));
#326=CARTESIAN_POINT('',(-5.4214255893066E-15,-2.95475252741528,-47.9020467078154));
#327=CARTESIAN_POINT('',(-5.42142558930661E-15,22.5183264745392,-24.1520467895821));
#328=CARTESIAN_POINT('',(-5.4214255893066E-15,47.9914054764937,-0.402046871348819));
#329=CARTESIAN_POINT('',(-5.4214255893066E-15,35.6271076663689,32.1565831615386));
#330=CARTESIAN_POINT('',(-5.42142558930661E-15,0.81030327924591,33.0112071868894));
#331=CARTESIAN_POINT('',(15.9391151694679,-32.987064,0.105508116037466));
#332=CARTESIAN_POINT('',(15.9391151694679,-33.0983430397677,-34.6858325365892));
#333=CARTESIAN_POINT('',(15.9391151694679,-0.928256493523853,-47.9348060454685));
#334=CARTESIAN_POINT('',(15.9391151694679,23.4940233746988,-23.1557420302557));
#335=CARTESIAN_POINT('',(15.9391151694679,47.9163032429215,1.62332198495702));
#336=CARTESIAN_POINT('',(15.9391151694679,34.2021840207208,33.5978853344552));
#337=CARTESIAN_POINT('',(15.9391151694679,-0.583884060915178,32.9820648641963));
#338=CARTESIAN_POINT('',(15.939115169468,-16.987064,0.105508116037467));
#339=CARTESIAN_POINT('',(15.9391151694679,-17.0983430397677,-17.8106886789234));
#340=CARTESIAN_POINT('',(15.9391151694679,-0.55238524717382,-24.6833716591111));
#341=CARTESIAN_POINT('',(15.939115169468,12.0627082608921,-11.9608755831356));
#342=CARTESIAN_POINT('',(15.9391151694679,24.6778017689581,0.761620492839861));
#343=CARTESIAN_POINT('',(15.9391151694679,17.665096188315,17.2487200273146));
#344=CARTESIAN_POINT('',(15.939115169468,-0.249513407022104,16.9855591124449));
#345=CARTESIAN_POINT('',(15.939115169468,-0.249513407022104,16.9855591124449));
#346=CARTESIAN_POINT('',(15.9391151694679,-10.0353186744369,16.8418082004754));
#347=CARTESIAN_POINT('',(15.9391151694679,-16.9262781365003,9.89218038679697));
#348=CARTESIAN_POINT('',(15.939115169468,-16.987064,0.105508116037467));
#349=CARTESIAN_POINT('',(15.9391151694679,0.0848572468709672,0.98905336069357));
#350=CARTESIAN_POINT('',(15.9391151694679,-0.484961121941987,1.0379417421658));
#351=CARTESIAN_POINT('',(15.9391151694679,-0.926278136500338,0.674180364418054));
#352=CARTESIAN_POINT('',(15.9391151694679,-0.987063999999995,0.105508116037466));
#353=CARTESIAN_POINT('',(-1.51746831460062E-15,1.47904458703205,1.01819568338664));
#354=CARTESIAN_POINT('',(-1.51746831460062E-15,0.892436597516788,1.8703102481592));
#355=CARTESIAN_POINT('',(-1.51746831460062E-15,-0.122876497901972,2.06867224838059));
#356=CARTESIAN_POINT('',(-1.51746831460062E-15,-0.987063999999995,1.5));
#357=CARTESIAN_POINT('',(-3.46944695195361E-15,1.14467393313898,17.0147014351381));
#358=CARTESIAN_POINT('',(-3.46944695195362E-15,-8.65792095497808,17.6741767064688));
#359=CARTESIAN_POINT('',(-3.46944695195362E-15,-16.122876497902,11.2866722707595));
#360=CARTESIAN_POINT('',(-3.46944695195361E-15,-16.987064,1.5));
#361=CARTESIAN_POINT('',(-5.42142558930661E-15,0.810303279245905,33.0112071868894));
#362=CARTESIAN_POINT('',(-5.42142558930661E-15,-18.2082785074729,33.4780431647783));
#363=CARTESIAN_POINT('',(-5.42142558930661E-15,-32.122876497902,20.5046722931384));
#364=CARTESIAN_POINT('',(-5.42142558930661E-15,-32.987064,1.5));
#365=CARTESIAN_POINT('',(15.9391151694679,-0.583884060915175,32.9820648641963));
#366=CARTESIAN_POINT('',(15.9391151694679,-19.5856762269318,32.6456746587849));
#367=CARTESIAN_POINT('',(15.9391151694679,-32.9262781365004,19.1101804091759));
#368=CARTESIAN_POINT('',(15.9391151694679,-32.987064,0.105508116037467));
#369=CARTESIAN_POINT('',(15.939115169468,-0.249513407022104,16.9855591124449));
#370=CARTESIAN_POINT('',(15.9391151694679,-10.0353186744369,16.8418082004754));
#371=CARTESIAN_POINT('',(15.9391151694679,-16.9262781365003,9.89218038679697));
#372=CARTESIAN_POINT('',(15.939115169468,-16.987064,0.105508116037467));
#373=CARTESIAN_POINT('',(48.5,0.,0.));
#374=CARTESIAN_POINT('',(48.5,0.,21.));
#375=CARTESIAN_POINT('',(42.,0.,0.));
#376=CARTESIAN_POINT('',(42.,0.,21.));
#377=CARTESIAN_POINT('',(0.,0.,0.));
#378=CARTESIAN_POINT('',(50.,0.,0.));
#379=CARTESIAN_POINT('',(50.,0.,19.5));
#380=CARTESIAN_POINT('',(50.,12.,0.));
#381=CARTESIAN_POINT('',(48.5,0.,0.));
#382=CARTESIAN_POINT('',(40.951779874216,0.,0.));
#383=CARTESIAN_POINT('',(40.951779874216,0.,20.8888888888889));
#384=CARTESIAN_POINT('',(42.,0.,0.));
#385=CARTESIAN_POINT('',(19.4191749054999,0.,0.));
#386=CARTESIAN_POINT('',(19.4191749054999,0.,22.2222222222222));
#387=CARTESIAN_POINT('',(32.5660188679434,0.,0.));
#388=CARTESIAN_POINT('',(17.7758194101944,0.,0.));
#389=CARTESIAN_POINT('',(17.7758194101944,0.,22.5));
#390=CARTESIAN_POINT('',(17.7758194101944,0.,0.));
#391=CARTESIAN_POINT('',(11.7705680537425,0.,0.));
#392=CARTESIAN_POINT('',(11.7705680537425,0.,22.5));
#393=CARTESIAN_POINT('',(0.,0.,0.));
#394=CARTESIAN_POINT('',(6.50000000009124,0.,0.));
#395=CARTESIAN_POINT('',(6.50000000009124,0.,11.1333593773829));
#396=CARTESIAN_POINT('',(0.955342863053685,17.7471422901008,0.));
#397=CARTESIAN_POINT('',(0.955342863053685,16.8858940298062,0.));
#398=CARTESIAN_POINT('',(0.998733383729388,16.457350148581,0.));
#399=CARTESIAN_POINT('',(1.17233178491323,15.6156130171638,0.));
#400=CARTESIAN_POINT('',(1.300597344235,15.2099958704819,0.));
#401=CARTESIAN_POINT('',(1.63919417685103,14.4289455293589,0.));
#402=CARTESIAN_POINT('',(1.85265009403525,14.0502843158804,0.));
#403=CARTESIAN_POINT('',(2.34636536367636,13.3568241285301,0.));
#404=CARTESIAN_POINT('',(2.62729120512509,13.0383837831052,0.));
#405=CARTESIAN_POINT('',(3.10062889475928,12.6038609063406,0.));
#406=CARTESIAN_POINT('',(3.26744334093723,12.4662391586121,0.));
#407=CARTESIAN_POINT('',(3.61019834108779,12.2122204345076,0.));
#408=CARTESIAN_POINT('',(3.78710705652834,12.0948624799355,0.));
#409=CARTESIAN_POINT('',(4.33387994699907,11.7707885504621,0.));
#410=CARTESIAN_POINT('',(4.7205129043702,11.5915324698398,0.));
#411=CARTESIAN_POINT('',(5.53335349305941,11.3094467665911,0.));
#412=CARTESIAN_POINT('',(5.94662679848918,11.2108561192505,0.));
#413=CARTESIAN_POINT('',(6.57593451401882,11.1211862391465,0.));
#414=CARTESIAN_POINT('',(6.78728276221678,11.1010777373659,0.));
#415=CARTESIAN_POINT('',(7.2131323878335,11.0803933573701,0.));
#416=CARTESIAN_POINT('',(7.42876298473006,11.0798946153907,0.));
#417=CARTESIAN_POINT('',(8.07083039711289,11.1079282328717,0.));
#418=CARTESIAN_POINT('',(8.49183022056517,11.1651308479196,0.));
#419=CARTESIAN_POINT('',(9.11317679704188,11.3064390279067,0.));
#420=CARTESIAN_POINT('',(9.31858694056354,11.3628645636245,0.));
#421=CARTESIAN_POINT('',(9.72590772857331,11.4948463411674,0.));
#422=CARTESIAN_POINT('',(9.92792056258272,11.5705741843828,0.));
#423=CARTESIAN_POINT('',(10.5168463437031,11.8223903573035,0.));
#424=CARTESIAN_POINT('',(10.8908438948744,12.0240401670296,0.));
#425=CARTESIAN_POINT('',(11.6007368833288,12.4964495334524,0.));
#426=CARTESIAN_POINT('',(11.9375175099204,12.7692232586853,0.));
#427=CARTESIAN_POINT('',(12.5440459898927,13.3658828744711,0.));
#428=CARTESIAN_POINT('',(12.817533162043,13.6917452466796,0.));
#429=CARTESIAN_POINT('',(13.3012131232521,14.401993438835,0.));
#430=CARTESIAN_POINT('',(13.5052992686232,14.7781008915516,0.));
#431=CARTESIAN_POINT('',(13.7514198923647,15.3659548307213,0.));
#432=CARTESIAN_POINT('',(13.8236541038721,15.5662637451625,0.));
#433=CARTESIAN_POINT('',(13.9479289930876,15.9758552027511,0.));
#434=CARTESIAN_POINT('',(13.9999542493187,16.1857332023835,0.));
#435=CARTESIAN_POINT('',(14.1218217610708,16.8147253431578,0.));
#436=CARTESIAN_POINT('',(14.1594064476856,17.2376255333459,0.));
#437=CARTESIAN_POINT('',(14.1504602425181,17.8773202797398,0.));
#438=CARTESIAN_POINT('',(14.1363343288529,18.0926956490899,0.));
#439=CARTESIAN_POINT('',(14.0860918993589,18.5185038423082,0.));
#440=CARTESIAN_POINT('',(14.0501843252444,18.7285344049714,0.));
#441=CARTESIAN_POINT('',(13.9111054231312,19.3502726676841,0.));
#442=CARTESIAN_POINT('',(13.7768938680525,19.7537111136538,0.));
#443=CARTESIAN_POINT('',(13.4230705600771,20.5378370143586,0.));
#444=CARTESIAN_POINT('',(13.2085763634417,20.9066619162316,0.));
#445=CARTESIAN_POINT('',(12.8357143132839,21.4226106586012,0.));
#446=CARTESIAN_POINT('',(12.7027242345109,21.5885826512001,0.));
#447=CARTESIAN_POINT('',(12.4190651831242,21.9083159324998,0.));
#448=CARTESIAN_POINT('',(12.2676329988044,22.0626582903083,0.));
#449=CARTESIAN_POINT('',(11.7963208031551,22.4973529697052,0.));
#450=CARTESIAN_POINT('',(11.4573822809764,22.7526838961239,0.));
#451=CARTESIAN_POINT('',(10.731287712475,23.1961473651325,0.));
#452=CARTESIAN_POINT('',(10.3404168239447,23.3849054756523,0.));
#453=CARTESIAN_POINT('',(9.54202200667957,23.6785905137674,0.));
#454=CARTESIAN_POINT('',(9.1315169896202,23.7860849107348,0.));
#455=CARTESIAN_POINT('',(8.49870764495267,23.8879897274759,0.));
#456=CARTESIAN_POINT('',(8.28393602645951,23.9119822404212,0.));
#457=CARTESIAN_POINT('',(7.85726180373978,23.9388822394314,0.));
#458=CARTESIAN_POINT('',(7.64455174055563,23.9420118268342,0.));
#459=CARTESIAN_POINT('',(7.00825635770151,23.9212020142147,0.));
#460=CARTESIAN_POINT('',(6.58648871750122,23.8673459316727,0.));
#461=CARTESIAN_POINT('',(5.74797987238331,23.6769050616313,0.));
#462=CARTESIAN_POINT('',(5.34300626374424,23.5428094609109,0.));
#463=CARTESIAN_POINT('',(4.76008067689483,23.2870350729871,0.));
#464=CARTESIAN_POINT('',(4.56965684933987,23.1925533090563,0.));
#465=CARTESIAN_POINT('',(4.19671512041547,22.9848183578398,0.));
#466=CARTESIAN_POINT('',(4.01328675100819,22.8708805692051,0.));
#467=CARTESIAN_POINT('',(3.48470279377202,22.5063610381333,0.));
#468=CARTESIAN_POINT('',(3.15961830945591,22.2330468740019,0.));
#469=CARTESIAN_POINT('',(2.56314272315538,21.6268330641899,0.));
#470=CARTESIAN_POINT('',(2.2897997464287,21.2901399132395,0.));
#471=CARTESIAN_POINT('',(1.81893287941197,20.5801893281898,0.));
#472=CARTESIAN_POINT('',(1.61897608638725,20.2055880530359,0.));
#473=CARTESIAN_POINT('',(1.37328231623751,19.6136793206017,0.));
#474=CARTESIAN_POINT('',(1.30024091144641,19.4102992663024,0.));
#475=CARTESIAN_POINT('',(1.17558772949291,19.0011216565342,0.));
#476=CARTESIAN_POINT('',(1.12362341954321,18.794750026152,0.));
#477=CARTESIAN_POINT('',(0.998353367702463,18.1703664834794,0.));
#478=CARTESIAN_POINT('',(0.955342863053685,17.7471422901008,0.));
#479=CARTESIAN_POINT('',(0.955342863053685,16.8858940298062,0.));
#480=CARTESIAN_POINT('',(0.,0.,0.));
#481=CARTESIAN_POINT('',(7.47404273225527,0.,0.));
#482=CARTESIAN_POINT('',(6.50000000009124,0.,0.));
#483=(
GEOMETRIC_REPRESENTATION_CONTEXT(3)
GLOBAL_UNCERTAINTY_ASSIGNED_CONTEXT((#484))
GLOBAL_UNIT_ASSIGNED_CONTEXT((#490,#486,#485))
REPRESENTATION_CONTEXT('model1','TOP_LEVEL_ASSEMBLY_PART')
);
#484=UNCERTAINTY_MEASURE_WITH_UNIT(LENGTH_MEASURE(2.E-5),#490,
'DISTANCE_ACCURACY_VALUE','Maximum Tolerance applied to model');
#485=(
NAMED_UNIT(*)
SI_UNIT($,.STERADIAN.)
SOLID_ANGLE_UNIT()
);
#486=(
CONVERSION_BASED_UNIT('DEGREE',#488)
NAMED_UNIT(#487)
PLANE_ANGLE_UNIT()
);
#487=DIMENSIONAL_EXPONENTS(0.,0.,0.,0.,0.,0.,0.);
#488=PLANE_ANGLE_MEASURE_WITH_UNIT(PLANE_ANGLE_MEASURE(0.0174532925),#489);
#489=(
NAMED_UNIT(*)
PLANE_ANGLE_UNIT()
SI_UNIT($,.RADIAN.)
);
#490=(
LENGTH_UNIT()
NAMED_UNIT(*)
SI_UNIT(.MILLI.,.METRE.)
);
ENDSEC;
END-ISO-10303-21;
