ISO-10303-21;
HEADER;
/* Generated by software containing ST-Developer
 * from STEP Tools, Inc. (www.steptools.com) 
 */
/* OPTION: using custom schema-name function */

FILE_DESCRIPTION(
/* description */ (''),
/* implementation_level */ '2;1');

FILE_NAME(
/* name */ 'AHFM-SP0735-D20-C20-L160-Z03-H.stp',
/* time_stamp */ '2023-10-31T11:00:36+03:00',
/* author */ (''),
/* organization */ (''),
/* preprocessor_version */ 'ST-DEVELOPER v19.4',
/* originating_system */ 'SIEMENS PLM Software NX2306.5001',
/* authorisation */ '');

FILE_SCHEMA (('AUTOMOTIVE_DESIGN { 1 0 10303 214 3 1 1 1 }'));
ENDSEC;

DATA;
#10=PROPERTY_DEFINITION_REPRESENTATION(#14,#12);
#11=PROPERTY_DEFINITION_REPRESENTATION(#15,#13);
#12=REPRESENTATION('',(#16),#685);
#13=REPRESENTATION('',(#17),#685);
#14=PROPERTY_DEFINITION('pmi validation property','',#21);
#15=PROPERTY_DEFINITION('pmi validation property','',#21);
#16=VALUE_REPRESENTATION_ITEM('number of annotations',COUNT_MEASURE(0.));
#17=VALUE_REPRESENTATION_ITEM('number of views',COUNT_MEASURE(0.));
#18=SHAPE_REPRESENTATION_RELATIONSHIP('None',
'relationship between AHFM-SP0735-D20-C20-L160-Z03-H-LIGHT_objects-Non
e and AHFM-SP0735-D20-C20-L160-Z03-H-LIGHT_objects-None',#30,#19);
#19=ADVANCED_BREP_SHAPE_REPRESENTATION(
'AHFM-SP0735-D20-C20-L160-Z03-H-LIGHT_objects-None',(#101,#102),#685);
#20=SHAPE_DEFINITION_REPRESENTATION(#21,#30);
#21=PRODUCT_DEFINITION_SHAPE('','',#22);
#22=PRODUCT_DEFINITION(' ','',#24,#23);
#23=PRODUCT_DEFINITION_CONTEXT('part definition',#29,'design');
#24=PRODUCT_DEFINITION_FORMATION_WITH_SPECIFIED_SOURCE(' ',' ',#26,
 .NOT_KNOWN.);
#25=PRODUCT_RELATED_PRODUCT_CATEGORY('part','',(#26));
#26=PRODUCT('AHFM-SP0735-D20-C20-L160-Z03-H-LIGHT_objects',
'AHFM-SP0735-D20-C20-L160-Z03-H-LIGHT_objects',' ',(#27));
#27=PRODUCT_CONTEXT(' ',#29,'mechanical');
#28=APPLICATION_PROTOCOL_DEFINITION('international standard',
'automotive_design',2010,#29);
#29=APPLICATION_CONTEXT(
'core data for automotive mechanical design processes');
#30=SHAPE_REPRESENTATION(
'AHFM-SP0735-D20-C20-L160-Z03-H-LIGHT_objects-None',(#402),#685);
#31=DRAUGHTING_PRE_DEFINED_COLOUR('yellow');
#32=B_SPLINE_CURVE_WITH_KNOTS('',3,(#607,#608,#609,#610,#611,#612,#613,
#614,#615,#616),.UNSPECIFIED.,.F.,.F.,(4,3,3,4),(0.,0.157347843804267,0.578727343814335,
1.),.UNSPECIFIED.);
#33=B_SPLINE_CURVE_WITH_KNOTS('',3,(#624,#625,#626,#627),.UNSPECIFIED.,
 .F.,.F.,(4,4),(0.,1.),.UNSPECIFIED.);
#34=B_SPLINE_CURVE_WITH_KNOTS('',3,(#643,#644,#645,#646),.UNSPECIFIED.,
 .F.,.F.,(4,4),(0.,1.),.UNSPECIFIED.);
#35=B_SPLINE_CURVE_WITH_KNOTS('',3,(#662,#663,#664,#665),.UNSPECIFIED.,
 .F.,.F.,(4,4),(0.,1.),.UNSPECIFIED.);
#36=B_SPLINE_CURVE_WITH_KNOTS('',3,(#679,#680,#681,#682),.UNSPECIFIED.,
 .F.,.F.,(4,4),(0.,1.),.UNSPECIFIED.);
#37=SURFACE_OF_REVOLUTION('',#69,#53);
#38=SURFACE_OF_REVOLUTION('',#32,#54);
#39=SURFACE_OF_REVOLUTION('',#70,#55);
#40=SURFACE_OF_REVOLUTION('',#33,#56);
#41=SURFACE_OF_REVOLUTION('',#71,#57);
#42=SURFACE_OF_REVOLUTION('',#390,#58);
#43=SURFACE_OF_REVOLUTION('',#72,#59);
#44=SURFACE_OF_REVOLUTION('',#34,#60);
#45=SURFACE_OF_REVOLUTION('',#73,#61);
#46=SURFACE_OF_REVOLUTION('',#395,#62);
#47=SURFACE_OF_REVOLUTION('',#74,#63);
#48=SURFACE_OF_REVOLUTION('',#35,#64);
#49=SURFACE_OF_REVOLUTION('',#75,#65);
#50=SURFACE_OF_REVOLUTION('',#400,#66);
#51=SURFACE_OF_REVOLUTION('',#76,#67);
#52=SURFACE_OF_REVOLUTION('',#36,#68);
#53=AXIS1_PLACEMENT('',#604,#504);
#54=AXIS1_PLACEMENT('',#617,#507);
#55=AXIS1_PLACEMENT('',#621,#511);
#56=AXIS1_PLACEMENT('',#628,#514);
#57=AXIS1_PLACEMENT('',#632,#518);
#58=AXIS1_PLACEMENT('',#636,#523);
#59=AXIS1_PLACEMENT('',#640,#527);
#60=AXIS1_PLACEMENT('',#647,#530);
#61=AXIS1_PLACEMENT('',#651,#534);
#62=AXIS1_PLACEMENT('',#655,#539);
#63=AXIS1_PLACEMENT('',#659,#543);
#64=AXIS1_PLACEMENT('',#666,#546);
#65=AXIS1_PLACEMENT('',#670,#550);
#66=AXIS1_PLACEMENT('',#674,#555);
#67=AXIS1_PLACEMENT('',#678,#559);
#68=AXIS1_PLACEMENT('',#683,#560);
#69=LINE('',#603,#77);
#70=LINE('',#620,#78);
#71=LINE('',#631,#79);
#72=LINE('',#639,#80);
#73=LINE('',#650,#81);
#74=LINE('',#658,#82);
#75=LINE('',#669,#83);
#76=LINE('',#677,#84);
#77=VECTOR('',#503,4.12760108953074);
#78=VECTOR('',#510,1.78359239065556);
#79=VECTOR('',#517,3.94538079382157);
#80=VECTOR('',#526,1.60193915035843);
#81=VECTOR('',#533,3.94538079382211);
#82=VECTOR('',#542,1.60193915038721);
#83=VECTOR('',#549,3.94538079382148);
#84=VECTOR('',#558,1.60193915038644);
#85=PRESENTATION_LAYER_ASSIGNMENT('1','Layer 1',(#101,#102));
#86=STYLED_ITEM('',(#88),#101);
#87=STYLED_ITEM('',(#89),#102);
#88=PRESENTATION_STYLE_ASSIGNMENT((#90));
#89=PRESENTATION_STYLE_ASSIGNMENT((#91));
#90=SURFACE_STYLE_USAGE(.BOTH.,#92);
#91=SURFACE_STYLE_USAGE(.BOTH.,#93);
#92=SURFACE_SIDE_STYLE('',(#94));
#93=SURFACE_SIDE_STYLE('',(#95));
#94=SURFACE_STYLE_FILL_AREA(#96);
#95=SURFACE_STYLE_FILL_AREA(#97);
#96=FILL_AREA_STYLE('',(#98));
#97=FILL_AREA_STYLE('',(#99));
#98=FILL_AREA_STYLE_COLOUR('',#100);
#99=FILL_AREA_STYLE_COLOUR('',#31);
#100=COLOUR_RGB('smoke gray',0.694117647058824,0.694117647058824,0.694117647058824);
#101=MANIFOLD_SOLID_BREP('',#103);
#102=MANIFOLD_SOLID_BREP('',#104);
#103=CLOSED_SHELL('',(#170,#171,#172,#173,#174,#175,#176,#177,#178,#179,
#180,#181,#182));
#104=CLOSED_SHELL('',(#183,#184,#185,#186,#187,#188,#189,#190,#191,#192,
#193,#194,#195,#196,#197,#198));
#105=CONICAL_SURFACE('',#410,10.,9.99999999999907);
#106=CONICAL_SURFACE('',#414,9.1198729810778,29.9999999999998);
#107=CONICAL_SURFACE('',#420,9.44247942272525,10.0688830645072);
#108=CONICAL_SURFACE('',#424,4.83470374912617,77.1412927371464);
#109=CONICAL_SURFACE('',#426,2.75,75.);
#110=CYLINDRICAL_SURFACE('',#408,9.75);
#111=CYLINDRICAL_SURFACE('',#412,10.);
#112=CYLINDRICAL_SURFACE('',#418,8.45);
#113=TOROIDAL_SURFACE('',#406,8.75000000000001,1.);
#114=TOROIDAL_SURFACE('',#416,13.45,5.);
#115=TOROIDAL_SURFACE('',#422,8.89134973465457,0.559750816086788);
#116=FACE_BOUND('',#204,.T.);
#117=FACE_BOUND('',#205,.T.);
#118=FACE_BOUND('',#206,.T.);
#119=FACE_BOUND('',#207,.T.);
#120=FACE_BOUND('',#208,.T.);
#121=FACE_BOUND('',#209,.T.);
#122=FACE_BOUND('',#210,.T.);
#123=FACE_BOUND('',#211,.T.);
#124=FACE_BOUND('',#212,.T.);
#125=FACE_BOUND('',#213,.T.);
#126=FACE_BOUND('',#214,.T.);
#127=FACE_BOUND('',#215,.T.);
#128=FACE_BOUND('',#216,.T.);
#129=FACE_BOUND('',#217,.T.);
#130=FACE_BOUND('',#218,.T.);
#131=FACE_BOUND('',#219,.T.);
#132=FACE_BOUND('',#220,.T.);
#133=FACE_BOUND('',#221,.T.);
#134=FACE_BOUND('',#222,.T.);
#135=FACE_BOUND('',#223,.T.);
#136=FACE_BOUND('',#224,.T.);
#137=FACE_BOUND('',#225,.T.);
#138=FACE_BOUND('',#227,.T.);
#139=FACE_BOUND('',#228,.T.);
#140=FACE_BOUND('',#229,.T.);
#141=FACE_BOUND('',#230,.T.);
#142=FACE_BOUND('',#231,.T.);
#143=FACE_BOUND('',#232,.T.);
#144=FACE_BOUND('',#233,.T.);
#145=FACE_BOUND('',#234,.T.);
#146=FACE_BOUND('',#235,.T.);
#147=FACE_BOUND('',#236,.T.);
#148=FACE_BOUND('',#237,.T.);
#149=FACE_BOUND('',#238,.T.);
#150=FACE_BOUND('',#239,.T.);
#151=FACE_BOUND('',#240,.T.);
#152=FACE_BOUND('',#241,.T.);
#153=FACE_BOUND('',#242,.T.);
#154=FACE_BOUND('',#243,.T.);
#155=FACE_BOUND('',#244,.T.);
#156=FACE_BOUND('',#245,.T.);
#157=FACE_BOUND('',#246,.T.);
#158=FACE_BOUND('',#247,.T.);
#159=FACE_BOUND('',#248,.T.);
#160=FACE_BOUND('',#249,.T.);
#161=FACE_BOUND('',#250,.T.);
#162=FACE_BOUND('',#251,.T.);
#163=FACE_BOUND('',#252,.T.);
#164=FACE_BOUND('',#253,.T.);
#165=FACE_BOUND('',#254,.T.);
#166=FACE_BOUND('',#255,.T.);
#167=FACE_BOUND('',#256,.T.);
#168=FACE_BOUND('',#257,.T.);
#169=FACE_BOUND('',#258,.T.);
#170=ADVANCED_FACE('',(#201),#199,.F.);
#171=ADVANCED_FACE('',(#116,#117),#113,.T.);
#172=ADVANCED_FACE('',(#118,#119),#110,.T.);
#173=ADVANCED_FACE('',(#120,#121),#105,.T.);
#174=ADVANCED_FACE('',(#122,#123),#111,.T.);
#175=ADVANCED_FACE('',(#124,#125),#106,.T.);
#176=ADVANCED_FACE('',(#126,#127),#114,.F.);
#177=ADVANCED_FACE('',(#128,#129),#112,.T.);
#178=ADVANCED_FACE('',(#130,#131),#107,.T.);
#179=ADVANCED_FACE('',(#132,#133),#115,.T.);
#180=ADVANCED_FACE('',(#134,#135),#108,.T.);
#181=ADVANCED_FACE('',(#136,#137),#109,.F.);
#182=ADVANCED_FACE('',(#202),#200,.F.);
#183=ADVANCED_FACE('',(#138,#139),#37,.F.);
#184=ADVANCED_FACE('',(#140,#141),#38,.F.);
#185=ADVANCED_FACE('',(#142,#143),#39,.F.);
#186=ADVANCED_FACE('',(#144,#145),#40,.F.);
#187=ADVANCED_FACE('',(#146,#147),#41,.F.);
#188=ADVANCED_FACE('',(#148,#149),#42,.F.);
#189=ADVANCED_FACE('',(#150,#151),#43,.F.);
#190=ADVANCED_FACE('',(#152,#153),#44,.F.);
#191=ADVANCED_FACE('',(#154,#155),#45,.F.);
#192=ADVANCED_FACE('',(#156,#157),#46,.F.);
#193=ADVANCED_FACE('',(#158,#159),#47,.F.);
#194=ADVANCED_FACE('',(#160,#161),#48,.F.);
#195=ADVANCED_FACE('',(#162,#163),#49,.F.);
#196=ADVANCED_FACE('',(#164,#165),#50,.F.);
#197=ADVANCED_FACE('',(#166,#167),#51,.F.);
#198=ADVANCED_FACE('',(#168,#169),#52,.F.);
#199=PLANE('',#404);
#200=PLANE('',#427);
#201=FACE_OUTER_BOUND('',#203,.T.);
#202=FACE_OUTER_BOUND('',#226,.T.);
#203=EDGE_LOOP('',(#259));
#204=EDGE_LOOP('',(#260));
#205=EDGE_LOOP('',(#261));
#206=EDGE_LOOP('',(#262));
#207=EDGE_LOOP('',(#263));
#208=EDGE_LOOP('',(#264));
#209=EDGE_LOOP('',(#265));
#210=EDGE_LOOP('',(#266));
#211=EDGE_LOOP('',(#267));
#212=EDGE_LOOP('',(#268));
#213=EDGE_LOOP('',(#269));
#214=EDGE_LOOP('',(#270));
#215=EDGE_LOOP('',(#271));
#216=EDGE_LOOP('',(#272));
#217=EDGE_LOOP('',(#273));
#218=EDGE_LOOP('',(#274));
#219=EDGE_LOOP('',(#275));
#220=EDGE_LOOP('',(#276));
#221=EDGE_LOOP('',(#277));
#222=EDGE_LOOP('',(#278));
#223=EDGE_LOOP('',(#279));
#224=EDGE_LOOP('',(#280));
#225=EDGE_LOOP('',(#281));
#226=EDGE_LOOP('',(#282));
#227=EDGE_LOOP('',(#283));
#228=EDGE_LOOP('',(#284));
#229=EDGE_LOOP('',(#285));
#230=EDGE_LOOP('',(#286));
#231=EDGE_LOOP('',(#287));
#232=EDGE_LOOP('',(#288));
#233=EDGE_LOOP('',(#289));
#234=EDGE_LOOP('',(#290));
#235=EDGE_LOOP('',(#291));
#236=EDGE_LOOP('',(#292));
#237=EDGE_LOOP('',(#293));
#238=EDGE_LOOP('',(#294));
#239=EDGE_LOOP('',(#295));
#240=EDGE_LOOP('',(#296));
#241=EDGE_LOOP('',(#297));
#242=EDGE_LOOP('',(#298));
#243=EDGE_LOOP('',(#299));
#244=EDGE_LOOP('',(#300));
#245=EDGE_LOOP('',(#301));
#246=EDGE_LOOP('',(#302));
#247=EDGE_LOOP('',(#303));
#248=EDGE_LOOP('',(#304));
#249=EDGE_LOOP('',(#305));
#250=EDGE_LOOP('',(#306));
#251=EDGE_LOOP('',(#307));
#252=EDGE_LOOP('',(#308));
#253=EDGE_LOOP('',(#309));
#254=EDGE_LOOP('',(#310));
#255=EDGE_LOOP('',(#311));
#256=EDGE_LOOP('',(#312));
#257=EDGE_LOOP('',(#313));
#258=EDGE_LOOP('',(#314));
#259=ORIENTED_EDGE('',*,*,#343,.T.);
#260=ORIENTED_EDGE('',*,*,#343,.F.);
#261=ORIENTED_EDGE('',*,*,#344,.T.);
#262=ORIENTED_EDGE('',*,*,#344,.F.);
#263=ORIENTED_EDGE('',*,*,#345,.T.);
#264=ORIENTED_EDGE('',*,*,#345,.F.);
#265=ORIENTED_EDGE('',*,*,#346,.T.);
#266=ORIENTED_EDGE('',*,*,#346,.F.);
#267=ORIENTED_EDGE('',*,*,#347,.T.);
#268=ORIENTED_EDGE('',*,*,#347,.F.);
#269=ORIENTED_EDGE('',*,*,#348,.T.);
#270=ORIENTED_EDGE('',*,*,#348,.F.);
#271=ORIENTED_EDGE('',*,*,#349,.T.);
#272=ORIENTED_EDGE('',*,*,#349,.F.);
#273=ORIENTED_EDGE('',*,*,#350,.T.);
#274=ORIENTED_EDGE('',*,*,#350,.F.);
#275=ORIENTED_EDGE('',*,*,#351,.T.);
#276=ORIENTED_EDGE('',*,*,#351,.F.);
#277=ORIENTED_EDGE('',*,*,#352,.T.);
#278=ORIENTED_EDGE('',*,*,#352,.F.);
#279=ORIENTED_EDGE('',*,*,#353,.T.);
#280=ORIENTED_EDGE('',*,*,#353,.F.);
#281=ORIENTED_EDGE('',*,*,#354,.T.);
#282=ORIENTED_EDGE('',*,*,#354,.F.);
#283=ORIENTED_EDGE('',*,*,#355,.T.);
#284=ORIENTED_EDGE('',*,*,#356,.F.);
#285=ORIENTED_EDGE('',*,*,#357,.T.);
#286=ORIENTED_EDGE('',*,*,#355,.F.);
#287=ORIENTED_EDGE('',*,*,#358,.T.);
#288=ORIENTED_EDGE('',*,*,#357,.F.);
#289=ORIENTED_EDGE('',*,*,#359,.T.);
#290=ORIENTED_EDGE('',*,*,#358,.F.);
#291=ORIENTED_EDGE('',*,*,#360,.T.);
#292=ORIENTED_EDGE('',*,*,#359,.F.);
#293=ORIENTED_EDGE('',*,*,#361,.T.);
#294=ORIENTED_EDGE('',*,*,#360,.F.);
#295=ORIENTED_EDGE('',*,*,#362,.T.);
#296=ORIENTED_EDGE('',*,*,#361,.F.);
#297=ORIENTED_EDGE('',*,*,#363,.T.);
#298=ORIENTED_EDGE('',*,*,#362,.F.);
#299=ORIENTED_EDGE('',*,*,#364,.T.);
#300=ORIENTED_EDGE('',*,*,#363,.F.);
#301=ORIENTED_EDGE('',*,*,#365,.T.);
#302=ORIENTED_EDGE('',*,*,#364,.F.);
#303=ORIENTED_EDGE('',*,*,#366,.T.);
#304=ORIENTED_EDGE('',*,*,#365,.F.);
#305=ORIENTED_EDGE('',*,*,#367,.T.);
#306=ORIENTED_EDGE('',*,*,#366,.F.);
#307=ORIENTED_EDGE('',*,*,#368,.T.);
#308=ORIENTED_EDGE('',*,*,#367,.F.);
#309=ORIENTED_EDGE('',*,*,#369,.T.);
#310=ORIENTED_EDGE('',*,*,#368,.F.);
#311=ORIENTED_EDGE('',*,*,#370,.T.);
#312=ORIENTED_EDGE('',*,*,#369,.F.);
#313=ORIENTED_EDGE('',*,*,#356,.T.);
#314=ORIENTED_EDGE('',*,*,#370,.F.);
#315=VERTEX_POINT('',#563);
#316=VERTEX_POINT('',#566);
#317=VERTEX_POINT('',#569);
#318=VERTEX_POINT('',#572);
#319=VERTEX_POINT('',#575);
#320=VERTEX_POINT('',#578);
#321=VERTEX_POINT('',#581);
#322=VERTEX_POINT('',#584);
#323=VERTEX_POINT('',#587);
#324=VERTEX_POINT('',#590);
#325=VERTEX_POINT('',#593);
#326=VERTEX_POINT('',#596);
#327=VERTEX_POINT('',#600);
#328=VERTEX_POINT('',#602);
#329=VERTEX_POINT('',#606);
#330=VERTEX_POINT('',#619);
#331=VERTEX_POINT('',#623);
#332=VERTEX_POINT('',#630);
#333=VERTEX_POINT('',#634);
#334=VERTEX_POINT('',#638);
#335=VERTEX_POINT('',#642);
#336=VERTEX_POINT('',#649);
#337=VERTEX_POINT('',#653);
#338=VERTEX_POINT('',#657);
#339=VERTEX_POINT('',#661);
#340=VERTEX_POINT('',#668);
#341=VERTEX_POINT('',#672);
#342=VERTEX_POINT('',#676);
#343=EDGE_CURVE('',#315,#315,#371,.T.);
#344=EDGE_CURVE('',#316,#316,#372,.T.);
#345=EDGE_CURVE('',#317,#317,#373,.T.);
#346=EDGE_CURVE('',#318,#318,#374,.T.);
#347=EDGE_CURVE('',#319,#319,#375,.T.);
#348=EDGE_CURVE('',#320,#320,#376,.T.);
#349=EDGE_CURVE('',#321,#321,#377,.T.);
#350=EDGE_CURVE('',#322,#322,#378,.T.);
#351=EDGE_CURVE('',#323,#323,#379,.T.);
#352=EDGE_CURVE('',#324,#324,#380,.T.);
#353=EDGE_CURVE('',#325,#325,#381,.T.);
#354=EDGE_CURVE('',#326,#326,#382,.T.);
#355=EDGE_CURVE('',#327,#327,#383,.T.);
#356=EDGE_CURVE('',#328,#328,#384,.T.);
#357=EDGE_CURVE('',#329,#329,#385,.T.);
#358=EDGE_CURVE('',#330,#330,#386,.T.);
#359=EDGE_CURVE('',#331,#331,#387,.T.);
#360=EDGE_CURVE('',#332,#332,#388,.T.);
#361=EDGE_CURVE('',#333,#333,#389,.T.);
#362=EDGE_CURVE('',#334,#334,#391,.T.);
#363=EDGE_CURVE('',#335,#335,#392,.T.);
#364=EDGE_CURVE('',#336,#336,#393,.T.);
#365=EDGE_CURVE('',#337,#337,#394,.T.);
#366=EDGE_CURVE('',#338,#338,#396,.T.);
#367=EDGE_CURVE('',#339,#339,#397,.T.);
#368=EDGE_CURVE('',#340,#340,#398,.T.);
#369=EDGE_CURVE('',#341,#341,#399,.T.);
#370=EDGE_CURVE('',#342,#342,#401,.T.);
#371=CIRCLE('',#403,8.75000000000001);
#372=CIRCLE('',#405,9.75);
#373=CIRCLE('',#407,9.75);
#374=CIRCLE('',#409,10.);
#375=CIRCLE('',#411,10.);
#376=CIRCLE('',#413,9.1198729810778);
#377=CIRCLE('',#415,8.45);
#378=CIRCLE('',#417,8.45);
#379=CIRCLE('',#419,9.44247942272525);
#380=CIRCLE('',#421,9.01592090925184);
#381=CIRCLE('',#423,4.83470374912617);
#382=CIRCLE('',#425,2.75);
#383=CIRCLE('',#428,8.37322365753964);
#384=CIRCLE('',#429,4.3081257825656);
#385=CIRCLE('',#430,8.70206174676524);
#386=CIRCLE('',#431,9.24238408136855);
#387=CIRCLE('',#432,9.30591789945303);
#388=CIRCLE('',#433,10.0010792750734);
#389=CIRCLE('',#434,9.66288934715634);
#390=CIRCLE('',#435,0.5);
#391=CIRCLE('',#436,8.14146817729947);
#392=CIRCLE('',#437,7.88522662954142);
#393=CIRCLE('',#438,4.02823237965243);
#394=CIRCLE('',#439,3.46754424650243);
#395=CIRCLE('',#440,0.5);
#396=CIRCLE('',#441,2.96746643663712);
#397=CIRCLE('',#442,2.90152079130435);
#398=CIRCLE('',#443,2.18528899425282);
#399=CIRCLE('',#444,2.52457640948321);
#400=CIRCLE('',#445,0.5);
#401=CIRCLE('',#446,4.05087279172611);
#402=AXIS2_PLACEMENT_3D('',#561,#447,#448);
#403=AXIS2_PLACEMENT_3D('',#562,#449,#450);
#404=AXIS2_PLACEMENT_3D('',#564,#451,#452);
#405=AXIS2_PLACEMENT_3D('',#565,#453,#454);
#406=AXIS2_PLACEMENT_3D('',#567,#455,#456);
#407=AXIS2_PLACEMENT_3D('',#568,#457,#458);
#408=AXIS2_PLACEMENT_3D('',#570,#459,#460);
#409=AXIS2_PLACEMENT_3D('',#571,#461,#462);
#410=AXIS2_PLACEMENT_3D('',#573,#463,#464);
#411=AXIS2_PLACEMENT_3D('',#574,#465,#466);
#412=AXIS2_PLACEMENT_3D('',#576,#467,#468);
#413=AXIS2_PLACEMENT_3D('',#577,#469,#470);
#414=AXIS2_PLACEMENT_3D('',#579,#471,#472);
#415=AXIS2_PLACEMENT_3D('',#580,#473,#474);
#416=AXIS2_PLACEMENT_3D('',#582,#475,#476);
#417=AXIS2_PLACEMENT_3D('',#583,#477,#478);
#418=AXIS2_PLACEMENT_3D('',#585,#479,#480);
#419=AXIS2_PLACEMENT_3D('',#586,#481,#482);
#420=AXIS2_PLACEMENT_3D('',#588,#483,#484);
#421=AXIS2_PLACEMENT_3D('',#589,#485,#486);
#422=AXIS2_PLACEMENT_3D('',#591,#487,#488);
#423=AXIS2_PLACEMENT_3D('',#592,#489,#490);
#424=AXIS2_PLACEMENT_3D('',#594,#491,#492);
#425=AXIS2_PLACEMENT_3D('',#595,#493,#494);
#426=AXIS2_PLACEMENT_3D('',#597,#495,#496);
#427=AXIS2_PLACEMENT_3D('',#598,#497,#498);
#428=AXIS2_PLACEMENT_3D('',#599,#499,#500);
#429=AXIS2_PLACEMENT_3D('',#601,#501,#502);
#430=AXIS2_PLACEMENT_3D('',#605,#505,#506);
#431=AXIS2_PLACEMENT_3D('',#618,#508,#509);
#432=AXIS2_PLACEMENT_3D('',#622,#512,#513);
#433=AXIS2_PLACEMENT_3D('',#629,#515,#516);
#434=AXIS2_PLACEMENT_3D('',#633,#519,#520);
#435=AXIS2_PLACEMENT_3D('',#635,#521,#522);
#436=AXIS2_PLACEMENT_3D('',#637,#524,#525);
#437=AXIS2_PLACEMENT_3D('',#641,#528,#529);
#438=AXIS2_PLACEMENT_3D('',#648,#531,#532);
#439=AXIS2_PLACEMENT_3D('',#652,#535,#536);
#440=AXIS2_PLACEMENT_3D('',#654,#537,#538);
#441=AXIS2_PLACEMENT_3D('',#656,#540,#541);
#442=AXIS2_PLACEMENT_3D('',#660,#544,#545);
#443=AXIS2_PLACEMENT_3D('',#667,#547,#548);
#444=AXIS2_PLACEMENT_3D('',#671,#551,#552);
#445=AXIS2_PLACEMENT_3D('',#673,#553,#554);
#446=AXIS2_PLACEMENT_3D('',#675,#556,#557);
#447=DIRECTION('',(0.,0.,1.));
#448=DIRECTION('',(1.,0.,0.));
#449=DIRECTION('',(1.,0.,0.));
#450=DIRECTION('',(0.,0.,-1.));
#451=DIRECTION('',(-1.,0.,0.));
#452=DIRECTION('',(0.,0.,1.));
#453=DIRECTION('',(1.,0.,0.));
#454=DIRECTION('',(0.,0.,-1.));
#455=DIRECTION('',(1.,0.,0.));
#456=DIRECTION('',(0.,0.,-1.));
#457=DIRECTION('',(1.,0.,0.));
#458=DIRECTION('',(0.,0.,-1.));
#459=DIRECTION('',(1.,0.,0.));
#460=DIRECTION('',(0.,0.,-1.));
#461=DIRECTION('',(1.,0.,0.));
#462=DIRECTION('',(0.,0.,-1.));
#463=DIRECTION('',(-1.,0.,0.));
#464=DIRECTION('',(1.48961656063428E-16,0.,1.));
#465=DIRECTION('',(1.,0.,0.));
#466=DIRECTION('',(0.,0.,-1.));
#467=DIRECTION('',(1.,0.,0.));
#468=DIRECTION('',(0.,0.,-1.));
#469=DIRECTION('',(1.,0.,0.));
#470=DIRECTION('',(0.,0.,-1.));
#471=DIRECTION('',(1.,0.,0.));
#472=DIRECTION('',(-1.06484611312042E-16,0.,-1.));
#473=DIRECTION('',(1.,0.,0.));
#474=DIRECTION('',(0.,0.,-1.));
#475=DIRECTION('',(1.,0.,0.));
#476=DIRECTION('',(0.,0.,-1.));
#477=DIRECTION('',(1.,0.,0.));
#478=DIRECTION('',(0.,0.,-1.));
#479=DIRECTION('',(1.,0.,0.));
#480=DIRECTION('',(0.,0.,-1.));
#481=DIRECTION('',(1.,0.,0.));
#482=DIRECTION('',(0.,0.,-1.));
#483=DIRECTION('',(-1.,0.,0.));
#484=DIRECTION('',(6.95709965733195E-18,0.,1.));
#485=DIRECTION('',(1.,0.,0.));
#486=DIRECTION('',(0.,0.,-1.));
#487=DIRECTION('',(1.,0.,0.));
#488=DIRECTION('',(0.,0.,-1.));
#489=DIRECTION('',(1.,0.,0.));
#490=DIRECTION('',(0.,0.,-1.));
#491=DIRECTION('',(1.,0.,0.));
#492=DIRECTION('',(2.45737054542086E-17,0.,-1.));
#493=DIRECTION('',(1.,0.,0.));
#494=DIRECTION('',(0.,0.,-1.));
#495=DIRECTION('',(-1.,0.,0.));
#496=DIRECTION('',(-5.63176544880055E-18,0.,1.));
#497=DIRECTION('',(1.,0.,0.));
#498=DIRECTION('',(0.,0.,-1.));
#499=DIRECTION('',(1.,0.,0.));
#500=DIRECTION('',(0.,0.,-1.));
#501=DIRECTION('',(1.,0.,0.));
#502=DIRECTION('',(0.,0.,-1.));
#503=DIRECTION('',(0.17298739392494,-0.982666033038094,-0.0666545501540042));
#504=DIRECTION('',(1.,0.,0.));
#505=DIRECTION('',(1.,0.,0.));
#506=DIRECTION('',(0.,0.,-1.));
#507=DIRECTION('',(1.,0.,0.));
#508=DIRECTION('',(1.,0.,0.));
#509=DIRECTION('',(0.,0.,-1.));
#510=DIRECTION('',(-0.949475132238818,-0.30658203906919,0.0671150249963247));
#511=DIRECTION('',(1.,0.,0.));
#512=DIRECTION('',(1.,0.,0.));
#513=DIRECTION('',(0.,0.,-1.));
#514=DIRECTION('',(1.,0.,0.));
#515=DIRECTION('',(1.,0.,0.));
#516=DIRECTION('',(0.,0.,-1.));
#517=DIRECTION('',(-0.981060262190558,-0.177902280414698,0.0766259784527669));
#518=DIRECTION('',(1.,0.,0.));
#519=DIRECTION('',(1.,0.,0.));
#520=DIRECTION('',(0.,0.,-1.));
#521=DIRECTION('',(-0.0871557427462561,0.0521368021307884,-0.994829447880351));
#522=DIRECTION('',(0.300815058689282,-0.950635425944496,-0.0761747163111954));
#523=DIRECTION('',(1.,0.,0.));
#524=DIRECTION('',(1.,0.,0.));
#525=DIRECTION('',(0.,0.,-1.));
#526=DIRECTION('',(-0.301497677878999,0.950415281434254,0.0762229824253763));
#527=DIRECTION('',(1.,0.,0.));
#528=DIRECTION('',(1.,0.,0.));
#529=DIRECTION('',(0.,0.,-1.));
#530=DIRECTION('',(1.,0.,0.));
#531=DIRECTION('',(1.,0.,0.));
#532=DIRECTION('',(0.,0.,-1.));
#533=DIRECTION('',(-0.172987393924939,0.982666033038094,0.0666545501540042));
#534=DIRECTION('',(1.,0.,0.));
#535=DIRECTION('',(1.,0.,0.));
#536=DIRECTION('',(0.,0.,-1.));
#537=DIRECTION('',(-0.0871557427462561,0.0521368021307884,-0.994829447880351));
#538=DIRECTION('',(0.300815058689282,-0.950635425944496,-0.0761747163111954));
#539=DIRECTION('',(1.,0.,0.));
#540=DIRECTION('',(1.,0.,0.));
#541=DIRECTION('',(0.,0.,-1.));
#542=DIRECTION('',(0.949475132238817,0.306582039069191,-0.0671150249963253));
#543=DIRECTION('',(1.,0.,0.));
#544=DIRECTION('',(1.,0.,0.));
#545=DIRECTION('',(0.,0.,-1.));
#546=DIRECTION('',(1.,0.,0.));
#547=DIRECTION('',(1.,0.,0.));
#548=DIRECTION('',(0.,0.,-1.));
#549=DIRECTION('',(0.981060262190558,0.177902280414699,-0.0766259784527667));
#550=DIRECTION('',(1.,0.,0.));
#551=DIRECTION('',(1.,0.,0.));
#552=DIRECTION('',(0.,0.,-1.));
#553=DIRECTION('',(-0.0871557427462561,0.0521368021307884,-0.994829447880351));
#554=DIRECTION('',(0.300815058689282,-0.950635425944496,-0.0761747163111954));
#555=DIRECTION('',(1.,0.,0.));
#556=DIRECTION('',(1.,0.,0.));
#557=DIRECTION('',(0.,0.,-1.));
#558=DIRECTION('',(0.301497677878996,-0.950415281434255,-0.0762229824253761));
#559=DIRECTION('',(1.,0.,0.));
#560=DIRECTION('',(1.,0.,0.));
#561=CARTESIAN_POINT('',(0.,0.,0.));
#562=CARTESIAN_POINT('',(160.,0.,0.));
#563=CARTESIAN_POINT('',(160.,0.,-8.75000000000001));
#564=CARTESIAN_POINT('',(160.,0.,8.75));
#565=CARTESIAN_POINT('',(159.,0.,0.));
#566=CARTESIAN_POINT('',(159.,0.,-9.75));
#567=CARTESIAN_POINT('',(159.,0.,0.));
#568=CARTESIAN_POINT('',(156.,0.,0.));
#569=CARTESIAN_POINT('',(156.,0.,-9.75));
#570=CARTESIAN_POINT('',(0.,0.,0.));
#571=CARTESIAN_POINT('',(154.582179545095,0.,0.));
#572=CARTESIAN_POINT('',(154.582179545095,0.,-10.));
#573=CARTESIAN_POINT('',(154.582179545095,0.,0.));
#574=CARTESIAN_POINT('',(30.,0.,0.));
#575=CARTESIAN_POINT('',(30.,0.,-10.));
#576=CARTESIAN_POINT('',(0.,0.,0.));
#577=CARTESIAN_POINT('',(28.4755752861126,0.,0.));
#578=CARTESIAN_POINT('',(28.4755752861126,0.,-9.1198729810778));
#579=CARTESIAN_POINT('',(28.4755752861126,0.,0.));
#580=CARTESIAN_POINT('',(25.9755752861126,0.,0.));
#581=CARTESIAN_POINT('',(25.9755752861126,0.,-8.45));
#582=CARTESIAN_POINT('',(25.9755752861126,0.,0.));
#583=CARTESIAN_POINT('',(7.82876463978273,0.,0.));
#584=CARTESIAN_POINT('',(7.82876463978273,0.,-8.45));
#585=CARTESIAN_POINT('',(0.,0.,0.));
#586=CARTESIAN_POINT('',(2.23943661919301,0.,0.));
#587=CARTESIAN_POINT('',(2.23943661919301,0.,-9.44247942272525));
#588=CARTESIAN_POINT('',(2.23943661919301,0.,0.));
#589=CARTESIAN_POINT('',(1.59586095798703,0.,0.));
#590=CARTESIAN_POINT('',(1.59586095798703,0.,-9.01592090925184));
#591=CARTESIAN_POINT('',(2.14157425136486,0.,0.));
#592=CARTESIAN_POINT('',(0.641405313963509,0.,0.));
#593=CARTESIAN_POINT('',(0.641405313963509,0.,-4.83470374912617));
#594=CARTESIAN_POINT('',(0.641405313963509,0.,0.));
#595=CARTESIAN_POINT('',(1.2,0.,0.));
#596=CARTESIAN_POINT('',(1.2,0.,-2.75));
#597=CARTESIAN_POINT('',(1.2,0.,0.));
#598=CARTESIAN_POINT('',(1.2,0.,0.));
#599=CARTESIAN_POINT('',(7.83104241793547,0.,0.));
#600=CARTESIAN_POINT('',(7.83104241793547,0.,-8.37322365753964));
#601=CARTESIAN_POINT('',(7.1170194622958,0.,0.));
#602=CARTESIAN_POINT('',(7.1170194622958,0.,-4.3081257825656));
#603=CARTESIAN_POINT('',(7.1170194622958,-4.30241587678918,-0.221732680403311));
#604=CARTESIAN_POINT('',(0.,0.,0.));
#605=CARTESIAN_POINT('',(7.63221454601291,0.,0.));
#606=CARTESIAN_POINT('',(7.63221454601291,0.,-8.70206174676524));
#607=CARTESIAN_POINT('',(7.83104241793547,-8.35846926540207,-0.49685607424116));
#608=CARTESIAN_POINT('',(7.8261575939275,-8.37874212948874,-0.497490576808665));
#609=CARTESIAN_POINT('',(7.82127276991953,-8.3990149935754,-0.498125079376169));
#610=CARTESIAN_POINT('',(7.81638794591156,-8.41928785766207,-0.498759581943674));
#611=CARTESIAN_POINT('',(7.80348065222728,-8.47285535777282,-0.500436144081603));
#612=CARTESIAN_POINT('',(7.7793972826187,-8.52424915618724,-0.501019665542342));
#613=CARTESIAN_POINT('',(7.74793833887864,-8.56958785651049,-0.500639688089058));
#614=CARTESIAN_POINT('',(7.71648477112965,-8.61491880894334,-0.500259775569786));
#615=CARTESIAN_POINT('',(7.67679857142061,-8.65544382933171,-0.498906744408677));
#616=CARTESIAN_POINT('',(7.63221454601291,-8.68787473040324,-0.496700426148052));
#617=CARTESIAN_POINT('',(0.,0.,0.));
#618=CARTESIAN_POINT('',(5.93873792503508,0.,0.));
#619=CARTESIAN_POINT('',(5.93873792503508,0.,-9.24238408136855));
#620=CARTESIAN_POINT('',(7.63221454601291,-8.68787473040324,-0.496700426148048));
#621=CARTESIAN_POINT('',(0.,0.,0.));
#622=CARTESIAN_POINT('',(5.68245494610974,0.,0.));
#623=CARTESIAN_POINT('',(5.68245494610974,0.,-9.30591789945303));
#624=CARTESIAN_POINT('',(5.93873792503481,-9.23469212239766,-0.37699457826599));
#625=CARTESIAN_POINT('',(5.85349556733638,-9.25689364323048,-0.3706901361193));
#626=CARTESIAN_POINT('',(5.76806795448973,-9.2783406292841,-0.364329920512503));
#627=CARTESIAN_POINT('',(5.68245494610974,-9.29903250877702,-0.357913889180837));
#628=CARTESIAN_POINT('',(0.,0.,0.));
#629=CARTESIAN_POINT('',(1.81179863008156,0.,0.));
#630=CARTESIAN_POINT('',(1.81179863008156,0.,-10.0010792750734));
#631=CARTESIAN_POINT('',(5.68245494610974,-9.29903250877703,-0.357913889180825));
#632=CARTESIAN_POINT('',(0.,0.,0.));
#633=CARTESIAN_POINT('',(1.25056736699969,0.,0.));
#634=CARTESIAN_POINT('',(1.25056736699969,0.,-9.66288934715634));
#635=CARTESIAN_POINT('',(1.72530493311909,-9.50959173258318,-0.0222679504084618));
#636=CARTESIAN_POINT('',(0.,0.,0.));
#637=CARTESIAN_POINT('',(0.767586433063163,0.,0.));
#638=CARTESIAN_POINT('',(0.767586433063163,0.,-8.14146817729947));
#639=CARTESIAN_POINT('',(1.25056736699969,-9.66288275211778,0.0112895620896997));
#640=CARTESIAN_POINT('',(0.,0.,0.));
#641=CARTESIAN_POINT('',(0.704573528103349,0.,0.));
#642=CARTESIAN_POINT('',(0.704573528103349,0.,-7.88522662954142));
#643=CARTESIAN_POINT('',(0.767586433061576,-8.14037530368972,0.133394141794069));
#644=CARTESIAN_POINT('',(0.745828399798037,-8.05502422769186,0.139773395769967));
#645=CARTESIAN_POINT('',(0.724823907802421,-7.96948399343978,0.146096546317743));
#646=CARTESIAN_POINT('',(0.704573528103349,-7.88375445759058,0.152363550922587));
#647=CARTESIAN_POINT('',(0.,0.,0.));
#648=CARTESIAN_POINT('',(0.0220723865385355,0.,0.));
#649=CARTESIAN_POINT('',(0.0220723865385355,0.,-4.02823237965243));
#650=CARTESIAN_POINT('',(0.70457352810333,-7.88375445759059,0.152363550922626));
#651=CARTESIAN_POINT('',(0.,0.,0.));
#652=CARTESIAN_POINT('',(0.361853678694322,0.,0.));
#653=CARTESIAN_POINT('',(0.361853678694322,0.,-3.46754424650243));
#654=CARTESIAN_POINT('',(0.512602517633822,-3.91781162389338,0.377028143694807));
#655=CARTESIAN_POINT('',(0.,0.,0.));
#656=CARTESIAN_POINT('',(1.88285506534675,0.,0.));
#657=CARTESIAN_POINT('',(1.88285506534675,0.,-2.96746643663712));
#658=CARTESIAN_POINT('',(0.361853678694314,-3.44260398317624,0.415139634907349));
#659=CARTESIAN_POINT('',(0.,0.,0.));
#660=CARTESIAN_POINT('',(2.13913804428932,0.,0.));
#661=CARTESIAN_POINT('',(2.13913804428932,0.,-2.90152079130435));
#662=CARTESIAN_POINT('',(1.88285506534675,-2.95147821198578,0.307625448786524));
#663=CARTESIAN_POINT('',(1.96809742305099,-2.92927669115133,0.301321006639411));
#664=CARTESIAN_POINT('',(2.05352503590347,-2.90782970509619,0.294960791032182));
#665=CARTESIAN_POINT('',(2.13913804428932,-2.88713782560186,0.288544759700077));
#666=CARTESIAN_POINT('',(0.,0.,0.));
#667=CARTESIAN_POINT('',(6.00979436031742,0.,0.));
#668=CARTESIAN_POINT('',(6.00979436031742,0.,-2.18528899425282));
#669=CARTESIAN_POINT('',(2.13913804428932,-2.88713782560188,0.288544759700183));
#670=CARTESIAN_POINT('',(0.,0.,0.));
#671=CARTESIAN_POINT('',(6.57102562339931,0.,0.));
#672=CARTESIAN_POINT('',(6.57102562339931,0.,-2.52457640948321));
#673=CARTESIAN_POINT('',(6.0962880572799,-2.67657860179574,-0.0471011790721625));
#674=CARTESIAN_POINT('',(0.,0.,0.));
#675=CARTESIAN_POINT('',(7.05400655734426,0.,0.));
#676=CARTESIAN_POINT('',(7.05400655734426,0.,-4.05087279172611));
#677=CARTESIAN_POINT('',(6.5710256233993,-2.52328758226114,-0.0806586915703254));
#678=CARTESIAN_POINT('',(0.,0.,0.));
#679=CARTESIAN_POINT('',(7.05400655734428,-4.04579503071621,-0.202763271276841));
#680=CARTESIAN_POINT('',(7.07576459060543,-4.13114610670538,-0.209142525252076));
#681=CARTESIAN_POINT('',(7.09676908259882,-4.21668634094874,-0.215465675799198));
#682=CARTESIAN_POINT('',(7.11701946229581,-4.30241587678917,-0.221732680403401));
#683=CARTESIAN_POINT('',(0.,0.,0.));
#684=MECHANICAL_DESIGN_GEOMETRIC_PRESENTATION_REPRESENTATION('',(#86,#87),
#685);
#685=(
GEOMETRIC_REPRESENTATION_CONTEXT(3)
GLOBAL_UNCERTAINTY_ASSIGNED_CONTEXT((#686))
GLOBAL_UNIT_ASSIGNED_CONTEXT((#692,#688,#687))
REPRESENTATION_CONTEXT('AHFM-SP0735-D20-C20-L160-Z03-H',
'TOP_LEVEL_ASSEMBLY_PART')
);
#686=UNCERTAINTY_MEASURE_WITH_UNIT(LENGTH_MEASURE(2.E-5),#692,
'DISTANCE_ACCURACY_VALUE','Maximum Tolerance applied to model');
#687=(
NAMED_UNIT(*)
SI_UNIT($,.STERADIAN.)
SOLID_ANGLE_UNIT()
);
#688=(
CONVERSION_BASED_UNIT('DEGREE',#690)
NAMED_UNIT(#689)
PLANE_ANGLE_UNIT()
);
#689=DIMENSIONAL_EXPONENTS(0.,0.,0.,0.,0.,0.,0.);
#690=PLANE_ANGLE_MEASURE_WITH_UNIT(PLANE_ANGLE_MEASURE(0.0174532925),#691);
#691=(
NAMED_UNIT(*)
PLANE_ANGLE_UNIT()
SI_UNIT($,.RADIAN.)
);
#692=(
LENGTH_UNIT()
NAMED_UNIT(*)
SI_UNIT(.MILLI.,.METRE.)
);
ENDSEC;
END-ISO-10303-21;
