ISO-10303-21;
HEADER;
/* Generated by software containing ST-Developer
 * from STEP Tools, Inc. (www.steptools.com) 
 */
/* OPTION: using custom schema-name function */

FILE_DESCRIPTION(
/* description */ (''),
/* implementation_level */ '2;1');

FILE_NAME(
/* name */ 'AHFM-SP0735-D21-C20-L160-Z03-H.stp',
/* time_stamp */ '2023-10-31T11:07:01+03:00',
/* author */ (''),
/* organization */ (''),
/* preprocessor_version */ 'ST-DEVELOPER v19.4',
/* originating_system */ 'SIEMENS PLM Software NX2306.5001',
/* authorisation */ '');

FILE_SCHEMA (('AUTOMOTIVE_DESIGN { 1 0 10303 214 3 1 1 1 }'));
ENDSEC;

DATA;
#10=PROPERTY_DEFINITION_REPRESENTATION(#14,#12);
#11=PROPERTY_DEFINITION_REPRESENTATION(#15,#13);
#12=REPRESENTATION('',(#16),#685);
#13=REPRESENTATION('',(#17),#685);
#14=PROPERTY_DEFINITION('pmi validation property','',#21);
#15=PROPERTY_DEFINITION('pmi validation property','',#21);
#16=VALUE_REPRESENTATION_ITEM('number of annotations',COUNT_MEASURE(0.));
#17=VALUE_REPRESENTATION_ITEM('number of views',COUNT_MEASURE(0.));
#18=SHAPE_REPRESENTATION_RELATIONSHIP('None',
'relationship between AHFM-SP0735-D21-C20-L160-Z03-H-LIGHT_objects-Non
e and AHFM-SP0735-D21-C20-L160-Z03-H-LIGHT_objects-None',#30,#19);
#19=ADVANCED_BREP_SHAPE_REPRESENTATION(
'AHFM-SP0735-D21-C20-L160-Z03-H-LIGHT_objects-None',(#101,#102),#685);
#20=SHAPE_DEFINITION_REPRESENTATION(#21,#30);
#21=PRODUCT_DEFINITION_SHAPE('','',#22);
#22=PRODUCT_DEFINITION(' ','',#24,#23);
#23=PRODUCT_DEFINITION_CONTEXT('part definition',#29,'design');
#24=PRODUCT_DEFINITION_FORMATION_WITH_SPECIFIED_SOURCE(' ',' ',#26,
 .NOT_KNOWN.);
#25=PRODUCT_RELATED_PRODUCT_CATEGORY('part','',(#26));
#26=PRODUCT('AHFM-SP0735-D21-C20-L160-Z03-H-LIGHT_objects',
'AHFM-SP0735-D21-C20-L160-Z03-H-LIGHT_objects',' ',(#27));
#27=PRODUCT_CONTEXT(' ',#29,'mechanical');
#28=APPLICATION_PROTOCOL_DEFINITION('international standard',
'automotive_design',2010,#29);
#29=APPLICATION_CONTEXT(
'core data for automotive mechanical design processes');
#30=SHAPE_REPRESENTATION(
'AHFM-SP0735-D21-C20-L160-Z03-H-LIGHT_objects-None',(#402),#685);
#31=DRAUGHTING_PRE_DEFINED_COLOUR('yellow');
#32=B_SPLINE_CURVE_WITH_KNOTS('',3,(#615,#616,#617,#618),.UNSPECIFIED.,
 .F.,.F.,(4,4),(0.,1.),.UNSPECIFIED.);
#33=B_SPLINE_CURVE_WITH_KNOTS('',3,(#634,#635,#636,#637),.UNSPECIFIED.,
 .F.,.F.,(4,4),(0.,1.),.UNSPECIFIED.);
#34=B_SPLINE_CURVE_WITH_KNOTS('',3,(#645,#646,#647,#648,#649,#650,#651,
#652,#653,#654),.UNSPECIFIED.,.F.,.F.,(4,3,3,4),(0.,0.157347843804267,0.578727343814335,
1.),.UNSPECIFIED.);
#35=B_SPLINE_CURVE_WITH_KNOTS('',3,(#662,#663,#664,#665),.UNSPECIFIED.,
 .F.,.F.,(4,4),(0.,1.),.UNSPECIFIED.);
#36=B_SPLINE_CURVE_WITH_KNOTS('',3,(#679,#680,#681,#682),.UNSPECIFIED.,
 .F.,.F.,(4,4),(0.,1.),.UNSPECIFIED.);
#37=SURFACE_OF_REVOLUTION('',#69,#53);
#38=SURFACE_OF_REVOLUTION('',#386,#54);
#39=SURFACE_OF_REVOLUTION('',#70,#55);
#40=SURFACE_OF_REVOLUTION('',#32,#56);
#41=SURFACE_OF_REVOLUTION('',#71,#57);
#42=SURFACE_OF_REVOLUTION('',#391,#58);
#43=SURFACE_OF_REVOLUTION('',#72,#59);
#44=SURFACE_OF_REVOLUTION('',#33,#60);
#45=SURFACE_OF_REVOLUTION('',#73,#61);
#46=SURFACE_OF_REVOLUTION('',#34,#62);
#47=SURFACE_OF_REVOLUTION('',#74,#63);
#48=SURFACE_OF_REVOLUTION('',#35,#64);
#49=SURFACE_OF_REVOLUTION('',#75,#65);
#50=SURFACE_OF_REVOLUTION('',#400,#66);
#51=SURFACE_OF_REVOLUTION('',#76,#67);
#52=SURFACE_OF_REVOLUTION('',#36,#68);
#53=AXIS1_PLACEMENT('',#604,#504);
#54=AXIS1_PLACEMENT('',#608,#509);
#55=AXIS1_PLACEMENT('',#612,#513);
#56=AXIS1_PLACEMENT('',#619,#516);
#57=AXIS1_PLACEMENT('',#623,#520);
#58=AXIS1_PLACEMENT('',#627,#525);
#59=AXIS1_PLACEMENT('',#631,#529);
#60=AXIS1_PLACEMENT('',#638,#532);
#61=AXIS1_PLACEMENT('',#642,#536);
#62=AXIS1_PLACEMENT('',#655,#539);
#63=AXIS1_PLACEMENT('',#659,#543);
#64=AXIS1_PLACEMENT('',#666,#546);
#65=AXIS1_PLACEMENT('',#670,#550);
#66=AXIS1_PLACEMENT('',#674,#555);
#67=AXIS1_PLACEMENT('',#678,#559);
#68=AXIS1_PLACEMENT('',#683,#560);
#69=LINE('',#603,#77);
#70=LINE('',#611,#78);
#71=LINE('',#622,#79);
#72=LINE('',#630,#80);
#73=LINE('',#641,#81);
#74=LINE('',#658,#82);
#75=LINE('',#669,#83);
#76=LINE('',#677,#84);
#77=VECTOR('',#503,3.94538079382211);
#78=VECTOR('',#512,1.60193915038721);
#79=VECTOR('',#519,3.94538079382148);
#80=VECTOR('',#528,1.60193915038644);
#81=VECTOR('',#535,4.12760108953075);
#82=VECTOR('',#542,1.78359239065556);
#83=VECTOR('',#549,3.94538079382156);
#84=VECTOR('',#558,1.60193915035844);
#85=PRESENTATION_LAYER_ASSIGNMENT('1','Layer 1',(#101,#102));
#86=STYLED_ITEM('',(#88),#101);
#87=STYLED_ITEM('',(#89),#102);
#88=PRESENTATION_STYLE_ASSIGNMENT((#90));
#89=PRESENTATION_STYLE_ASSIGNMENT((#91));
#90=SURFACE_STYLE_USAGE(.BOTH.,#92);
#91=SURFACE_STYLE_USAGE(.BOTH.,#93);
#92=SURFACE_SIDE_STYLE('',(#94));
#93=SURFACE_SIDE_STYLE('',(#95));
#94=SURFACE_STYLE_FILL_AREA(#96);
#95=SURFACE_STYLE_FILL_AREA(#97);
#96=FILL_AREA_STYLE('',(#98));
#97=FILL_AREA_STYLE('',(#99));
#98=FILL_AREA_STYLE_COLOUR('',#100);
#99=FILL_AREA_STYLE_COLOUR('',#31);
#100=COLOUR_RGB('medium steel',0.611764705882353,0.658823529411765,0.670588235294118);
#101=MANIFOLD_SOLID_BREP('',#103);
#102=MANIFOLD_SOLID_BREP('',#104);
#103=CLOSED_SHELL('',(#170,#171,#172,#173,#174,#175,#176,#177,#178,#179,
#180,#181,#182));
#104=CLOSED_SHELL('',(#183,#184,#185,#186,#187,#188,#189,#190,#191,#192,
#193,#194,#195,#196,#197,#198));
#105=CONICAL_SURFACE('',#410,10.,9.99999999999907);
#106=CONICAL_SURFACE('',#414,9.6198729810778,29.9999999999998);
#107=CONICAL_SURFACE('',#420,9.90717023981333,10.2292822328587);
#108=CONICAL_SURFACE('',#424,5.03453454246706,77.2227344095474);
#109=CONICAL_SURFACE('',#426,2.75,75.);
#110=CYLINDRICAL_SURFACE('',#408,9.75);
#111=CYLINDRICAL_SURFACE('',#412,10.);
#112=CYLINDRICAL_SURFACE('',#418,8.95);
#113=TOROIDAL_SURFACE('',#406,8.75000000000001,1.);
#114=TOROIDAL_SURFACE('',#416,13.95,5.);
#115=TOROIDAL_SURFACE('',#422,9.35543257609375,0.560649195864006);
#116=FACE_BOUND('',#204,.T.);
#117=FACE_BOUND('',#205,.T.);
#118=FACE_BOUND('',#206,.T.);
#119=FACE_BOUND('',#207,.T.);
#120=FACE_BOUND('',#208,.T.);
#121=FACE_BOUND('',#209,.T.);
#122=FACE_BOUND('',#210,.T.);
#123=FACE_BOUND('',#211,.T.);
#124=FACE_BOUND('',#212,.T.);
#125=FACE_BOUND('',#213,.T.);
#126=FACE_BOUND('',#214,.T.);
#127=FACE_BOUND('',#215,.T.);
#128=FACE_BOUND('',#216,.T.);
#129=FACE_BOUND('',#217,.T.);
#130=FACE_BOUND('',#218,.T.);
#131=FACE_BOUND('',#219,.T.);
#132=FACE_BOUND('',#220,.T.);
#133=FACE_BOUND('',#221,.T.);
#134=FACE_BOUND('',#222,.T.);
#135=FACE_BOUND('',#223,.T.);
#136=FACE_BOUND('',#224,.T.);
#137=FACE_BOUND('',#225,.T.);
#138=FACE_BOUND('',#227,.T.);
#139=FACE_BOUND('',#228,.T.);
#140=FACE_BOUND('',#229,.T.);
#141=FACE_BOUND('',#230,.T.);
#142=FACE_BOUND('',#231,.T.);
#143=FACE_BOUND('',#232,.T.);
#144=FACE_BOUND('',#233,.T.);
#145=FACE_BOUND('',#234,.T.);
#146=FACE_BOUND('',#235,.T.);
#147=FACE_BOUND('',#236,.T.);
#148=FACE_BOUND('',#237,.T.);
#149=FACE_BOUND('',#238,.T.);
#150=FACE_BOUND('',#239,.T.);
#151=FACE_BOUND('',#240,.T.);
#152=FACE_BOUND('',#241,.T.);
#153=FACE_BOUND('',#242,.T.);
#154=FACE_BOUND('',#243,.T.);
#155=FACE_BOUND('',#244,.T.);
#156=FACE_BOUND('',#245,.T.);
#157=FACE_BOUND('',#246,.T.);
#158=FACE_BOUND('',#247,.T.);
#159=FACE_BOUND('',#248,.T.);
#160=FACE_BOUND('',#249,.T.);
#161=FACE_BOUND('',#250,.T.);
#162=FACE_BOUND('',#251,.T.);
#163=FACE_BOUND('',#252,.T.);
#164=FACE_BOUND('',#253,.T.);
#165=FACE_BOUND('',#254,.T.);
#166=FACE_BOUND('',#255,.T.);
#167=FACE_BOUND('',#256,.T.);
#168=FACE_BOUND('',#257,.T.);
#169=FACE_BOUND('',#258,.T.);
#170=ADVANCED_FACE('',(#201),#199,.F.);
#171=ADVANCED_FACE('',(#116,#117),#113,.T.);
#172=ADVANCED_FACE('',(#118,#119),#110,.T.);
#173=ADVANCED_FACE('',(#120,#121),#105,.T.);
#174=ADVANCED_FACE('',(#122,#123),#111,.T.);
#175=ADVANCED_FACE('',(#124,#125),#106,.T.);
#176=ADVANCED_FACE('',(#126,#127),#114,.F.);
#177=ADVANCED_FACE('',(#128,#129),#112,.T.);
#178=ADVANCED_FACE('',(#130,#131),#107,.T.);
#179=ADVANCED_FACE('',(#132,#133),#115,.T.);
#180=ADVANCED_FACE('',(#134,#135),#108,.T.);
#181=ADVANCED_FACE('',(#136,#137),#109,.F.);
#182=ADVANCED_FACE('',(#202),#200,.F.);
#183=ADVANCED_FACE('',(#138,#139),#37,.F.);
#184=ADVANCED_FACE('',(#140,#141),#38,.F.);
#185=ADVANCED_FACE('',(#142,#143),#39,.F.);
#186=ADVANCED_FACE('',(#144,#145),#40,.F.);
#187=ADVANCED_FACE('',(#146,#147),#41,.F.);
#188=ADVANCED_FACE('',(#148,#149),#42,.F.);
#189=ADVANCED_FACE('',(#150,#151),#43,.F.);
#190=ADVANCED_FACE('',(#152,#153),#44,.F.);
#191=ADVANCED_FACE('',(#154,#155),#45,.F.);
#192=ADVANCED_FACE('',(#156,#157),#46,.F.);
#193=ADVANCED_FACE('',(#158,#159),#47,.F.);
#194=ADVANCED_FACE('',(#160,#161),#48,.F.);
#195=ADVANCED_FACE('',(#162,#163),#49,.F.);
#196=ADVANCED_FACE('',(#164,#165),#50,.F.);
#197=ADVANCED_FACE('',(#166,#167),#51,.F.);
#198=ADVANCED_FACE('',(#168,#169),#52,.F.);
#199=PLANE('',#404);
#200=PLANE('',#427);
#201=FACE_OUTER_BOUND('',#203,.T.);
#202=FACE_OUTER_BOUND('',#226,.T.);
#203=EDGE_LOOP('',(#259));
#204=EDGE_LOOP('',(#260));
#205=EDGE_LOOP('',(#261));
#206=EDGE_LOOP('',(#262));
#207=EDGE_LOOP('',(#263));
#208=EDGE_LOOP('',(#264));
#209=EDGE_LOOP('',(#265));
#210=EDGE_LOOP('',(#266));
#211=EDGE_LOOP('',(#267));
#212=EDGE_LOOP('',(#268));
#213=EDGE_LOOP('',(#269));
#214=EDGE_LOOP('',(#270));
#215=EDGE_LOOP('',(#271));
#216=EDGE_LOOP('',(#272));
#217=EDGE_LOOP('',(#273));
#218=EDGE_LOOP('',(#274));
#219=EDGE_LOOP('',(#275));
#220=EDGE_LOOP('',(#276));
#221=EDGE_LOOP('',(#277));
#222=EDGE_LOOP('',(#278));
#223=EDGE_LOOP('',(#279));
#224=EDGE_LOOP('',(#280));
#225=EDGE_LOOP('',(#281));
#226=EDGE_LOOP('',(#282));
#227=EDGE_LOOP('',(#283));
#228=EDGE_LOOP('',(#284));
#229=EDGE_LOOP('',(#285));
#230=EDGE_LOOP('',(#286));
#231=EDGE_LOOP('',(#287));
#232=EDGE_LOOP('',(#288));
#233=EDGE_LOOP('',(#289));
#234=EDGE_LOOP('',(#290));
#235=EDGE_LOOP('',(#291));
#236=EDGE_LOOP('',(#292));
#237=EDGE_LOOP('',(#293));
#238=EDGE_LOOP('',(#294));
#239=EDGE_LOOP('',(#295));
#240=EDGE_LOOP('',(#296));
#241=EDGE_LOOP('',(#297));
#242=EDGE_LOOP('',(#298));
#243=EDGE_LOOP('',(#299));
#244=EDGE_LOOP('',(#300));
#245=EDGE_LOOP('',(#301));
#246=EDGE_LOOP('',(#302));
#247=EDGE_LOOP('',(#303));
#248=EDGE_LOOP('',(#304));
#249=EDGE_LOOP('',(#305));
#250=EDGE_LOOP('',(#306));
#251=EDGE_LOOP('',(#307));
#252=EDGE_LOOP('',(#308));
#253=EDGE_LOOP('',(#309));
#254=EDGE_LOOP('',(#310));
#255=EDGE_LOOP('',(#311));
#256=EDGE_LOOP('',(#312));
#257=EDGE_LOOP('',(#313));
#258=EDGE_LOOP('',(#314));
#259=ORIENTED_EDGE('',*,*,#343,.T.);
#260=ORIENTED_EDGE('',*,*,#343,.F.);
#261=ORIENTED_EDGE('',*,*,#344,.T.);
#262=ORIENTED_EDGE('',*,*,#344,.F.);
#263=ORIENTED_EDGE('',*,*,#345,.T.);
#264=ORIENTED_EDGE('',*,*,#345,.F.);
#265=ORIENTED_EDGE('',*,*,#346,.T.);
#266=ORIENTED_EDGE('',*,*,#346,.F.);
#267=ORIENTED_EDGE('',*,*,#347,.T.);
#268=ORIENTED_EDGE('',*,*,#347,.F.);
#269=ORIENTED_EDGE('',*,*,#348,.T.);
#270=ORIENTED_EDGE('',*,*,#348,.F.);
#271=ORIENTED_EDGE('',*,*,#349,.T.);
#272=ORIENTED_EDGE('',*,*,#349,.F.);
#273=ORIENTED_EDGE('',*,*,#350,.T.);
#274=ORIENTED_EDGE('',*,*,#350,.F.);
#275=ORIENTED_EDGE('',*,*,#351,.T.);
#276=ORIENTED_EDGE('',*,*,#351,.F.);
#277=ORIENTED_EDGE('',*,*,#352,.T.);
#278=ORIENTED_EDGE('',*,*,#352,.F.);
#279=ORIENTED_EDGE('',*,*,#353,.T.);
#280=ORIENTED_EDGE('',*,*,#353,.F.);
#281=ORIENTED_EDGE('',*,*,#354,.T.);
#282=ORIENTED_EDGE('',*,*,#354,.F.);
#283=ORIENTED_EDGE('',*,*,#355,.T.);
#284=ORIENTED_EDGE('',*,*,#356,.F.);
#285=ORIENTED_EDGE('',*,*,#357,.T.);
#286=ORIENTED_EDGE('',*,*,#355,.F.);
#287=ORIENTED_EDGE('',*,*,#358,.T.);
#288=ORIENTED_EDGE('',*,*,#357,.F.);
#289=ORIENTED_EDGE('',*,*,#359,.T.);
#290=ORIENTED_EDGE('',*,*,#358,.F.);
#291=ORIENTED_EDGE('',*,*,#360,.T.);
#292=ORIENTED_EDGE('',*,*,#359,.F.);
#293=ORIENTED_EDGE('',*,*,#361,.T.);
#294=ORIENTED_EDGE('',*,*,#360,.F.);
#295=ORIENTED_EDGE('',*,*,#362,.T.);
#296=ORIENTED_EDGE('',*,*,#361,.F.);
#297=ORIENTED_EDGE('',*,*,#363,.T.);
#298=ORIENTED_EDGE('',*,*,#362,.F.);
#299=ORIENTED_EDGE('',*,*,#364,.T.);
#300=ORIENTED_EDGE('',*,*,#363,.F.);
#301=ORIENTED_EDGE('',*,*,#365,.T.);
#302=ORIENTED_EDGE('',*,*,#364,.F.);
#303=ORIENTED_EDGE('',*,*,#366,.T.);
#304=ORIENTED_EDGE('',*,*,#365,.F.);
#305=ORIENTED_EDGE('',*,*,#367,.T.);
#306=ORIENTED_EDGE('',*,*,#366,.F.);
#307=ORIENTED_EDGE('',*,*,#368,.T.);
#308=ORIENTED_EDGE('',*,*,#367,.F.);
#309=ORIENTED_EDGE('',*,*,#369,.T.);
#310=ORIENTED_EDGE('',*,*,#368,.F.);
#311=ORIENTED_EDGE('',*,*,#370,.T.);
#312=ORIENTED_EDGE('',*,*,#369,.F.);
#313=ORIENTED_EDGE('',*,*,#356,.T.);
#314=ORIENTED_EDGE('',*,*,#370,.F.);
#315=VERTEX_POINT('',#563);
#316=VERTEX_POINT('',#566);
#317=VERTEX_POINT('',#569);
#318=VERTEX_POINT('',#572);
#319=VERTEX_POINT('',#575);
#320=VERTEX_POINT('',#578);
#321=VERTEX_POINT('',#581);
#322=VERTEX_POINT('',#584);
#323=VERTEX_POINT('',#587);
#324=VERTEX_POINT('',#590);
#325=VERTEX_POINT('',#593);
#326=VERTEX_POINT('',#596);
#327=VERTEX_POINT('',#600);
#328=VERTEX_POINT('',#602);
#329=VERTEX_POINT('',#606);
#330=VERTEX_POINT('',#610);
#331=VERTEX_POINT('',#614);
#332=VERTEX_POINT('',#621);
#333=VERTEX_POINT('',#625);
#334=VERTEX_POINT('',#629);
#335=VERTEX_POINT('',#633);
#336=VERTEX_POINT('',#640);
#337=VERTEX_POINT('',#644);
#338=VERTEX_POINT('',#657);
#339=VERTEX_POINT('',#661);
#340=VERTEX_POINT('',#668);
#341=VERTEX_POINT('',#672);
#342=VERTEX_POINT('',#676);
#343=EDGE_CURVE('',#315,#315,#371,.T.);
#344=EDGE_CURVE('',#316,#316,#372,.T.);
#345=EDGE_CURVE('',#317,#317,#373,.T.);
#346=EDGE_CURVE('',#318,#318,#374,.T.);
#347=EDGE_CURVE('',#319,#319,#375,.T.);
#348=EDGE_CURVE('',#320,#320,#376,.T.);
#349=EDGE_CURVE('',#321,#321,#377,.T.);
#350=EDGE_CURVE('',#322,#322,#378,.T.);
#351=EDGE_CURVE('',#323,#323,#379,.T.);
#352=EDGE_CURVE('',#324,#324,#380,.T.);
#353=EDGE_CURVE('',#325,#325,#381,.T.);
#354=EDGE_CURVE('',#326,#326,#382,.T.);
#355=EDGE_CURVE('',#327,#327,#383,.T.);
#356=EDGE_CURVE('',#328,#328,#384,.T.);
#357=EDGE_CURVE('',#329,#329,#385,.T.);
#358=EDGE_CURVE('',#330,#330,#387,.T.);
#359=EDGE_CURVE('',#331,#331,#388,.T.);
#360=EDGE_CURVE('',#332,#332,#389,.T.);
#361=EDGE_CURVE('',#333,#333,#390,.T.);
#362=EDGE_CURVE('',#334,#334,#392,.T.);
#363=EDGE_CURVE('',#335,#335,#393,.T.);
#364=EDGE_CURVE('',#336,#336,#394,.T.);
#365=EDGE_CURVE('',#337,#337,#395,.T.);
#366=EDGE_CURVE('',#338,#338,#396,.T.);
#367=EDGE_CURVE('',#339,#339,#397,.T.);
#368=EDGE_CURVE('',#340,#340,#398,.T.);
#369=EDGE_CURVE('',#341,#341,#399,.T.);
#370=EDGE_CURVE('',#342,#342,#401,.T.);
#371=CIRCLE('',#403,8.75000000000001);
#372=CIRCLE('',#405,9.75);
#373=CIRCLE('',#407,9.75);
#374=CIRCLE('',#409,10.);
#375=CIRCLE('',#411,10.);
#376=CIRCLE('',#413,9.6198729810778);
#377=CIRCLE('',#415,8.95);
#378=CIRCLE('',#417,8.95);
#379=CIRCLE('',#419,9.90717023981333);
#380=CIRCLE('',#421,9.47942662147263);
#381=CIRCLE('',#423,5.03453454246706);
#382=CIRCLE('',#425,2.75);
#383=CIRCLE('',#428,4.52586111901159);
#384=CIRCLE('',#429,8.38513884541095);
#385=CIRCLE('',#430,3.96439996526943);
#386=CIRCLE('',#431,0.5);
#387=CIRCLE('',#432,3.4651602076316);
#388=CIRCLE('',#433,3.39940593750926);
#389=CIRCLE('',#434,2.68528091150239);
#390=CIRCLE('',#435,3.02436334285088);
#391=CIRCLE('',#436,0.5);
#392=CIRCLE('',#437,4.55031486882644);
#393=CIRCLE('',#438,4.80753196923281);
#394=CIRCLE('',#439,8.87239221882032);
#395=CIRCLE('',#440,9.20129085372905);
#396=CIRCLE('',#441,9.74198930557477);
#397=CIRCLE('',#442,9.80556680973299);
#398=CIRCLE('',#443,10.5010719174475);
#399=CIRCLE('',#444,10.1628890226896);
#400=CIRCLE('',#445,0.5);
#401=CIRCLE('',#446,8.64140494281278);
#402=AXIS2_PLACEMENT_3D('',#561,#447,#448);
#403=AXIS2_PLACEMENT_3D('',#562,#449,#450);
#404=AXIS2_PLACEMENT_3D('',#564,#451,#452);
#405=AXIS2_PLACEMENT_3D('',#565,#453,#454);
#406=AXIS2_PLACEMENT_3D('',#567,#455,#456);
#407=AXIS2_PLACEMENT_3D('',#568,#457,#458);
#408=AXIS2_PLACEMENT_3D('',#570,#459,#460);
#409=AXIS2_PLACEMENT_3D('',#571,#461,#462);
#410=AXIS2_PLACEMENT_3D('',#573,#463,#464);
#411=AXIS2_PLACEMENT_3D('',#574,#465,#466);
#412=AXIS2_PLACEMENT_3D('',#576,#467,#468);
#413=AXIS2_PLACEMENT_3D('',#577,#469,#470);
#414=AXIS2_PLACEMENT_3D('',#579,#471,#472);
#415=AXIS2_PLACEMENT_3D('',#580,#473,#474);
#416=AXIS2_PLACEMENT_3D('',#582,#475,#476);
#417=AXIS2_PLACEMENT_3D('',#583,#477,#478);
#418=AXIS2_PLACEMENT_3D('',#585,#479,#480);
#419=AXIS2_PLACEMENT_3D('',#586,#481,#482);
#420=AXIS2_PLACEMENT_3D('',#588,#483,#484);
#421=AXIS2_PLACEMENT_3D('',#589,#485,#486);
#422=AXIS2_PLACEMENT_3D('',#591,#487,#488);
#423=AXIS2_PLACEMENT_3D('',#592,#489,#490);
#424=AXIS2_PLACEMENT_3D('',#594,#491,#492);
#425=AXIS2_PLACEMENT_3D('',#595,#493,#494);
#426=AXIS2_PLACEMENT_3D('',#597,#495,#496);
#427=AXIS2_PLACEMENT_3D('',#598,#497,#498);
#428=AXIS2_PLACEMENT_3D('',#599,#499,#500);
#429=AXIS2_PLACEMENT_3D('',#601,#501,#502);
#430=AXIS2_PLACEMENT_3D('',#605,#505,#506);
#431=AXIS2_PLACEMENT_3D('',#607,#507,#508);
#432=AXIS2_PLACEMENT_3D('',#609,#510,#511);
#433=AXIS2_PLACEMENT_3D('',#613,#514,#515);
#434=AXIS2_PLACEMENT_3D('',#620,#517,#518);
#435=AXIS2_PLACEMENT_3D('',#624,#521,#522);
#436=AXIS2_PLACEMENT_3D('',#626,#523,#524);
#437=AXIS2_PLACEMENT_3D('',#628,#526,#527);
#438=AXIS2_PLACEMENT_3D('',#632,#530,#531);
#439=AXIS2_PLACEMENT_3D('',#639,#533,#534);
#440=AXIS2_PLACEMENT_3D('',#643,#537,#538);
#441=AXIS2_PLACEMENT_3D('',#656,#540,#541);
#442=AXIS2_PLACEMENT_3D('',#660,#544,#545);
#443=AXIS2_PLACEMENT_3D('',#667,#547,#548);
#444=AXIS2_PLACEMENT_3D('',#671,#551,#552);
#445=AXIS2_PLACEMENT_3D('',#673,#553,#554);
#446=AXIS2_PLACEMENT_3D('',#675,#556,#557);
#447=DIRECTION('',(0.,0.,1.));
#448=DIRECTION('',(1.,0.,0.));
#449=DIRECTION('',(1.,0.,0.));
#450=DIRECTION('',(0.,0.,-1.));
#451=DIRECTION('',(-1.,0.,0.));
#452=DIRECTION('',(0.,0.,1.));
#453=DIRECTION('',(1.,0.,0.));
#454=DIRECTION('',(0.,0.,-1.));
#455=DIRECTION('',(1.,0.,0.));
#456=DIRECTION('',(0.,0.,-1.));
#457=DIRECTION('',(1.,0.,0.));
#458=DIRECTION('',(0.,0.,-1.));
#459=DIRECTION('',(1.,0.,0.));
#460=DIRECTION('',(0.,0.,-1.));
#461=DIRECTION('',(1.,0.,0.));
#462=DIRECTION('',(0.,0.,-1.));
#463=DIRECTION('',(-1.,0.,0.));
#464=DIRECTION('',(1.48961656063428E-16,0.,1.));
#465=DIRECTION('',(1.,0.,0.));
#466=DIRECTION('',(0.,0.,-1.));
#467=DIRECTION('',(1.,0.,0.));
#468=DIRECTION('',(0.,0.,-1.));
#469=DIRECTION('',(1.,0.,0.));
#470=DIRECTION('',(0.,0.,-1.));
#471=DIRECTION('',(1.,0.,0.));
#472=DIRECTION('',(-1.18215449226194E-16,0.,-1.));
#473=DIRECTION('',(1.,0.,0.));
#474=DIRECTION('',(0.,0.,-1.));
#475=DIRECTION('',(1.,0.,0.));
#476=DIRECTION('',(0.,0.,-1.));
#477=DIRECTION('',(1.,0.,0.));
#478=DIRECTION('',(0.,0.,-1.));
#479=DIRECTION('',(1.,0.,0.));
#480=DIRECTION('',(0.,0.,-1.));
#481=DIRECTION('',(1.,0.,0.));
#482=DIRECTION('',(0.,0.,-1.));
#483=DIRECTION('',(-1.,0.,0.));
#484=DIRECTION('',(-4.55635111458166E-17,0.,1.));
#485=DIRECTION('',(1.,0.,0.));
#486=DIRECTION('',(0.,0.,-1.));
#487=DIRECTION('',(1.,0.,0.));
#488=DIRECTION('',(0.,0.,-1.));
#489=DIRECTION('',(1.,0.,0.));
#490=DIRECTION('',(0.,0.,-1.));
#491=DIRECTION('',(1.,0.,0.));
#492=DIRECTION('',(-1.66756918731047E-17,0.,-1.));
#493=DIRECTION('',(1.,0.,0.));
#494=DIRECTION('',(0.,0.,-1.));
#495=DIRECTION('',(-1.,0.,0.));
#496=DIRECTION('',(-5.63176544880055E-18,0.,1.));
#497=DIRECTION('',(1.,0.,0.));
#498=DIRECTION('',(0.,0.,-1.));
#499=DIRECTION('',(1.,0.,0.));
#500=DIRECTION('',(0.,0.,-1.));
#501=DIRECTION('',(1.,0.,0.));
#502=DIRECTION('',(0.,0.,-1.));
#503=DIRECTION('',(-0.172987393924939,0.982666033038094,0.0666545501540042));
#504=DIRECTION('',(1.,0.,0.));
#505=DIRECTION('',(1.,0.,0.));
#506=DIRECTION('',(0.,0.,-1.));
#507=DIRECTION('',(-0.0871557427462561,0.0521368021307884,-0.994829447880351));
#508=DIRECTION('',(0.300815058689282,-0.950635425944496,-0.0761747163111954));
#509=DIRECTION('',(1.,0.,0.));
#510=DIRECTION('',(1.,0.,0.));
#511=DIRECTION('',(0.,0.,-1.));
#512=DIRECTION('',(0.949475132238818,0.30658203906919,-0.0671150249963252));
#513=DIRECTION('',(1.,0.,0.));
#514=DIRECTION('',(1.,0.,0.));
#515=DIRECTION('',(0.,0.,-1.));
#516=DIRECTION('',(1.,0.,0.));
#517=DIRECTION('',(1.,0.,0.));
#518=DIRECTION('',(0.,0.,-1.));
#519=DIRECTION('',(0.981060262190558,0.177902280414699,-0.0766259784527667));
#520=DIRECTION('',(1.,0.,0.));
#521=DIRECTION('',(1.,0.,0.));
#522=DIRECTION('',(0.,0.,-1.));
#523=DIRECTION('',(-0.0871557427462561,0.0521368021307884,-0.994829447880351));
#524=DIRECTION('',(0.300815058689282,-0.950635425944496,-0.0761747163111954));
#525=DIRECTION('',(1.,0.,0.));
#526=DIRECTION('',(1.,0.,0.));
#527=DIRECTION('',(0.,0.,-1.));
#528=DIRECTION('',(0.301497677878998,-0.950415281434254,-0.0762229824253761));
#529=DIRECTION('',(1.,0.,0.));
#530=DIRECTION('',(1.,0.,0.));
#531=DIRECTION('',(0.,0.,-1.));
#532=DIRECTION('',(1.,0.,0.));
#533=DIRECTION('',(1.,0.,0.));
#534=DIRECTION('',(0.,0.,-1.));
#535=DIRECTION('',(0.17298739392494,-0.982666033038094,-0.0666545501540043));
#536=DIRECTION('',(1.,0.,0.));
#537=DIRECTION('',(1.,0.,0.));
#538=DIRECTION('',(0.,0.,-1.));
#539=DIRECTION('',(1.,0.,0.));
#540=DIRECTION('',(1.,0.,0.));
#541=DIRECTION('',(0.,0.,-1.));
#542=DIRECTION('',(-0.949475132238818,-0.306582039069191,0.0671150249963246));
#543=DIRECTION('',(1.,0.,0.));
#544=DIRECTION('',(1.,0.,0.));
#545=DIRECTION('',(0.,0.,-1.));
#546=DIRECTION('',(1.,0.,0.));
#547=DIRECTION('',(1.,0.,0.));
#548=DIRECTION('',(0.,0.,-1.));
#549=DIRECTION('',(-0.981060262190558,-0.177902280414698,0.0766259784527669));
#550=DIRECTION('',(1.,0.,0.));
#551=DIRECTION('',(1.,0.,0.));
#552=DIRECTION('',(0.,0.,-1.));
#553=DIRECTION('',(-0.0871557427462561,0.0521368021307884,-0.994829447880351));
#554=DIRECTION('',(0.300815058689282,-0.950635425944496,-0.0761747163111954));
#555=DIRECTION('',(1.,0.,0.));
#556=DIRECTION('',(1.,0.,0.));
#557=DIRECTION('',(0.,0.,-1.));
#558=DIRECTION('',(-0.301497677878999,0.950415281434254,0.0762229824253764));
#559=DIRECTION('',(1.,0.,0.));
#560=DIRECTION('',(1.,0.,0.));
#561=CARTESIAN_POINT('',(0.,0.,0.));
#562=CARTESIAN_POINT('',(160.,0.,0.));
#563=CARTESIAN_POINT('',(160.,0.,-8.75000000000001));
#564=CARTESIAN_POINT('',(160.,0.,8.75));
#565=CARTESIAN_POINT('',(159.,0.,0.));
#566=CARTESIAN_POINT('',(159.,0.,-9.75));
#567=CARTESIAN_POINT('',(159.,0.,0.));
#568=CARTESIAN_POINT('',(156.,0.,0.));
#569=CARTESIAN_POINT('',(156.,0.,-9.75));
#570=CARTESIAN_POINT('',(0.,0.,0.));
#571=CARTESIAN_POINT('',(154.582179545095,0.,0.));
#572=CARTESIAN_POINT('',(154.582179545095,0.,-10.));
#573=CARTESIAN_POINT('',(154.582179545095,0.,0.));
#574=CARTESIAN_POINT('',(30.,0.,0.));
#575=CARTESIAN_POINT('',(30.,0.,-10.));
#576=CARTESIAN_POINT('',(0.,0.,0.));
#577=CARTESIAN_POINT('',(29.3416006898971,0.,0.));
#578=CARTESIAN_POINT('',(29.3416006898971,0.,-9.6198729810778));
#579=CARTESIAN_POINT('',(29.3416006898971,0.,0.));
#580=CARTESIAN_POINT('',(26.8416006898971,0.,0.));
#581=CARTESIAN_POINT('',(26.8416006898971,0.,-8.95));
#582=CARTESIAN_POINT('',(26.8416006898971,0.,0.));
#583=CARTESIAN_POINT('',(7.54636460550581,0.,0.));
#584=CARTESIAN_POINT('',(7.54636460550581,0.,-8.95));
#585=CARTESIAN_POINT('',(0.,0.,0.));
#586=CARTESIAN_POINT('',(2.24219130957838,0.,0.));
#587=CARTESIAN_POINT('',(2.24219130957838,0.,-9.90717023981333));
#588=CARTESIAN_POINT('',(2.24219130957838,0.,0.));
#589=CARTESIAN_POINT('',(1.59586095798703,0.,0.));
#590=CARTESIAN_POINT('',(1.59586095798703,0.,-9.47942662147263));
#591=CARTESIAN_POINT('',(2.14262690200105,0.,0.));
#592=CARTESIAN_POINT('',(0.587860814264947,0.,0.));
#593=CARTESIAN_POINT('',(0.587860814264947,0.,-5.03453454246706));
#594=CARTESIAN_POINT('',(0.587860814264947,0.,0.));
#595=CARTESIAN_POINT('',(1.2,0.,0.));
#596=CARTESIAN_POINT('',(1.2,0.,-2.75));
#597=CARTESIAN_POINT('',(1.2,0.,0.));
#598=CARTESIAN_POINT('',(1.2,0.,0.));
#599=CARTESIAN_POINT('',(0.0220723865385331,0.,0.));
#600=CARTESIAN_POINT('',(0.0220723865385331,0.,-4.52586111901159));
#601=CARTESIAN_POINT('',(0.704573528103329,0.,0.));
#602=CARTESIAN_POINT('',(0.704573528103329,0.,-8.38513884541095));
#603=CARTESIAN_POINT('',(0.704573528103329,-8.38375445759058,0.152363550922627));
#604=CARTESIAN_POINT('',(0.,0.,0.));
#605=CARTESIAN_POINT('',(0.36185367869432,0.,0.));
#606=CARTESIAN_POINT('',(0.36185367869432,0.,-3.96439996526943));
#607=CARTESIAN_POINT('',(0.512602517633819,-4.41781162389336,0.377028143694809));
#608=CARTESIAN_POINT('',(0.,0.,0.));
#609=CARTESIAN_POINT('',(1.88285506534675,0.,0.));
#610=CARTESIAN_POINT('',(1.88285506534675,0.,-3.4651602076316));
#611=CARTESIAN_POINT('',(0.361853678694312,-3.94260398317623,0.41513963490735));
#612=CARTESIAN_POINT('',(0.,0.,0.));
#613=CARTESIAN_POINT('',(2.13913804428932,0.,0.));
#614=CARTESIAN_POINT('',(2.13913804428932,0.,-3.39940593750926));
#615=CARTESIAN_POINT('',(1.88285506534675,-3.45147821198576,0.307625448786526));
#616=CARTESIAN_POINT('',(1.96809742305099,-3.42927669115131,0.301321006639412));
#617=CARTESIAN_POINT('',(2.05352503590346,-3.40782970509618,0.294960791032183));
#618=CARTESIAN_POINT('',(2.13913804428932,-3.38713782560185,0.288544759700079));
#619=CARTESIAN_POINT('',(0.,0.,0.));
#620=CARTESIAN_POINT('',(6.00979436031742,0.,0.));
#621=CARTESIAN_POINT('',(6.00979436031742,0.,-2.68528091150239));
#622=CARTESIAN_POINT('',(2.13913804428932,-3.38713782560187,0.288544759700185));
#623=CARTESIAN_POINT('',(0.,0.,0.));
#624=CARTESIAN_POINT('',(6.5710256233993,0.,0.));
#625=CARTESIAN_POINT('',(6.5710256233993,0.,-3.02436334285088));
#626=CARTESIAN_POINT('',(6.0962880572799,-3.17657860179572,-0.0471011790721608));
#627=CARTESIAN_POINT('',(0.,0.,0.));
#628=CARTESIAN_POINT('',(7.05400655734426,0.,0.));
#629=CARTESIAN_POINT('',(7.05400655734426,0.,-4.55031486882644));
#630=CARTESIAN_POINT('',(6.5710256233993,-3.02328758226112,-0.0806586915703238));
#631=CARTESIAN_POINT('',(0.,0.,0.));
#632=CARTESIAN_POINT('',(7.11701946229581,0.,0.));
#633=CARTESIAN_POINT('',(7.11701946229581,0.,-4.80753196923281));
#634=CARTESIAN_POINT('',(7.05400655734427,-4.5457950307162,-0.20276327127684));
#635=CARTESIAN_POINT('',(7.07576459060543,-4.63114610670537,-0.209142525252075));
#636=CARTESIAN_POINT('',(7.09676908259881,-4.71668634094873,-0.215465675799197));
#637=CARTESIAN_POINT('',(7.11701946229581,-4.80241587678916,-0.2217326804034));
#638=CARTESIAN_POINT('',(0.,0.,0.));
#639=CARTESIAN_POINT('',(7.83104241793547,0.,0.));
#640=CARTESIAN_POINT('',(7.83104241793547,0.,-8.87239221882032));
#641=CARTESIAN_POINT('',(7.1170194622958,-4.80241587678916,-0.221732680403309));
#642=CARTESIAN_POINT('',(0.,0.,0.));
#643=CARTESIAN_POINT('',(7.63221454601291,0.,0.));
#644=CARTESIAN_POINT('',(7.63221454601291,0.,-9.20129085372905));
#645=CARTESIAN_POINT('',(7.83104241793547,-8.85846926540206,-0.496856074241159));
#646=CARTESIAN_POINT('',(7.8261575939275,-8.87874212948873,-0.497490576808663));
#647=CARTESIAN_POINT('',(7.82127276991953,-8.89901499357539,-0.498125079376168));
#648=CARTESIAN_POINT('',(7.81638794591156,-8.91928785766205,-0.498759581943673));
#649=CARTESIAN_POINT('',(7.80348065222727,-8.97285535777281,-0.500436144081601));
#650=CARTESIAN_POINT('',(7.7793972826187,-9.02424915618723,-0.501019665542341));
#651=CARTESIAN_POINT('',(7.74793833887864,-9.06958785651047,-0.500639688089057));
#652=CARTESIAN_POINT('',(7.71648477112965,-9.11491880894333,-0.500259775569784));
#653=CARTESIAN_POINT('',(7.6767985714206,-9.1554438293317,-0.498906744408676));
#654=CARTESIAN_POINT('',(7.63221454601291,-9.18787473040323,-0.496700426148051));
#655=CARTESIAN_POINT('',(0.,0.,0.));
#656=CARTESIAN_POINT('',(5.93873792503507,0.,0.));
#657=CARTESIAN_POINT('',(5.93873792503507,0.,-9.74198930557477));
#658=CARTESIAN_POINT('',(7.63221454601291,-9.18787473040323,-0.496700426148046));
#659=CARTESIAN_POINT('',(0.,0.,0.));
#660=CARTESIAN_POINT('',(5.68245494610973,0.,0.));
#661=CARTESIAN_POINT('',(5.68245494610973,0.,-9.80556680973299));
#662=CARTESIAN_POINT('',(5.93873792503481,-9.73469212239764,-0.376994578265988));
#663=CARTESIAN_POINT('',(5.85349556733638,-9.75689364323047,-0.370690136119299));
#664=CARTESIAN_POINT('',(5.76806795448973,-9.77834062928409,-0.364329920512502));
#665=CARTESIAN_POINT('',(5.68245494610973,-9.79903250877701,-0.357913889180836));
#666=CARTESIAN_POINT('',(0.,0.,0.));
#667=CARTESIAN_POINT('',(1.81179863008156,0.,0.));
#668=CARTESIAN_POINT('',(1.81179863008156,0.,-10.5010719174475));
#669=CARTESIAN_POINT('',(5.68245494610974,-9.79903250877701,-0.357913889180824));
#670=CARTESIAN_POINT('',(0.,0.,0.));
#671=CARTESIAN_POINT('',(1.25056736699969,0.,0.));
#672=CARTESIAN_POINT('',(1.25056736699969,0.,-10.1628890226896));
#673=CARTESIAN_POINT('',(1.72530493311909,-10.0095917325832,-0.0222679504084613));
#674=CARTESIAN_POINT('',(0.,0.,0.));
#675=CARTESIAN_POINT('',(0.76758643306316,0.,0.));
#676=CARTESIAN_POINT('',(0.76758643306316,0.,-8.64140494281278));
#677=CARTESIAN_POINT('',(1.25056736699969,-10.1628827521178,0.0112895620897005));
#678=CARTESIAN_POINT('',(0.,0.,0.));
#679=CARTESIAN_POINT('',(0.767586433061573,-8.6403753036897,0.13339414179407));
#680=CARTESIAN_POINT('',(0.745828399798035,-8.55502422769185,0.139773395769969));
#681=CARTESIAN_POINT('',(0.724823907802419,-8.46948399343976,0.146096546317744));
#682=CARTESIAN_POINT('',(0.704573528103347,-8.38375445759057,0.152363550922588));
#683=CARTESIAN_POINT('',(0.,0.,0.));
#684=MECHANICAL_DESIGN_GEOMETRIC_PRESENTATION_REPRESENTATION('',(#86,#87),
#685);
#685=(
GEOMETRIC_REPRESENTATION_CONTEXT(3)
GLOBAL_UNCERTAINTY_ASSIGNED_CONTEXT((#686))
GLOBAL_UNIT_ASSIGNED_CONTEXT((#692,#688,#687))
REPRESENTATION_CONTEXT('AHFM-SP0735-D21-C20-L160-Z03-H',
'TOP_LEVEL_ASSEMBLY_PART')
);
#686=UNCERTAINTY_MEASURE_WITH_UNIT(LENGTH_MEASURE(2.E-5),#692,
'DISTANCE_ACCURACY_VALUE','Maximum Tolerance applied to model');
#687=(
NAMED_UNIT(*)
SI_UNIT($,.STERADIAN.)
SOLID_ANGLE_UNIT()
);
#688=(
CONVERSION_BASED_UNIT('DEGREE',#690)
NAMED_UNIT(#689)
PLANE_ANGLE_UNIT()
);
#689=DIMENSIONAL_EXPONENTS(0.,0.,0.,0.,0.,0.,0.);
#690=PLANE_ANGLE_MEASURE_WITH_UNIT(PLANE_ANGLE_MEASURE(0.0174532925),#691);
#691=(
NAMED_UNIT(*)
PLANE_ANGLE_UNIT()
SI_UNIT($,.RADIAN.)
);
#692=(
LENGTH_UNIT()
NAMED_UNIT(*)
SI_UNIT(.MILLI.,.METRE.)
);
ENDSEC;
END-ISO-10303-21;
