ISO-10303-21;
HEADER;
/* Generated by software containing ST-Developer
 * from STEP Tools, Inc. (www.steptools.com) 
 */
/* OPTION: using custom schema-name function */

FILE_DESCRIPTION(
/* description */ (''),
/* implementation_level */ '2;1');

FILE_NAME(
/* name */ 'APCH-16-5-L110-H.stp',
/* time_stamp */ '2024-12-13T17:38:05+03:00',
/* author */ (''),
/* organization */ (''),
/* preprocessor_version */ 'ST-DEVELOPER v19.4',
/* originating_system */ 'SIEMENS PLM Software NX2306.9102',
/* authorisation */ '');

FILE_SCHEMA (('AUTOMOTIVE_DESIGN { 1 0 10303 214 3 1 1 1 }'));
ENDSEC;

DATA;
#10=CONSTRUCTIVE_GEOMETRY_REPRESENTATION_RELATIONSHIP(
'supplemental geometry','',#32,#11);
#11=CONSTRUCTIVE_GEOMETRY_REPRESENTATION('supplemental geometry',(#313),
#516);
#12=PROPERTY_DEFINITION_REPRESENTATION(#16,#14);
#13=PROPERTY_DEFINITION_REPRESENTATION(#17,#15);
#14=REPRESENTATION('',(#18),#516);
#15=REPRESENTATION('',(#19),#516);
#16=PROPERTY_DEFINITION('pmi validation property','',#23);
#17=PROPERTY_DEFINITION('pmi validation property','',#23);
#18=VALUE_REPRESENTATION_ITEM('number of annotations',COUNT_MEASURE(0.));
#19=VALUE_REPRESENTATION_ITEM('number of views',COUNT_MEASURE(0.));
#20=SHAPE_REPRESENTATION_RELATIONSHIP('None',
'relationship between APCH-16-5-L110-H-LIGHT_objects-None and APCH-16-
5-L110-H-LIGHT_objects-None',#32,#21);
#21=ADVANCED_BREP_SHAPE_REPRESENTATION(
'APCH-16-5-L110-H-LIGHT_objects-None',(#38),#516);
#22=SHAPE_DEFINITION_REPRESENTATION(#23,#32);
#23=PRODUCT_DEFINITION_SHAPE('','',#24);
#24=PRODUCT_DEFINITION(' ','',#26,#25);
#25=PRODUCT_DEFINITION_CONTEXT('part definition',#31,'design');
#26=PRODUCT_DEFINITION_FORMATION_WITH_SPECIFIED_SOURCE(' ',' ',#28,
 .NOT_KNOWN.);
#27=PRODUCT_RELATED_PRODUCT_CATEGORY('part','',(#28));
#28=PRODUCT('APCH-16-5-L110-H-LIGHT_objects',
'APCH-16-5-L110-H-LIGHT_objects',' ',(#29));
#29=PRODUCT_CONTEXT(' ',#31,'mechanical');
#30=APPLICATION_PROTOCOL_DEFINITION('international standard',
'automotive_design',2010,#31);
#31=APPLICATION_CONTEXT(
'core data for automotive mechanical design processes');
#32=SHAPE_REPRESENTATION('APCH-16-5-L110-H-LIGHT_objects-None',(#312),#516);
#33=SURFACE_STYLE_USAGE(.BOTH.,#34);
#34=SURFACE_SIDE_STYLE('',(#35));
#35=SURFACE_STYLE_FILL_AREA(#36);
#36=FILL_AREA_STYLE('',(#37));
#37=FILL_AREA_STYLE_COLOUR('',#310);
#38=MANIFOLD_SOLID_BREP('',#39);
#39=CLOSED_SHELL('',(#101,#102,#103,#104,#105,#106,#107,#108,#109,#110,
#111,#112,#113,#114,#115,#116,#117,#118,#119,#120));
#40=CONICAL_SURFACE('',#330,7.99999999999976,30.0000000000005);
#41=CONICAL_SURFACE('',#333,7.45710678118655,44.9999999999999);
#42=CYLINDRICAL_SURFACE('',#328,7.99999999999987);
#43=CYLINDRICAL_SURFACE('',#332,7.75);
#44=CYLINDRICAL_SURFACE('',#348,2.5);
#45=LINE('',#452,#61);
#46=LINE('',#456,#62);
#47=LINE('',#460,#63);
#48=LINE('',#464,#64);
#49=LINE('',#468,#65);
#50=LINE('',#472,#66);
#51=LINE('',#476,#67);
#52=LINE('',#480,#68);
#53=LINE('',#491,#69);
#54=LINE('',#493,#70);
#55=LINE('',#496,#71);
#56=LINE('',#498,#72);
#57=LINE('',#501,#73);
#58=LINE('',#503,#74);
#59=LINE('',#506,#75);
#60=LINE('',#508,#76);
#61=VECTOR('',#365,1.);
#62=VECTOR('',#368,1.);
#63=VECTOR('',#371,1.);
#64=VECTOR('',#374,1.);
#65=VECTOR('',#377,1.);
#66=VECTOR('',#380,1.);
#67=VECTOR('',#383,1.);
#68=VECTOR('',#386,1.);
#69=VECTOR('',#401,1.);
#70=VECTOR('',#404,1.);
#71=VECTOR('',#409,1.);
#72=VECTOR('',#412,1.);
#73=VECTOR('',#417,1.);
#74=VECTOR('',#420,1.);
#75=VECTOR('',#425,1.);
#76=VECTOR('',#428,1.);
#77=ELLIPSE('',#319,11.3137084989846,7.99999999999987);
#78=ELLIPSE('',#320,11.3137084989846,7.99999999999987);
#79=ELLIPSE('',#321,11.3137084989846,7.99999999999987);
#80=ELLIPSE('',#322,11.3137084989846,7.99999999999987);
#81=ELLIPSE('',#323,11.3137084989846,7.99999999999987);
#82=ELLIPSE('',#324,11.3137084989846,7.99999999999987);
#83=ELLIPSE('',#325,11.3137084989846,7.99999999999987);
#84=ELLIPSE('',#326,11.3137084989846,7.99999999999987);
#85=FACE_BOUND('',#151,.T.);
#86=FACE_BOUND('',#152,.T.);
#87=FACE_BOUND('',#153,.T.);
#88=FACE_BOUND('',#154,.T.);
#89=FACE_BOUND('',#155,.T.);
#90=FACE_BOUND('',#156,.T.);
#91=FACE_BOUND('',#157,.T.);
#92=FACE_BOUND('',#158,.T.);
#93=FACE_BOUND('',#159,.T.);
#94=FACE_BOUND('',#160,.T.);
#95=FACE_BOUND('',#161,.T.);
#96=FACE_BOUND('',#162,.T.);
#97=FACE_BOUND('',#163,.T.);
#98=FACE_BOUND('',#164,.T.);
#99=FACE_BOUND('',#178,.T.);
#100=FACE_BOUND('',#179,.T.);
#101=ADVANCED_FACE('',(#136),#121,.F.);
#102=ADVANCED_FACE('',(#85,#86),#122,.F.);
#103=ADVANCED_FACE('',(#87,#88,#89,#90,#91,#92),#42,.T.);
#104=ADVANCED_FACE('',(#93,#94),#40,.T.);
#105=ADVANCED_FACE('',(#95,#96),#43,.T.);
#106=ADVANCED_FACE('',(#97,#98),#41,.T.);
#107=ADVANCED_FACE('',(#137),#123,.F.);
#108=ADVANCED_FACE('',(#138),#124,.F.);
#109=ADVANCED_FACE('',(#139),#125,.F.);
#110=ADVANCED_FACE('',(#140),#126,.F.);
#111=ADVANCED_FACE('',(#141),#127,.F.);
#112=ADVANCED_FACE('',(#142),#128,.F.);
#113=ADVANCED_FACE('',(#143),#129,.F.);
#114=ADVANCED_FACE('',(#144),#130,.F.);
#115=ADVANCED_FACE('',(#145),#131,.F.);
#116=ADVANCED_FACE('',(#146),#132,.F.);
#117=ADVANCED_FACE('',(#147),#133,.F.);
#118=ADVANCED_FACE('',(#148),#134,.F.);
#119=ADVANCED_FACE('',(#149),#135,.F.);
#120=ADVANCED_FACE('',(#99,#100),#44,.F.);
#121=PLANE('',#315);
#122=PLANE('',#318);
#123=PLANE('',#334);
#124=PLANE('',#335);
#125=PLANE('',#336);
#126=PLANE('',#337);
#127=PLANE('',#338);
#128=PLANE('',#339);
#129=PLANE('',#340);
#130=PLANE('',#341);
#131=PLANE('',#342);
#132=PLANE('',#343);
#133=PLANE('',#344);
#134=PLANE('',#345);
#135=PLANE('',#347);
#136=FACE_OUTER_BOUND('',#150,.T.);
#137=FACE_OUTER_BOUND('',#165,.T.);
#138=FACE_OUTER_BOUND('',#166,.T.);
#139=FACE_OUTER_BOUND('',#167,.T.);
#140=FACE_OUTER_BOUND('',#168,.T.);
#141=FACE_OUTER_BOUND('',#169,.T.);
#142=FACE_OUTER_BOUND('',#170,.T.);
#143=FACE_OUTER_BOUND('',#171,.T.);
#144=FACE_OUTER_BOUND('',#172,.T.);
#145=FACE_OUTER_BOUND('',#173,.T.);
#146=FACE_OUTER_BOUND('',#174,.T.);
#147=FACE_OUTER_BOUND('',#175,.T.);
#148=FACE_OUTER_BOUND('',#176,.T.);
#149=FACE_OUTER_BOUND('',#177,.T.);
#150=EDGE_LOOP('',(#180));
#151=EDGE_LOOP('',(#181));
#152=EDGE_LOOP('',(#182));
#153=EDGE_LOOP('',(#183));
#154=EDGE_LOOP('',(#184,#185,#186,#187));
#155=EDGE_LOOP('',(#188,#189,#190,#191));
#156=EDGE_LOOP('',(#192,#193,#194,#195));
#157=EDGE_LOOP('',(#196,#197,#198,#199));
#158=EDGE_LOOP('',(#200));
#159=EDGE_LOOP('',(#201));
#160=EDGE_LOOP('',(#202));
#161=EDGE_LOOP('',(#203));
#162=EDGE_LOOP('',(#204));
#163=EDGE_LOOP('',(#205));
#164=EDGE_LOOP('',(#206));
#165=EDGE_LOOP('',(#207,#208));
#166=EDGE_LOOP('',(#209,#210));
#167=EDGE_LOOP('',(#211,#212,#213,#214));
#168=EDGE_LOOP('',(#215,#216));
#169=EDGE_LOOP('',(#217,#218));
#170=EDGE_LOOP('',(#219,#220,#221,#222));
#171=EDGE_LOOP('',(#223,#224));
#172=EDGE_LOOP('',(#225,#226));
#173=EDGE_LOOP('',(#227,#228,#229,#230));
#174=EDGE_LOOP('',(#231,#232));
#175=EDGE_LOOP('',(#233,#234));
#176=EDGE_LOOP('',(#235,#236,#237,#238));
#177=EDGE_LOOP('',(#239));
#178=EDGE_LOOP('',(#240));
#179=EDGE_LOOP('',(#241));
#180=ORIENTED_EDGE('',*,*,#265,.T.);
#181=ORIENTED_EDGE('',*,*,#266,.T.);
#182=ORIENTED_EDGE('',*,*,#267,.T.);
#183=ORIENTED_EDGE('',*,*,#265,.F.);
#184=ORIENTED_EDGE('',*,*,#268,.T.);
#185=ORIENTED_EDGE('',*,*,#269,.T.);
#186=ORIENTED_EDGE('',*,*,#270,.T.);
#187=ORIENTED_EDGE('',*,*,#271,.T.);
#188=ORIENTED_EDGE('',*,*,#272,.T.);
#189=ORIENTED_EDGE('',*,*,#273,.T.);
#190=ORIENTED_EDGE('',*,*,#274,.T.);
#191=ORIENTED_EDGE('',*,*,#275,.T.);
#192=ORIENTED_EDGE('',*,*,#276,.T.);
#193=ORIENTED_EDGE('',*,*,#277,.T.);
#194=ORIENTED_EDGE('',*,*,#278,.T.);
#195=ORIENTED_EDGE('',*,*,#279,.T.);
#196=ORIENTED_EDGE('',*,*,#280,.T.);
#197=ORIENTED_EDGE('',*,*,#281,.T.);
#198=ORIENTED_EDGE('',*,*,#282,.T.);
#199=ORIENTED_EDGE('',*,*,#283,.T.);
#200=ORIENTED_EDGE('',*,*,#284,.F.);
#201=ORIENTED_EDGE('',*,*,#285,.F.);
#202=ORIENTED_EDGE('',*,*,#284,.T.);
#203=ORIENTED_EDGE('',*,*,#286,.F.);
#204=ORIENTED_EDGE('',*,*,#285,.T.);
#205=ORIENTED_EDGE('',*,*,#266,.F.);
#206=ORIENTED_EDGE('',*,*,#286,.T.);
#207=ORIENTED_EDGE('',*,*,#280,.F.);
#208=ORIENTED_EDGE('',*,*,#287,.T.);
#209=ORIENTED_EDGE('',*,*,#282,.F.);
#210=ORIENTED_EDGE('',*,*,#288,.F.);
#211=ORIENTED_EDGE('',*,*,#281,.F.);
#212=ORIENTED_EDGE('',*,*,#287,.F.);
#213=ORIENTED_EDGE('',*,*,#283,.F.);
#214=ORIENTED_EDGE('',*,*,#288,.T.);
#215=ORIENTED_EDGE('',*,*,#276,.F.);
#216=ORIENTED_EDGE('',*,*,#289,.T.);
#217=ORIENTED_EDGE('',*,*,#278,.F.);
#218=ORIENTED_EDGE('',*,*,#290,.F.);
#219=ORIENTED_EDGE('',*,*,#279,.F.);
#220=ORIENTED_EDGE('',*,*,#290,.T.);
#221=ORIENTED_EDGE('',*,*,#277,.F.);
#222=ORIENTED_EDGE('',*,*,#289,.F.);
#223=ORIENTED_EDGE('',*,*,#272,.F.);
#224=ORIENTED_EDGE('',*,*,#291,.F.);
#225=ORIENTED_EDGE('',*,*,#274,.F.);
#226=ORIENTED_EDGE('',*,*,#292,.T.);
#227=ORIENTED_EDGE('',*,*,#273,.F.);
#228=ORIENTED_EDGE('',*,*,#291,.T.);
#229=ORIENTED_EDGE('',*,*,#275,.F.);
#230=ORIENTED_EDGE('',*,*,#292,.F.);
#231=ORIENTED_EDGE('',*,*,#268,.F.);
#232=ORIENTED_EDGE('',*,*,#293,.T.);
#233=ORIENTED_EDGE('',*,*,#270,.F.);
#234=ORIENTED_EDGE('',*,*,#294,.F.);
#235=ORIENTED_EDGE('',*,*,#271,.F.);
#236=ORIENTED_EDGE('',*,*,#294,.T.);
#237=ORIENTED_EDGE('',*,*,#269,.F.);
#238=ORIENTED_EDGE('',*,*,#293,.F.);
#239=ORIENTED_EDGE('',*,*,#295,.T.);
#240=ORIENTED_EDGE('',*,*,#295,.F.);
#241=ORIENTED_EDGE('',*,*,#267,.F.);
#242=VERTEX_POINT('',#442);
#243=VERTEX_POINT('',#445);
#244=VERTEX_POINT('',#447);
#245=VERTEX_POINT('',#450);
#246=VERTEX_POINT('',#451);
#247=VERTEX_POINT('',#453);
#248=VERTEX_POINT('',#455);
#249=VERTEX_POINT('',#458);
#250=VERTEX_POINT('',#459);
#251=VERTEX_POINT('',#461);
#252=VERTEX_POINT('',#463);
#253=VERTEX_POINT('',#466);
#254=VERTEX_POINT('',#467);
#255=VERTEX_POINT('',#469);
#256=VERTEX_POINT('',#471);
#257=VERTEX_POINT('',#474);
#258=VERTEX_POINT('',#475);
#259=VERTEX_POINT('',#477);
#260=VERTEX_POINT('',#479);
#261=VERTEX_POINT('',#482);
#262=VERTEX_POINT('',#485);
#263=VERTEX_POINT('',#488);
#264=VERTEX_POINT('',#512);
#265=EDGE_CURVE('',#242,#242,#296,.T.);
#266=EDGE_CURVE('',#243,#243,#297,.T.);
#267=EDGE_CURVE('',#244,#244,#298,.T.);
#268=EDGE_CURVE('',#245,#246,#77,.T.);
#269=EDGE_CURVE('',#246,#247,#45,.T.);
#270=EDGE_CURVE('',#247,#248,#78,.T.);
#271=EDGE_CURVE('',#248,#245,#46,.T.);
#272=EDGE_CURVE('',#249,#250,#79,.T.);
#273=EDGE_CURVE('',#250,#251,#47,.T.);
#274=EDGE_CURVE('',#251,#252,#80,.T.);
#275=EDGE_CURVE('',#252,#249,#48,.T.);
#276=EDGE_CURVE('',#253,#254,#81,.T.);
#277=EDGE_CURVE('',#254,#255,#49,.T.);
#278=EDGE_CURVE('',#255,#256,#82,.T.);
#279=EDGE_CURVE('',#256,#253,#50,.T.);
#280=EDGE_CURVE('',#257,#258,#83,.T.);
#281=EDGE_CURVE('',#258,#259,#51,.T.);
#282=EDGE_CURVE('',#259,#260,#84,.T.);
#283=EDGE_CURVE('',#260,#257,#52,.T.);
#284=EDGE_CURVE('',#261,#261,#299,.T.);
#285=EDGE_CURVE('',#262,#262,#300,.T.);
#286=EDGE_CURVE('',#263,#263,#301,.T.);
#287=EDGE_CURVE('',#257,#258,#53,.T.);
#288=EDGE_CURVE('',#260,#259,#54,.T.);
#289=EDGE_CURVE('',#253,#254,#55,.T.);
#290=EDGE_CURVE('',#256,#255,#56,.T.);
#291=EDGE_CURVE('',#250,#249,#57,.T.);
#292=EDGE_CURVE('',#251,#252,#58,.T.);
#293=EDGE_CURVE('',#245,#246,#59,.T.);
#294=EDGE_CURVE('',#248,#247,#60,.T.);
#295=EDGE_CURVE('',#264,#264,#302,.T.);
#296=CIRCLE('',#314,7.99999999999987);
#297=CIRCLE('',#316,4.75000000000002);
#298=CIRCLE('',#317,2.5);
#299=CIRCLE('',#327,7.99999999999976);
#300=CIRCLE('',#329,7.75);
#301=CIRCLE('',#331,7.75);
#302=CIRCLE('',#346,2.5);
#303=PRESENTATION_LAYER_ASSIGNMENT('1','Layer 1',(#313,#38));
#304=STYLED_ITEM('',(#306),#313);
#305=STYLED_ITEM('',(#307),#38);
#306=PRESENTATION_STYLE_ASSIGNMENT((#308));
#307=PRESENTATION_STYLE_ASSIGNMENT((#33));
#308=CURVE_STYLE('',#311,POSITIVE_LENGTH_MEASURE(0.13),#309);
#309=COLOUR_RGB('Medium Maroon',0.6,0.4,0.4);
#310=COLOUR_RGB('medium steel',0.611764705882353,0.658823529411765,0.670588235294118);
#311=DRAUGHTING_PRE_DEFINED_CURVE_FONT('continuous');
#312=AXIS2_PLACEMENT_3D('',#439,#349,#350);
#313=AXIS2_PLACEMENT_3D('',#440,#351,#352);
#314=AXIS2_PLACEMENT_3D('',#441,#353,#354);
#315=AXIS2_PLACEMENT_3D('',#443,#355,#356);
#316=AXIS2_PLACEMENT_3D('',#444,#357,#358);
#317=AXIS2_PLACEMENT_3D('',#446,#359,#360);
#318=AXIS2_PLACEMENT_3D('',#448,#361,#362);
#319=AXIS2_PLACEMENT_3D('',#449,#363,#364);
#320=AXIS2_PLACEMENT_3D('',#454,#366,#367);
#321=AXIS2_PLACEMENT_3D('',#457,#369,#370);
#322=AXIS2_PLACEMENT_3D('',#462,#372,#373);
#323=AXIS2_PLACEMENT_3D('',#465,#375,#376);
#324=AXIS2_PLACEMENT_3D('',#470,#378,#379);
#325=AXIS2_PLACEMENT_3D('',#473,#381,#382);
#326=AXIS2_PLACEMENT_3D('',#478,#384,#385);
#327=AXIS2_PLACEMENT_3D('',#481,#387,#388);
#328=AXIS2_PLACEMENT_3D('',#483,#389,#390);
#329=AXIS2_PLACEMENT_3D('',#484,#391,#392);
#330=AXIS2_PLACEMENT_3D('',#486,#393,#394);
#331=AXIS2_PLACEMENT_3D('',#487,#395,#396);
#332=AXIS2_PLACEMENT_3D('',#489,#397,#398);
#333=AXIS2_PLACEMENT_3D('',#490,#399,#400);
#334=AXIS2_PLACEMENT_3D('',#492,#402,#403);
#335=AXIS2_PLACEMENT_3D('',#494,#405,#406);
#336=AXIS2_PLACEMENT_3D('',#495,#407,#408);
#337=AXIS2_PLACEMENT_3D('',#497,#410,#411);
#338=AXIS2_PLACEMENT_3D('',#499,#413,#414);
#339=AXIS2_PLACEMENT_3D('',#500,#415,#416);
#340=AXIS2_PLACEMENT_3D('',#502,#418,#419);
#341=AXIS2_PLACEMENT_3D('',#504,#421,#422);
#342=AXIS2_PLACEMENT_3D('',#505,#423,#424);
#343=AXIS2_PLACEMENT_3D('',#507,#426,#427);
#344=AXIS2_PLACEMENT_3D('',#509,#429,#430);
#345=AXIS2_PLACEMENT_3D('',#510,#431,#432);
#346=AXIS2_PLACEMENT_3D('',#511,#433,#434);
#347=AXIS2_PLACEMENT_3D('',#513,#435,#436);
#348=AXIS2_PLACEMENT_3D('',#514,#437,#438);
#349=DIRECTION('',(0.,0.,1.));
#350=DIRECTION('',(1.,0.,0.));
#351=DIRECTION('',(0.,1.,0.));
#352=DIRECTION('',(-1.,0.,0.));
#353=DIRECTION('',(1.,0.,0.));
#354=DIRECTION('',(0.,0.,1.));
#355=DIRECTION('',(-1.,0.,0.));
#356=DIRECTION('',(0.,0.,1.));
#357=DIRECTION('',(-1.,0.,0.));
#358=DIRECTION('',(0.,0.,-1.));
#359=DIRECTION('',(1.,0.,0.));
#360=DIRECTION('',(0.,0.,-1.));
#361=DIRECTION('',(1.,0.,0.));
#362=DIRECTION('',(0.,0.,-1.));
#363=DIRECTION('',(-0.707106781186547,0.707106781186548,0.));
#364=DIRECTION('',(-0.707106781186548,-0.707106781186547,0.));
#365=DIRECTION('',(1.,0.,0.));
#366=DIRECTION('',(0.707106781186549,0.707106781186547,0.));
#367=DIRECTION('',(-0.707106781186547,0.707106781186548,0.));
#368=DIRECTION('',(-1.,0.,0.));
#369=DIRECTION('',(0.707106781186549,-0.707106781186546,0.));
#370=DIRECTION('',(-0.707106781186546,-0.707106781186549,0.));
#371=DIRECTION('',(-1.,0.,0.));
#372=DIRECTION('',(-0.707106781186547,-0.707106781186548,0.));
#373=DIRECTION('',(-0.707106781186548,0.707106781186547,0.));
#374=DIRECTION('',(1.,0.,0.));
#375=DIRECTION('',(-0.707106781186547,0.,0.707106781186548));
#376=DIRECTION('',(-0.707106781186548,0.,-0.707106781186547));
#377=DIRECTION('',(1.,0.,0.));
#378=DIRECTION('',(0.707106781186546,0.,0.707106781186549));
#379=DIRECTION('',(-0.707106781186549,0.,0.707106781186546));
#380=DIRECTION('',(-1.,0.,0.));
#381=DIRECTION('',(0.707106781186544,0.,-0.707106781186551));
#382=DIRECTION('',(-0.707106781186551,0.,-0.707106781186544));
#383=DIRECTION('',(-1.,0.,0.));
#384=DIRECTION('',(-0.707106781186546,0.,-0.707106781186549));
#385=DIRECTION('',(-0.707106781186549,0.,0.707106781186546));
#386=DIRECTION('',(1.,0.,0.));
#387=DIRECTION('',(-1.,0.,0.));
#388=DIRECTION('',(0.,0.,1.));
#389=DIRECTION('',(-1.,0.,0.));
#390=DIRECTION('',(0.,0.,1.));
#391=DIRECTION('',(-1.,0.,0.));
#392=DIRECTION('',(0.,0.,1.));
#393=DIRECTION('',(1.,0.,0.));
#394=DIRECTION('',(-1.65959630955989E-16,0.,-1.));
#395=DIRECTION('',(-1.,0.,0.));
#396=DIRECTION('',(0.,0.,-1.));
#397=DIRECTION('',(-1.,0.,0.));
#398=DIRECTION('',(0.,0.,1.));
#399=DIRECTION('',(1.,0.,0.));
#400=DIRECTION('',(3.0132956157892E-17,0.,-1.));
#401=DIRECTION('',(0.,-1.,0.));
#402=DIRECTION('',(0.707106781186544,0.,-0.707106781186551));
#403=DIRECTION('',(-0.707106781186551,0.,-0.707106781186544));
#404=DIRECTION('',(0.,-1.,0.));
#405=DIRECTION('',(-0.707106781186546,0.,-0.707106781186549));
#406=DIRECTION('',(-0.707106781186549,0.,0.707106781186546));
#407=DIRECTION('',(0.,0.,-1.));
#408=DIRECTION('',(-1.,0.,0.));
#409=DIRECTION('',(0.,-1.,0.));
#410=DIRECTION('',(-0.707106781186547,0.,0.707106781186548));
#411=DIRECTION('',(0.707106781186548,0.,0.707106781186547));
#412=DIRECTION('',(0.,-1.,0.));
#413=DIRECTION('',(0.707106781186546,0.,0.707106781186549));
#414=DIRECTION('',(0.707106781186549,0.,-0.707106781186546));
#415=DIRECTION('',(0.,0.,1.));
#416=DIRECTION('',(1.,0.,0.));
#417=DIRECTION('',(0.,0.,-1.));
#418=DIRECTION('',(0.707106781186549,-0.707106781186546,0.));
#419=DIRECTION('',(0.707106781186546,0.707106781186549,0.));
#420=DIRECTION('',(0.,0.,-1.));
#421=DIRECTION('',(-0.707106781186547,-0.707106781186548,0.));
#422=DIRECTION('',(0.707106781186548,-0.707106781186547,0.));
#423=DIRECTION('',(0.,-1.,0.));
#424=DIRECTION('',(0.,0.,-1.));
#425=DIRECTION('',(0.,0.,1.));
#426=DIRECTION('',(-0.707106781186547,0.707106781186548,0.));
#427=DIRECTION('',(-0.707106781186548,-0.707106781186547,0.));
#428=DIRECTION('',(0.,0.,1.));
#429=DIRECTION('',(0.707106781186548,0.707106781186547,0.));
#430=DIRECTION('',(-0.707106781186547,0.707106781186548,0.));
#431=DIRECTION('',(0.,1.,0.));
#432=DIRECTION('',(0.,0.,1.));
#433=DIRECTION('',(-1.,0.,0.));
#434=DIRECTION('',(0.,0.,1.));
#435=DIRECTION('',(1.,0.,0.));
#436=DIRECTION('',(0.,0.,-1.));
#437=DIRECTION('',(-1.,0.,0.));
#438=DIRECTION('',(0.,0.,1.));
#439=CARTESIAN_POINT('',(0.,0.,0.));
#440=CARTESIAN_POINT('',(-0.499999999999987,0.,0.));
#441=CARTESIAN_POINT('',(110.,0.,0.));
#442=CARTESIAN_POINT('',(110.,0.,7.99999999999987));
#443=CARTESIAN_POINT('',(110.,0.,-6.75015598972095E-14));
#444=CARTESIAN_POINT('',(1.73472347597681E-15,0.,0.));
#445=CARTESIAN_POINT('',(1.73472347597681E-15,0.,-4.75000000000002));
#446=CARTESIAN_POINT('',(1.85346548585898E-15,0.,0.));
#447=CARTESIAN_POINT('',(1.85346548585898E-15,0.,-2.5));
#448=CARTESIAN_POINT('',(1.85346548585898E-15,0.,4.33578643762692));
#449=CARTESIAN_POINT('',(20.,0.,0.));
#450=CARTESIAN_POINT('',(13.,-7.,-3.87298334620716));
#451=CARTESIAN_POINT('',(13.,-7.,3.87298334620716));
#452=CARTESIAN_POINT('',(0.,-7.,3.87298334620716));
#453=CARTESIAN_POINT('',(105.,-7.,3.87298334620716));
#454=CARTESIAN_POINT('',(98.,0.,0.));
#455=CARTESIAN_POINT('',(105.,-7.,-3.87298334620716));
#456=CARTESIAN_POINT('',(0.,-7.,-3.87298334620716));
#457=CARTESIAN_POINT('',(98.0000000000001,0.,0.));
#458=CARTESIAN_POINT('',(105.,7.,-3.87298334620716));
#459=CARTESIAN_POINT('',(105.,6.99999999999998,3.87298334620716));
#460=CARTESIAN_POINT('',(0.,7.,3.87298334620716));
#461=CARTESIAN_POINT('',(13.,7.,3.87298334620716));
#462=CARTESIAN_POINT('',(20.,0.,0.));
#463=CARTESIAN_POINT('',(13.,7.,-3.87298334620716));
#464=CARTESIAN_POINT('',(0.,7.,-3.87298334620716));
#465=CARTESIAN_POINT('',(19.9999999999999,0.,0.));
#466=CARTESIAN_POINT('',(13.,3.87298334620716,-7.));
#467=CARTESIAN_POINT('',(13.,-3.87298334620716,-6.99999999999996));
#468=CARTESIAN_POINT('',(0.,-3.87298334620716,-7.));
#469=CARTESIAN_POINT('',(105.,-3.87298334620716,-7.));
#470=CARTESIAN_POINT('',(98.0000000000004,0.,0.));
#471=CARTESIAN_POINT('',(105.,3.87298334620715,-7.));
#472=CARTESIAN_POINT('',(0.,3.87298334620716,-7.));
#473=CARTESIAN_POINT('',(98.0000000000004,0.,0.));
#474=CARTESIAN_POINT('',(105.,3.87298334620716,7.));
#475=CARTESIAN_POINT('',(105.,-3.87298334620716,6.99999999999998));
#476=CARTESIAN_POINT('',(0.,-3.87298334620716,7.));
#477=CARTESIAN_POINT('',(13.,-3.87298334620716,7.));
#478=CARTESIAN_POINT('',(20.,0.,0.));
#479=CARTESIAN_POINT('',(13.,3.87298334620716,7.));
#480=CARTESIAN_POINT('',(0.,3.87298334620716,7.));
#481=CARTESIAN_POINT('',(11.,0.,0.));
#482=CARTESIAN_POINT('',(11.,0.,7.99999999999976));
#483=CARTESIAN_POINT('',(0.,0.,0.));
#484=CARTESIAN_POINT('',(10.5669872981082,0.,0.));
#485=CARTESIAN_POINT('',(10.5669872981082,0.,7.75));
#486=CARTESIAN_POINT('',(11.,0.,0.));
#487=CARTESIAN_POINT('',(3.,0.,0.));
#488=CARTESIAN_POINT('',(3.,0.,-7.75));
#489=CARTESIAN_POINT('',(0.,0.,0.));
#490=CARTESIAN_POINT('',(2.70710678118654,0.,0.));
#491=CARTESIAN_POINT('',(105.,-15.,6.99999999999998));
#492=CARTESIAN_POINT('',(108.,-15.,9.99999999999961));
#493=CARTESIAN_POINT('',(13.,-15.,7.));
#494=CARTESIAN_POINT('',(13.,-15.,7.));
#495=CARTESIAN_POINT('',(105.,-15.,7.));
#496=CARTESIAN_POINT('',(13.,-15.,-6.99999999999996));
#497=CARTESIAN_POINT('',(10.0000000000003,-15.,-9.99999999999963));
#498=CARTESIAN_POINT('',(105.,-15.,-7.));
#499=CARTESIAN_POINT('',(105.,-15.,-7.));
#500=CARTESIAN_POINT('',(13.,-15.,-7.));
#501=CARTESIAN_POINT('',(105.,6.99999999999998,10.));
#502=CARTESIAN_POINT('',(108.,10.,10.));
#503=CARTESIAN_POINT('',(13.,7.,10.));
#504=CARTESIAN_POINT('',(13.,7.,10.));
#505=CARTESIAN_POINT('',(105.,7.,10.));
#506=CARTESIAN_POINT('',(13.,-7.,10.));
#507=CARTESIAN_POINT('',(10.,-10.,10.));
#508=CARTESIAN_POINT('',(105.,-7.,10.));
#509=CARTESIAN_POINT('',(105.,-7.,10.));
#510=CARTESIAN_POINT('',(13.,-7.,10.));
#511=CARTESIAN_POINT('',(23.,0.,0.));
#512=CARTESIAN_POINT('',(23.,0.,2.5));
#513=CARTESIAN_POINT('',(23.,0.,2.5));
#514=CARTESIAN_POINT('',(0.,0.,0.));
#515=MECHANICAL_DESIGN_GEOMETRIC_PRESENTATION_REPRESENTATION('',(#304,#305),
#516);
#516=(
GEOMETRIC_REPRESENTATION_CONTEXT(3)
GLOBAL_UNCERTAINTY_ASSIGNED_CONTEXT((#517))
GLOBAL_UNIT_ASSIGNED_CONTEXT((#523,#519,#518))
REPRESENTATION_CONTEXT('APCH-16-5-L110-H','TOP_LEVEL_ASSEMBLY_PART')
);
#517=UNCERTAINTY_MEASURE_WITH_UNIT(LENGTH_MEASURE(2.E-5),#523,
'DISTANCE_ACCURACY_VALUE','Maximum Tolerance applied to model');
#518=(
NAMED_UNIT(*)
SI_UNIT($,.STERADIAN.)
SOLID_ANGLE_UNIT()
);
#519=(
CONVERSION_BASED_UNIT('DEGREE',#521)
NAMED_UNIT(#520)
PLANE_ANGLE_UNIT()
);
#520=DIMENSIONAL_EXPONENTS(0.,0.,0.,0.,0.,0.,0.);
#521=PLANE_ANGLE_MEASURE_WITH_UNIT(PLANE_ANGLE_MEASURE(0.0174532925),#522);
#522=(
NAMED_UNIT(*)
PLANE_ANGLE_UNIT()
SI_UNIT($,.RADIAN.)
);
#523=(
LENGTH_UNIT()
NAMED_UNIT(*)
SI_UNIT(.MILLI.,.METRE.)
);
ENDSEC;
END-ISO-10303-21;
