ISO-10303-21;
HEADER;
/* Generated by software containing ST-Developer
 * from STEP Tools, Inc. (www.steptools.com) 
 */
/* OPTION: using custom schema-name function */

FILE_DESCRIPTION(
/* description */ (''),
/* implementation_level */ '2;1');

FILE_NAME(
/* name */ 'APMR-BNM12-D12-C12-L130.stp',
/* time_stamp */ '2023-10-02T12:02:00+03:00',
/* author */ (''),
/* organization */ (''),
/* preprocessor_version */ 'ST-DEVELOPER v19.4',
/* originating_system */ 'SIEMENS PLM Software NX2306.5001',
/* authorisation */ '');

FILE_SCHEMA (('AUTOMOTIVE_DESIGN { 1 0 10303 214 3 1 1 1 }'));
ENDSEC;

DATA;
#10=PROPERTY_DEFINITION_REPRESENTATION(#14,#12);
#11=PROPERTY_DEFINITION_REPRESENTATION(#15,#13);
#12=REPRESENTATION('',(#16),#378);
#13=REPRESENTATION('',(#17),#378);
#14=PROPERTY_DEFINITION('pmi validation property','',#21);
#15=PROPERTY_DEFINITION('pmi validation property','',#21);
#16=VALUE_REPRESENTATION_ITEM('number of annotations',COUNT_MEASURE(0.));
#17=VALUE_REPRESENTATION_ITEM('number of views',COUNT_MEASURE(0.));
#18=SHAPE_REPRESENTATION_RELATIONSHIP('None',
'relationship between APMR-BNM12-D12-C12-L130-LIGHT_x_t_objects-None a
nd APMR-BNM12-D12-C12-L130-LIGHT_x_t_objects-None',#30,#19);
#19=ADVANCED_BREP_SHAPE_REPRESENTATION(
'APMR-BNM12-D12-C12-L130-LIGHT_x_t_objects-None',(#52,#53),#378);
#20=SHAPE_DEFINITION_REPRESENTATION(#21,#30);
#21=PRODUCT_DEFINITION_SHAPE('','',#22);
#22=PRODUCT_DEFINITION(' ','',#24,#23);
#23=PRODUCT_DEFINITION_CONTEXT('part definition',#29,'design');
#24=PRODUCT_DEFINITION_FORMATION_WITH_SPECIFIED_SOURCE(' ',' ',#26,
 .NOT_KNOWN.);
#25=PRODUCT_RELATED_PRODUCT_CATEGORY('part','',(#26));
#26=PRODUCT('APMR-BNM12-D12-C12-L130-LIGHT_x_t_objects',
'APMR-BNM12-D12-C12-L130-LIGHT_x_t_objects',' ',(#27));
#27=PRODUCT_CONTEXT(' ',#29,'mechanical');
#28=APPLICATION_PROTOCOL_DEFINITION('international standard',
'automotive_design',2010,#29);
#29=APPLICATION_CONTEXT(
'core data for automotive mechanical design processes');
#30=SHAPE_REPRESENTATION(
'APMR-BNM12-D12-C12-L130-LIGHT_x_t_objects-None',(#168),#378);
#31=DRAUGHTING_PRE_DEFINED_COLOUR('yellow');
#32=LINE('',#370,#33);
#33=VECTOR('',#223,1.);
#34=(
BOUNDED_SURFACE()
B_SPLINE_SURFACE(3,3,((#272,#273,#274,#275,#276,#277,#278),(#279,#280,#281,
#282,#283,#284,#285),(#286,#287,#288,#289,#290,#291,#292),(#293,#294,#295,
#296,#297,#298,#299),(#300,#301,#302,#303,#304,#305,#306),(#307,#308,#309,
#310,#311,#312,#313),(#314,#315,#316,#317,#318,#319,#320),(#321,#322,#323,
#324,#325,#326,#327),(#328,#329,#330,#331,#332,#333,#334),(#335,#336,#337,
#338,#339,#340,#341),(#342,#343,#344,#345,#346,#347,#348),(#349,#350,#351,
#352,#353,#354,#355),(#356,#357,#358,#359,#360,#361,#362),(#363,#364,#365,
#366,#367,#368,#369)),.UNSPECIFIED.,.F.,.T.,.F.)
B_SPLINE_SURFACE_WITH_KNOTS((4,2,2,2,2,2,4),(1,3,3,3,1),(0.,0.332081574902508,
0.498122362353762,0.664163149805016,0.830203937256269,0.996244724707523,
1.),(-0.5,0.,0.5,1.,1.5),.UNSPECIFIED.)
GEOMETRIC_REPRESENTATION_ITEM()
RATIONAL_B_SPLINE_SURFACE(((1.,0.333333333333334,0.333333333333334,1.,0.333333333333334,
0.333333333333334,1.),(1.,0.333333333333334,0.333333333333334,1.,0.333333333333334,
0.333333333333334,1.),(1.,0.333333333333334,0.333333333333334,1.,0.333333333333334,
0.333333333333334,1.),(1.,0.333333333333334,0.333333333333334,1.,0.333333333333334,
0.333333333333334,1.),(1.,0.333333333333334,0.333333333333334,1.,0.333333333333334,
0.333333333333334,1.),(1.,0.333333333333334,0.333333333333334,1.,0.333333333333334,
0.333333333333334,1.),(1.,0.333333333333334,0.333333333333334,1.,0.333333333333334,
0.333333333333334,1.),(1.,0.333333333333334,0.333333333333334,1.,0.333333333333334,
0.333333333333334,1.),(1.,0.333333333333334,0.333333333333334,1.,0.333333333333334,
0.333333333333334,1.),(1.,0.333333333333334,0.333333333333334,1.,0.333333333333334,
0.333333333333334,1.),(1.,0.333333333333334,0.333333333333334,1.,0.333333333333334,
0.333333333333334,1.),(1.,0.333333333333334,0.333333333333334,1.,0.333333333333334,
0.333333333333334,1.),(1.,0.333333333333334,0.333333333333334,1.,0.333333333333334,
0.333333333333334,1.),(1.,0.333333333333334,0.333333333333334,1.,0.333333333333334,
0.333333333333334,1.)))
REPRESENTATION_ITEM('')
SURFACE()
);
#35=B_SPLINE_CURVE_WITH_KNOTS('',3,(#255,#256,#257,#258,#259,#260,#261,
#262,#263,#264,#265,#266,#267,#268),.UNSPECIFIED.,.F.,.F.,(4,2,2,2,2,2,
4),(0.,0.332081574902508,0.498122362353762,0.664163149805016,0.830203937256269,
0.996244724707523,1.),.UNSPECIFIED.);
#36=PRESENTATION_LAYER_ASSIGNMENT('1','Layer 1',(#52,#53));
#37=STYLED_ITEM('',(#39),#52);
#38=STYLED_ITEM('',(#40),#53);
#39=PRESENTATION_STYLE_ASSIGNMENT((#41));
#40=PRESENTATION_STYLE_ASSIGNMENT((#42));
#41=SURFACE_STYLE_USAGE(.BOTH.,#43);
#42=SURFACE_STYLE_USAGE(.BOTH.,#44);
#43=SURFACE_SIDE_STYLE('',(#45));
#44=SURFACE_SIDE_STYLE('',(#46));
#45=SURFACE_STYLE_FILL_AREA(#47);
#46=SURFACE_STYLE_FILL_AREA(#48);
#47=FILL_AREA_STYLE('',(#49));
#48=FILL_AREA_STYLE('',(#50));
#49=FILL_AREA_STYLE_COLOUR('',#51);
#50=FILL_AREA_STYLE_COLOUR('',#31);
#51=COLOUR_RGB('silver gray',0.6,0.6,0.6);
#52=MANIFOLD_SOLID_BREP('',#54);
#53=MANIFOLD_SOLID_BREP('',#55);
#54=CLOSED_SHELL('',(#76,#77,#78,#79,#80,#81,#82,#83));
#55=CLOSED_SHELL('',(#84,#85,#86));
#56=CONICAL_SURFACE('',#178,5.75,10.);
#57=CYLINDRICAL_SURFACE('',#176,5.75);
#58=CYLINDRICAL_SURFACE('',#180,6.);
#59=CYLINDRICAL_SURFACE('',#183,5.25);
#60=TOROIDAL_SURFACE('',#174,4.24999999999994,1.5);
#61=TOROIDAL_SURFACE('',#182,10.25,5.);
#62=FACE_BOUND('',#96,.T.);
#63=FACE_BOUND('',#97,.T.);
#64=FACE_BOUND('',#98,.T.);
#65=FACE_BOUND('',#99,.T.);
#66=FACE_BOUND('',#100,.T.);
#67=FACE_BOUND('',#101,.T.);
#68=FACE_BOUND('',#102,.T.);
#69=FACE_BOUND('',#103,.T.);
#70=FACE_BOUND('',#104,.T.);
#71=FACE_BOUND('',#105,.T.);
#72=FACE_BOUND('',#106,.T.);
#73=FACE_BOUND('',#107,.T.);
#74=PLANE('',#172);
#75=PLANE('',#186);
#76=ADVANCED_FACE('',(#89),#87,.T.);
#77=ADVANCED_FACE('',(#90),#74,.F.);
#78=ADVANCED_FACE('',(#62,#63),#60,.T.);
#79=ADVANCED_FACE('',(#64,#65),#57,.T.);
#80=ADVANCED_FACE('',(#66,#67),#56,.T.);
#81=ADVANCED_FACE('',(#68,#69),#58,.T.);
#82=ADVANCED_FACE('',(#70,#71),#61,.F.);
#83=ADVANCED_FACE('',(#72,#73),#59,.T.);
#84=ADVANCED_FACE('',(#91),#34,.T.);
#85=ADVANCED_FACE('',(#92),#75,.T.);
#86=ADVANCED_FACE('',(#93),#88,.T.);
#87=SPHERICAL_SURFACE('',#170,5.25);
#88=SPHERICAL_SURFACE('',#188,5.99999668519982);
#89=FACE_OUTER_BOUND('',#94,.T.);
#90=FACE_OUTER_BOUND('',#95,.T.);
#91=FACE_OUTER_BOUND('',#108,.T.);
#92=FACE_OUTER_BOUND('',#109,.T.);
#93=FACE_OUTER_BOUND('',#110,.T.);
#94=EDGE_LOOP('',(#111));
#95=EDGE_LOOP('',(#112));
#96=EDGE_LOOP('',(#113));
#97=EDGE_LOOP('',(#114));
#98=EDGE_LOOP('',(#115));
#99=EDGE_LOOP('',(#116));
#100=EDGE_LOOP('',(#117));
#101=EDGE_LOOP('',(#118));
#102=EDGE_LOOP('',(#119));
#103=EDGE_LOOP('',(#120));
#104=EDGE_LOOP('',(#121));
#105=EDGE_LOOP('',(#122));
#106=EDGE_LOOP('',(#123));
#107=EDGE_LOOP('',(#124));
#108=EDGE_LOOP('',(#125,#126,#127));
#109=EDGE_LOOP('',(#128,#129,#130));
#110=EDGE_LOOP('',(#131,#132,#133,#134));
#111=ORIENTED_EDGE('',*,*,#146,.T.);
#112=ORIENTED_EDGE('',*,*,#147,.F.);
#113=ORIENTED_EDGE('',*,*,#148,.F.);
#114=ORIENTED_EDGE('',*,*,#147,.T.);
#115=ORIENTED_EDGE('',*,*,#149,.F.);
#116=ORIENTED_EDGE('',*,*,#148,.T.);
#117=ORIENTED_EDGE('',*,*,#150,.F.);
#118=ORIENTED_EDGE('',*,*,#149,.T.);
#119=ORIENTED_EDGE('',*,*,#151,.F.);
#120=ORIENTED_EDGE('',*,*,#150,.T.);
#121=ORIENTED_EDGE('',*,*,#152,.F.);
#122=ORIENTED_EDGE('',*,*,#151,.T.);
#123=ORIENTED_EDGE('',*,*,#146,.F.);
#124=ORIENTED_EDGE('',*,*,#152,.T.);
#125=ORIENTED_EDGE('',*,*,#153,.F.);
#126=ORIENTED_EDGE('',*,*,#153,.T.);
#127=ORIENTED_EDGE('',*,*,#154,.T.);
#128=ORIENTED_EDGE('',*,*,#155,.F.);
#129=ORIENTED_EDGE('',*,*,#156,.F.);
#130=ORIENTED_EDGE('',*,*,#155,.T.);
#131=ORIENTED_EDGE('',*,*,#157,.F.);
#132=ORIENTED_EDGE('',*,*,#154,.F.);
#133=ORIENTED_EDGE('',*,*,#157,.T.);
#134=ORIENTED_EDGE('',*,*,#156,.T.);
#135=VERTEX_POINT('',#234);
#136=VERTEX_POINT('',#237);
#137=VERTEX_POINT('',#240);
#138=VERTEX_POINT('',#243);
#139=VERTEX_POINT('',#246);
#140=VERTEX_POINT('',#249);
#141=VERTEX_POINT('',#252);
#142=VERTEX_POINT('',#269);
#143=VERTEX_POINT('',#270);
#144=VERTEX_POINT('',#371);
#145=VERTEX_POINT('',#372);
#146=EDGE_CURVE('',#135,#135,#158,.T.);
#147=EDGE_CURVE('',#136,#136,#159,.T.);
#148=EDGE_CURVE('',#137,#137,#160,.T.);
#149=EDGE_CURVE('',#138,#138,#161,.T.);
#150=EDGE_CURVE('',#139,#139,#162,.T.);
#151=EDGE_CURVE('',#140,#140,#163,.T.);
#152=EDGE_CURVE('',#141,#141,#164,.T.);
#153=EDGE_CURVE('',#142,#143,#35,.T.);
#154=EDGE_CURVE('',#143,#143,#165,.T.);
#155=EDGE_CURVE('',#144,#145,#32,.T.);
#156=EDGE_CURVE('',#144,#144,#166,.T.);
#157=EDGE_CURVE('',#143,#144,#167,.T.);
#158=CIRCLE('',#169,5.25);
#159=CIRCLE('',#171,4.24999999999994);
#160=CIRCLE('',#173,5.75);
#161=CIRCLE('',#175,5.75);
#162=CIRCLE('',#177,6.);
#163=CIRCLE('',#179,6.);
#164=CIRCLE('',#181,5.25);
#165=CIRCLE('',#184,5.1961466833897);
#166=CIRCLE('',#185,4.47213595499958);
#167=CIRCLE('',#187,5.99999668519982);
#168=AXIS2_PLACEMENT_3D('',#232,#189,#190);
#169=AXIS2_PLACEMENT_3D('',#233,#191,#192);
#170=AXIS2_PLACEMENT_3D('',#235,#193,#194);
#171=AXIS2_PLACEMENT_3D('',#236,#195,#196);
#172=AXIS2_PLACEMENT_3D('',#238,#197,#198);
#173=AXIS2_PLACEMENT_3D('',#239,#199,#200);
#174=AXIS2_PLACEMENT_3D('',#241,#201,#202);
#175=AXIS2_PLACEMENT_3D('',#242,#203,#204);
#176=AXIS2_PLACEMENT_3D('',#244,#205,#206);
#177=AXIS2_PLACEMENT_3D('',#245,#207,#208);
#178=AXIS2_PLACEMENT_3D('',#247,#209,#210);
#179=AXIS2_PLACEMENT_3D('',#248,#211,#212);
#180=AXIS2_PLACEMENT_3D('',#250,#213,#214);
#181=AXIS2_PLACEMENT_3D('',#251,#215,#216);
#182=AXIS2_PLACEMENT_3D('',#253,#217,#218);
#183=AXIS2_PLACEMENT_3D('',#254,#219,#220);
#184=AXIS2_PLACEMENT_3D('',#271,#221,#222);
#185=AXIS2_PLACEMENT_3D('',#373,#224,#225);
#186=AXIS2_PLACEMENT_3D('',#374,#226,#227);
#187=AXIS2_PLACEMENT_3D('',#375,#228,#229);
#188=AXIS2_PLACEMENT_3D('',#376,#230,#231);
#189=DIRECTION('',(0.,0.,1.));
#190=DIRECTION('',(1.,0.,0.));
#191=DIRECTION('',(-1.,-4.69141699193688E-16,0.));
#192=DIRECTION('',(4.95635278850516E-16,-1.,0.));
#193=DIRECTION('',(-1.,-4.0790935923632E-16,0.));
#194=DIRECTION('',(-4.95635278850516E-16,1.,0.));
#195=DIRECTION('',(-1.,-4.69141699193688E-16,0.));
#196=DIRECTION('',(0.,-1.,0.));
#197=DIRECTION('',(-1.,-4.69141699193688E-16,0.));
#198=DIRECTION('',(4.71844785465692E-16,-1.,0.));
#199=DIRECTION('',(-1.,-4.69141699193688E-16,0.));
#200=DIRECTION('',(0.,-1.,0.));
#201=DIRECTION('',(-1.,-4.69141699193688E-16,0.));
#202=DIRECTION('',(0.,-1.,0.));
#203=DIRECTION('',(-1.,-4.69141699193688E-16,0.));
#204=DIRECTION('',(0.,-1.,0.));
#205=DIRECTION('',(-1.,-4.69141699193688E-16,0.));
#206=DIRECTION('',(4.69141699193688E-16,-1.,0.));
#207=DIRECTION('',(-1.,-4.69141699193688E-16,0.));
#208=DIRECTION('',(0.,-1.,0.));
#209=DIRECTION('',(-1.,-4.69141699193688E-16,0.));
#210=DIRECTION('',(6.09754742365156E-16,-1.,0.));
#211=DIRECTION('',(-1.,-4.69141699193688E-16,0.));
#212=DIRECTION('',(0.,-1.,0.));
#213=DIRECTION('',(-1.,-4.69141699193688E-16,0.));
#214=DIRECTION('',(4.69141699193688E-16,-1.,0.));
#215=DIRECTION('',(-1.,-4.69141699193688E-16,0.));
#216=DIRECTION('',(6.60847038467355E-16,-1.,0.));
#217=DIRECTION('',(-1.,-4.69141699193688E-16,0.));
#218=DIRECTION('',(4.55009436321785E-16,-1.,0.));
#219=DIRECTION('',(-1.,-4.69141699193688E-16,0.));
#220=DIRECTION('',(4.69141699193688E-16,-1.,0.));
#221=DIRECTION('',(-1.,-4.69141699193688E-16,0.));
#222=DIRECTION('',(3.3384805735414E-16,-1.,0.));
#223=DIRECTION('',(0.,1.,0.));
#224=DIRECTION('',(-1.,-4.69141699193688E-16,0.));
#225=DIRECTION('',(3.87895961444886E-16,-1.,0.));
#226=DIRECTION('',(1.,4.69141699193688E-16,0.));
#227=DIRECTION('',(-4.68375338513738E-16,1.,0.));
#228=DIRECTION('',(0.,0.,1.));
#229=DIRECTION('',(1.,0.,0.));
#230=DIRECTION('',(-1.,-5.30374039151056E-16,0.));
#231=DIRECTION('',(4.33681108588571E-16,-1.,0.));
#232=CARTESIAN_POINT('',(0.,0.,0.));
#233=CARTESIAN_POINT('',(6.,2.81485019516213E-15,0.));
#234=CARTESIAN_POINT('',(6.,-5.25,0.));
#235=CARTESIAN_POINT('',(6.,0.,0.));
#236=CARTESIAN_POINT('',(130.,6.09884208951795E-14,0.));
#237=CARTESIAN_POINT('',(130.,-4.24999999999988,0.));
#238=CARTESIAN_POINT('',(130.,4.25,0.));
#239=CARTESIAN_POINT('',(128.5,6.0284708346389E-14,0.));
#240=CARTESIAN_POINT('',(128.5,-5.74999999999994,0.));
#241=CARTESIAN_POINT('',(128.5,6.07153216591883E-14,0.));
#242=CARTESIAN_POINT('',(126.,5.91118540984047E-14,0.));
#243=CARTESIAN_POINT('',(126.,-5.74999999999994,0.));
#244=CARTESIAN_POINT('',(0.,0.,0.));
#245=CARTESIAN_POINT('',(124.582179545096,5.84466954010393E-14,0.));
#246=CARTESIAN_POINT('',(124.582179545096,-5.99999999999994,0.));
#247=CARTESIAN_POINT('',(126.,5.91118540984047E-14,0.));
#248=CARTESIAN_POINT('',(32.,1.5012534374198E-14,0.));
#249=CARTESIAN_POINT('',(32.,-5.99999999999999,0.));
#250=CARTESIAN_POINT('',(0.,0.,0.));
#251=CARTESIAN_POINT('',(29.3660865617868,1.37768557482656E-14,0.));
#252=CARTESIAN_POINT('',(29.3660865617868,-5.24999999999999,0.));
#253=CARTESIAN_POINT('',(29.3660865617868,1.38777878078145E-14,0.));
#254=CARTESIAN_POINT('',(0.,0.,0.));
#255=CARTESIAN_POINT('',(-2.49735946285773E-13,1.66490630857182E-14,0.));
#256=CARTESIAN_POINT('',(-3.54647157323558E-7,-1.06784865793896,0.));
#257=CARTESIAN_POINT('',(0.316077860193082,-2.40101454113631,0.));
#258=CARTESIAN_POINT('',(1.59702519620109,-4.13905753085738,0.));
#259=CARTESIAN_POINT('',(2.1532819723218,-4.66789034919301,0.));
#260=CARTESIAN_POINT('',(3.44900503437979,-5.48442073734215,0.));
#261=CARTESIAN_POINT('',(4.1858813775766,-5.76925221270602,0.));
#262=CARTESIAN_POINT('',(5.67857482621461,-6.0392055119398,0.));
#263=CARTESIAN_POINT('',(6.43078414482558,-6.02539411927871,0.));
#264=CARTESIAN_POINT('',(7.8074667007071,-5.76402962241916,0.));
#265=CARTESIAN_POINT('',(8.4313303623386,-5.51942583574681,0.));
#266=CARTESIAN_POINT('',(8.97604479856358,-5.20993553396361,0.));
#267=CARTESIAN_POINT('',(8.98804440376499,-5.20305735328379,0.));
#268=CARTESIAN_POINT('',(8.99999668158753,-5.19614668338969,0.));
#269=CARTESIAN_POINT('',(0.,0.,0.));
#270=CARTESIAN_POINT('',(8.99999668158753,-5.19614668338969,0.));
#271=CARTESIAN_POINT('',(8.99999668158753,4.22227373593753E-15,0.));
#272=CARTESIAN_POINT('',(-2.49735946285773E-13,1.66490630857182E-14,0.));
#273=CARTESIAN_POINT('',(-2.49735946285773E-13,1.66490630857182E-14,-3.32981261714366E-14));
#274=CARTESIAN_POINT('',(-2.49735946285773E-13,-1.66490630857184E-14,-3.32981261714366E-14));
#275=CARTESIAN_POINT('',(-2.49735946285773E-13,-1.66490630857184E-14,0.));
#276=CARTESIAN_POINT('',(-2.49735946285773E-13,-1.66490630857184E-14,3.32981261714366E-14));
#277=CARTESIAN_POINT('',(-2.49735946285773E-13,1.66490630857182E-14,3.32981261714366E-14));
#278=CARTESIAN_POINT('',(-2.49735946285773E-13,1.66490630857182E-14,0.));
#279=CARTESIAN_POINT('',(-3.54647157323558E-7,-1.06784865793896,0.));
#280=CARTESIAN_POINT('',(-3.54647157323558E-7,-1.06784865793896,2.13569731587792));
#281=CARTESIAN_POINT('',(-3.54647158325502E-7,1.06784865793896,2.13569731587792));
#282=CARTESIAN_POINT('',(-3.54647158325503E-7,1.06784865793896,0.));
#283=CARTESIAN_POINT('',(-3.54647158325502E-7,1.06784865793896,-2.13569731587792));
#284=CARTESIAN_POINT('',(-3.54647157323558E-7,-1.06784865793896,-2.13569731587792));
#285=CARTESIAN_POINT('',(-3.54647157323558E-7,-1.06784865793896,0.));
#286=CARTESIAN_POINT('',(0.316077860193082,-2.40101454113631,0.));
#287=CARTESIAN_POINT('',(0.316077860193081,-2.40101454113631,4.80202908227263));
#288=CARTESIAN_POINT('',(0.31607786019308,2.40101454113631,4.80202908227263));
#289=CARTESIAN_POINT('',(0.31607786019308,2.40101454113631,0.));
#290=CARTESIAN_POINT('',(0.31607786019308,2.40101454113631,-4.80202908227263));
#291=CARTESIAN_POINT('',(0.316077860193081,-2.40101454113631,-4.80202908227263));
#292=CARTESIAN_POINT('',(0.316077860193082,-2.40101454113631,0.));
#293=CARTESIAN_POINT('',(1.59702519620109,-4.13905753085738,0.));
#294=CARTESIAN_POINT('',(1.59702519620109,-4.13905753085738,8.27811506171476));
#295=CARTESIAN_POINT('',(1.59702519620109,4.13905753085738,8.27811506171476));
#296=CARTESIAN_POINT('',(1.59702519620109,4.13905753085738,0.));
#297=CARTESIAN_POINT('',(1.59702519620109,4.13905753085738,-8.27811506171476));
#298=CARTESIAN_POINT('',(1.59702519620109,-4.13905753085738,-8.27811506171476));
#299=CARTESIAN_POINT('',(1.59702519620109,-4.13905753085738,0.));
#300=CARTESIAN_POINT('',(2.1532819723218,-4.66789034919301,0.));
#301=CARTESIAN_POINT('',(2.1532819723218,-4.667890349193,9.33578069838601));
#302=CARTESIAN_POINT('',(2.1532819723218,4.667890349193,9.33578069838601));
#303=CARTESIAN_POINT('',(2.15328197232179,4.66789034919301,0.));
#304=CARTESIAN_POINT('',(2.1532819723218,4.667890349193,-9.33578069838601));
#305=CARTESIAN_POINT('',(2.1532819723218,-4.667890349193,-9.33578069838601));
#306=CARTESIAN_POINT('',(2.1532819723218,-4.66789034919301,0.));
#307=CARTESIAN_POINT('',(3.44900503437979,-5.48442073734215,0.));
#308=CARTESIAN_POINT('',(3.44900503437979,-5.48442073734214,10.9688414746843));
#309=CARTESIAN_POINT('',(3.44900503437978,5.48442073734214,10.9688414746843));
#310=CARTESIAN_POINT('',(3.44900503437979,5.48442073734215,0.));
#311=CARTESIAN_POINT('',(3.44900503437978,5.48442073734214,-10.9688414746843));
#312=CARTESIAN_POINT('',(3.44900503437979,-5.48442073734214,-10.9688414746843));
#313=CARTESIAN_POINT('',(3.44900503437979,-5.48442073734215,0.));
#314=CARTESIAN_POINT('',(4.1858813775766,-5.76925221270602,0.));
#315=CARTESIAN_POINT('',(4.1858813775766,-5.76925221270601,11.538504425412));
#316=CARTESIAN_POINT('',(4.18588137757659,5.76925221270601,11.538504425412));
#317=CARTESIAN_POINT('',(4.1858813775766,5.76925221270602,0.));
#318=CARTESIAN_POINT('',(4.18588137757659,5.76925221270601,-11.538504425412));
#319=CARTESIAN_POINT('',(4.1858813775766,-5.76925221270601,-11.538504425412));
#320=CARTESIAN_POINT('',(4.1858813775766,-5.76925221270602,0.));
#321=CARTESIAN_POINT('',(5.67857482621461,-6.0392055119398,0.));
#322=CARTESIAN_POINT('',(5.67857482621461,-6.0392055119398,12.0784110238796));
#323=CARTESIAN_POINT('',(5.67857482621459,6.0392055119398,12.0784110238796));
#324=CARTESIAN_POINT('',(5.6785748262146,6.03920551193981,0.));
#325=CARTESIAN_POINT('',(5.67857482621459,6.0392055119398,-12.0784110238796));
#326=CARTESIAN_POINT('',(5.67857482621461,-6.0392055119398,-12.0784110238796));
#327=CARTESIAN_POINT('',(5.67857482621461,-6.0392055119398,0.));
#328=CARTESIAN_POINT('',(6.43078414482558,-6.02539411927871,0.));
#329=CARTESIAN_POINT('',(6.43078414482558,-6.02539411927872,12.0507882385574));
#330=CARTESIAN_POINT('',(6.43078414482556,6.02539411927872,12.0507882385574));
#331=CARTESIAN_POINT('',(6.43078414482557,6.02539411927872,0.));
#332=CARTESIAN_POINT('',(6.43078414482556,6.02539411927872,-12.0507882385574));
#333=CARTESIAN_POINT('',(6.43078414482558,-6.02539411927872,-12.0507882385574));
#334=CARTESIAN_POINT('',(6.43078414482558,-6.02539411927871,0.));
#335=CARTESIAN_POINT('',(7.8074667007071,-5.76402962241916,0.));
#336=CARTESIAN_POINT('',(7.80746670070709,-5.76402962241916,11.5280592448383));
#337=CARTESIAN_POINT('',(7.80746670070708,5.76402962241916,11.5280592448383));
#338=CARTESIAN_POINT('',(7.80746670070709,5.76402962241917,0.));
#339=CARTESIAN_POINT('',(7.80746670070708,5.76402962241916,-11.5280592448383));
#340=CARTESIAN_POINT('',(7.80746670070709,-5.76402962241916,-11.5280592448383));
#341=CARTESIAN_POINT('',(7.8074667007071,-5.76402962241916,0.));
#342=CARTESIAN_POINT('',(8.4313303623386,-5.51942583574681,0.));
#343=CARTESIAN_POINT('',(8.43133036233859,-5.5194258357468,11.0388516714936));
#344=CARTESIAN_POINT('',(8.43133036233859,5.51942583574681,11.0388516714936));
#345=CARTESIAN_POINT('',(8.43133036233859,5.51942583574681,0.));
#346=CARTESIAN_POINT('',(8.43133036233859,5.51942583574681,-11.0388516714936));
#347=CARTESIAN_POINT('',(8.43133036233859,-5.5194258357468,-11.0388516714936));
#348=CARTESIAN_POINT('',(8.4313303623386,-5.51942583574681,0.));
#349=CARTESIAN_POINT('',(8.97604479856358,-5.20993553396361,0.));
#350=CARTESIAN_POINT('',(8.97604479856357,-5.20993553396361,10.4198710679272));
#351=CARTESIAN_POINT('',(8.97604479856357,5.20993553396361,10.4198710679272));
#352=CARTESIAN_POINT('',(8.97604479856357,5.20993553396362,0.));
#353=CARTESIAN_POINT('',(8.97604479856357,5.20993553396361,-10.4198710679272));
#354=CARTESIAN_POINT('',(8.97604479856357,-5.20993553396361,-10.4198710679272));
#355=CARTESIAN_POINT('',(8.97604479856358,-5.20993553396361,0.));
#356=CARTESIAN_POINT('',(8.98804440376499,-5.20305735328379,0.));
#357=CARTESIAN_POINT('',(8.98804440376498,-5.20305735328378,10.4061147065676));
#358=CARTESIAN_POINT('',(8.98804440376498,5.2030573532838,10.4061147065676));
#359=CARTESIAN_POINT('',(8.98804440376498,5.2030573532838,0.));
#360=CARTESIAN_POINT('',(8.98804440376498,5.2030573532838,-10.4061147065676));
#361=CARTESIAN_POINT('',(8.98804440376498,-5.20305735328378,-10.4061147065676));
#362=CARTESIAN_POINT('',(8.98804440376499,-5.20305735328379,0.));
#363=CARTESIAN_POINT('',(8.99999668158753,-5.19614668338969,0.));
#364=CARTESIAN_POINT('',(8.99999668158753,-5.19614668338969,10.3922933667794));
#365=CARTESIAN_POINT('',(8.99999668158753,5.1961466833897,10.3922933667794));
#366=CARTESIAN_POINT('',(8.99999668158753,5.1961466833897,0.));
#367=CARTESIAN_POINT('',(8.99999668158753,5.1961466833897,-10.3922933667794));
#368=CARTESIAN_POINT('',(8.99999668158753,-5.19614668338969,-10.3922933667794));
#369=CARTESIAN_POINT('',(8.99999668158753,-5.19614668338969,0.));
#370=CARTESIAN_POINT('',(10.,-4.47213595499958,0.));
#371=CARTESIAN_POINT('',(10.,-4.47213595499958,0.));
#372=CARTESIAN_POINT('',(10.,0.,0.));
#373=CARTESIAN_POINT('',(10.,4.69141699193688E-15,0.));
#374=CARTESIAN_POINT('',(10.,-4.47213595499958,0.));
#375=CARTESIAN_POINT('',(6.,0.,0.));
#376=CARTESIAN_POINT('',(6.,0.,0.));
#377=MECHANICAL_DESIGN_GEOMETRIC_PRESENTATION_REPRESENTATION('',(#37,#38),
#378);
#378=(
GEOMETRIC_REPRESENTATION_CONTEXT(3)
GLOBAL_UNCERTAINTY_ASSIGNED_CONTEXT((#379))
GLOBAL_UNIT_ASSIGNED_CONTEXT((#385,#381,#380))
REPRESENTATION_CONTEXT('APMR-BNM12-D12-C12-L130',
'TOP_LEVEL_ASSEMBLY_PART')
);
#379=UNCERTAINTY_MEASURE_WITH_UNIT(LENGTH_MEASURE(2.E-5),#385,
'DISTANCE_ACCURACY_VALUE','Maximum Tolerance applied to model');
#380=(
NAMED_UNIT(*)
SI_UNIT($,.STERADIAN.)
SOLID_ANGLE_UNIT()
);
#381=(
CONVERSION_BASED_UNIT('DEGREE',#383)
NAMED_UNIT(#382)
PLANE_ANGLE_UNIT()
);
#382=DIMENSIONAL_EXPONENTS(0.,0.,0.,0.,0.,0.,0.);
#383=PLANE_ANGLE_MEASURE_WITH_UNIT(PLANE_ANGLE_MEASURE(0.0174532925),#384);
#384=(
NAMED_UNIT(*)
PLANE_ANGLE_UNIT()
SI_UNIT($,.RADIAN.)
);
#385=(
LENGTH_UNIT()
NAMED_UNIT(*)
SI_UNIT(.MILLI.,.METRE.)
);
ENDSEC;
END-ISO-10303-21;
