ISO-10303-21;
HEADER;
/* Generated by software containing ST-Developer
 * from STEP Tools, Inc. (www.steptools.com) 
 */
/* OPTION: using custom schema-name function */

FILE_DESCRIPTION(
/* description */ (''),
/* implementation_level */ '2;1');

FILE_NAME(
/* name */ 'APMR-BNM12-D12-M06-L20.stp',
/* time_stamp */ '2023-09-29T19:53:06+03:00',
/* author */ (''),
/* organization */ (''),
/* preprocessor_version */ 'ST-DEVELOPER v19.4',
/* originating_system */ 'SIEMENS PLM Software NX2306.5001',
/* authorisation */ '');

FILE_SCHEMA (('AUTOMOTIVE_DESIGN { 1 0 10303 214 3 1 1 1 }'));
ENDSEC;

DATA;
#10=PROPERTY_DEFINITION_REPRESENTATION(#14,#12);
#11=PROPERTY_DEFINITION_REPRESENTATION(#15,#13);
#12=REPRESENTATION('',(#16),#449);
#13=REPRESENTATION('',(#17),#449);
#14=PROPERTY_DEFINITION('pmi validation property','',#21);
#15=PROPERTY_DEFINITION('pmi validation property','',#21);
#16=VALUE_REPRESENTATION_ITEM('number of annotations',COUNT_MEASURE(0.));
#17=VALUE_REPRESENTATION_ITEM('number of views',COUNT_MEASURE(0.));
#18=SHAPE_REPRESENTATION_RELATIONSHIP('None',
'relationship between APMR-BNM12-D12-M06-L20-LIGHT_x_t_objects-None an
d APMR-BNM12-D12-M06-L20-LIGHT_x_t_objects-None',#30,#19);
#19=ADVANCED_BREP_SHAPE_REPRESENTATION(
'APMR-BNM12-D12-M06-L20-LIGHT_x_t_objects-None',(#52,#53),#449);
#20=SHAPE_DEFINITION_REPRESENTATION(#21,#30);
#21=PRODUCT_DEFINITION_SHAPE('','',#22);
#22=PRODUCT_DEFINITION(' ','',#24,#23);
#23=PRODUCT_DEFINITION_CONTEXT('part definition',#29,'design');
#24=PRODUCT_DEFINITION_FORMATION_WITH_SPECIFIED_SOURCE(' ',' ',#26,
 .NOT_KNOWN.);
#25=PRODUCT_RELATED_PRODUCT_CATEGORY('part','',(#26));
#26=PRODUCT('APMR-BNM12-D12-M06-L20-LIGHT_x_t_objects',
'APMR-BNM12-D12-M06-L20-LIGHT_x_t_objects',' ',(#27));
#27=PRODUCT_CONTEXT(' ',#29,'mechanical');
#28=APPLICATION_PROTOCOL_DEFINITION('international standard',
'automotive_design',2010,#29);
#29=APPLICATION_CONTEXT(
'core data for automotive mechanical design processes');
#30=SHAPE_REPRESENTATION(
'APMR-BNM12-D12-M06-L20-LIGHT_x_t_objects-None',(#265),#449);
#31=DRAUGHTING_PRE_DEFINED_COLOUR('yellow');
#32=LINE('',#443,#34);
#33=LINE('',#445,#35);
#34=VECTOR('',#381,1.);
#35=VECTOR('',#382,1.);
#36=PRESENTATION_LAYER_ASSIGNMENT('1','Layer 1',(#52,#53));
#37=STYLED_ITEM('',(#39),#52);
#38=STYLED_ITEM('',(#40),#53);
#39=PRESENTATION_STYLE_ASSIGNMENT((#41));
#40=PRESENTATION_STYLE_ASSIGNMENT((#42));
#41=SURFACE_STYLE_USAGE(.BOTH.,#43);
#42=SURFACE_STYLE_USAGE(.BOTH.,#44);
#43=SURFACE_SIDE_STYLE('',(#45));
#44=SURFACE_SIDE_STYLE('',(#46));
#45=SURFACE_STYLE_FILL_AREA(#47);
#46=SURFACE_STYLE_FILL_AREA(#48);
#47=FILL_AREA_STYLE('',(#49));
#48=FILL_AREA_STYLE('',(#50));
#49=FILL_AREA_STYLE_COLOUR('',#51);
#50=FILL_AREA_STYLE_COLOUR('',#31);
#51=COLOUR_RGB('silver gray',0.6,0.6,0.6);
#52=MANIFOLD_SOLID_BREP('',#54);
#53=MANIFOLD_SOLID_BREP('',#55);
#54=CLOSED_SHELL('',(#81,#82,#83,#84,#85,#86,#87,#88,#89,#90,#91,#92,#93,
#94,#95,#96));
#55=CLOSED_SHELL('',(#97,#98,#99,#100));
#56=SPHERICAL_SURFACE('',#283,5.25);
#57=SPHERICAL_SURFACE('',#300,6.);
#58=SPHERICAL_SURFACE('',#302,6.);
#59=FACE_OUTER_BOUND('',#146,.T.);
#60=FACE_OUTER_BOUND('',#147,.T.);
#61=FACE_OUTER_BOUND('',#160,.T.);
#62=FACE_OUTER_BOUND('',#161,.T.);
#63=FACE_OUTER_BOUND('',#162,.T.);
#64=FACE_OUTER_BOUND('',#163,.T.);
#65=CYLINDRICAL_SURFACE('',#276,5.);
#66=CYLINDRICAL_SURFACE('',#282,5.25);
#67=CYLINDRICAL_SURFACE('',#289,2.9);
#68=CYLINDRICAL_SURFACE('',#293,3.25);
#69=CYLINDRICAL_SURFACE('',#296,3.07);
#70=PLANE('',#272);
#71=PLANE('',#285);
#72=PLANE('',#303);
#73=PLANE('',#304);
#74=CONICAL_SURFACE('',#270,3.573527618041,75.0000000000006);
#75=CONICAL_SURFACE('',#274,4.7,44.9999999999998);
#76=CONICAL_SURFACE('',#278,5.,30.);
#77=CONICAL_SURFACE('',#280,4.8,3.96031183045838);
#78=CONICAL_SURFACE('',#287,2.1,44.9999999999998);
#79=CONICAL_SURFACE('',#291,2.9,30.);
#80=CONICAL_SURFACE('',#295,3.25,16.);
#81=ADVANCED_FACE('',(#102,#103),#101,.F.);
#82=ADVANCED_FACE('',(#104,#105),#74,.F.);
#83=ADVANCED_FACE('',(#106,#107),#70,.F.);
#84=ADVANCED_FACE('',(#108,#109),#75,.T.);
#85=ADVANCED_FACE('',(#110,#111),#65,.T.);
#86=ADVANCED_FACE('',(#112,#113),#76,.T.);
#87=ADVANCED_FACE('',(#114,#115),#77,.T.);
#88=ADVANCED_FACE('',(#116,#117),#66,.T.);
#89=ADVANCED_FACE('',(#59),#56,.T.);
#90=ADVANCED_FACE('',(#60),#71,.F.);
#91=ADVANCED_FACE('',(#118,#119),#78,.T.);
#92=ADVANCED_FACE('',(#120,#121),#67,.T.);
#93=ADVANCED_FACE('',(#122,#123),#79,.T.);
#94=ADVANCED_FACE('',(#124,#125),#68,.T.);
#95=ADVANCED_FACE('',(#126,#127),#80,.T.);
#96=ADVANCED_FACE('',(#128,#129),#69,.T.);
#97=ADVANCED_FACE('',(#61),#57,.T.);
#98=ADVANCED_FACE('',(#62),#58,.T.);
#99=ADVANCED_FACE('',(#63),#72,.F.);
#100=ADVANCED_FACE('',(#64),#73,.F.);
#101=TOROIDAL_SURFACE('',#268,3.47,0.4);
#102=FACE_BOUND('',#130,.T.);
#103=FACE_BOUND('',#131,.T.);
#104=FACE_BOUND('',#132,.T.);
#105=FACE_BOUND('',#133,.T.);
#106=FACE_BOUND('',#134,.T.);
#107=FACE_BOUND('',#135,.T.);
#108=FACE_BOUND('',#136,.T.);
#109=FACE_BOUND('',#137,.T.);
#110=FACE_BOUND('',#138,.T.);
#111=FACE_BOUND('',#139,.T.);
#112=FACE_BOUND('',#140,.T.);
#113=FACE_BOUND('',#141,.T.);
#114=FACE_BOUND('',#142,.T.);
#115=FACE_BOUND('',#143,.T.);
#116=FACE_BOUND('',#144,.T.);
#117=FACE_BOUND('',#145,.T.);
#118=FACE_BOUND('',#148,.T.);
#119=FACE_BOUND('',#149,.T.);
#120=FACE_BOUND('',#150,.T.);
#121=FACE_BOUND('',#151,.T.);
#122=FACE_BOUND('',#152,.T.);
#123=FACE_BOUND('',#153,.T.);
#124=FACE_BOUND('',#154,.T.);
#125=FACE_BOUND('',#155,.T.);
#126=FACE_BOUND('',#156,.T.);
#127=FACE_BOUND('',#157,.T.);
#128=FACE_BOUND('',#158,.T.);
#129=FACE_BOUND('',#159,.T.);
#130=EDGE_LOOP('',(#164));
#131=EDGE_LOOP('',(#165));
#132=EDGE_LOOP('',(#166));
#133=EDGE_LOOP('',(#167));
#134=EDGE_LOOP('',(#168));
#135=EDGE_LOOP('',(#169));
#136=EDGE_LOOP('',(#170));
#137=EDGE_LOOP('',(#171));
#138=EDGE_LOOP('',(#172));
#139=EDGE_LOOP('',(#173));
#140=EDGE_LOOP('',(#174));
#141=EDGE_LOOP('',(#175));
#142=EDGE_LOOP('',(#176));
#143=EDGE_LOOP('',(#177));
#144=EDGE_LOOP('',(#178));
#145=EDGE_LOOP('',(#179));
#146=EDGE_LOOP('',(#180));
#147=EDGE_LOOP('',(#181));
#148=EDGE_LOOP('',(#182));
#149=EDGE_LOOP('',(#183));
#150=EDGE_LOOP('',(#184));
#151=EDGE_LOOP('',(#185));
#152=EDGE_LOOP('',(#186));
#153=EDGE_LOOP('',(#187));
#154=EDGE_LOOP('',(#188));
#155=EDGE_LOOP('',(#189));
#156=EDGE_LOOP('',(#190));
#157=EDGE_LOOP('',(#191));
#158=EDGE_LOOP('',(#192));
#159=EDGE_LOOP('',(#193));
#160=EDGE_LOOP('',(#194,#195,#196));
#161=EDGE_LOOP('',(#197,#198,#199));
#162=EDGE_LOOP('',(#200,#201,#202));
#163=EDGE_LOOP('',(#203,#204,#205));
#164=ORIENTED_EDGE('',*,*,#225,.F.);
#165=ORIENTED_EDGE('',*,*,#226,.T.);
#166=ORIENTED_EDGE('',*,*,#227,.F.);
#167=ORIENTED_EDGE('',*,*,#225,.T.);
#168=ORIENTED_EDGE('',*,*,#228,.F.);
#169=ORIENTED_EDGE('',*,*,#227,.T.);
#170=ORIENTED_EDGE('',*,*,#229,.F.);
#171=ORIENTED_EDGE('',*,*,#228,.T.);
#172=ORIENTED_EDGE('',*,*,#230,.F.);
#173=ORIENTED_EDGE('',*,*,#229,.T.);
#174=ORIENTED_EDGE('',*,*,#231,.F.);
#175=ORIENTED_EDGE('',*,*,#230,.T.);
#176=ORIENTED_EDGE('',*,*,#232,.F.);
#177=ORIENTED_EDGE('',*,*,#231,.T.);
#178=ORIENTED_EDGE('',*,*,#233,.F.);
#179=ORIENTED_EDGE('',*,*,#232,.T.);
#180=ORIENTED_EDGE('',*,*,#233,.T.);
#181=ORIENTED_EDGE('',*,*,#234,.F.);
#182=ORIENTED_EDGE('',*,*,#235,.F.);
#183=ORIENTED_EDGE('',*,*,#234,.T.);
#184=ORIENTED_EDGE('',*,*,#236,.F.);
#185=ORIENTED_EDGE('',*,*,#235,.T.);
#186=ORIENTED_EDGE('',*,*,#237,.F.);
#187=ORIENTED_EDGE('',*,*,#236,.T.);
#188=ORIENTED_EDGE('',*,*,#238,.F.);
#189=ORIENTED_EDGE('',*,*,#237,.T.);
#190=ORIENTED_EDGE('',*,*,#239,.F.);
#191=ORIENTED_EDGE('',*,*,#238,.T.);
#192=ORIENTED_EDGE('',*,*,#226,.F.);
#193=ORIENTED_EDGE('',*,*,#239,.T.);
#194=ORIENTED_EDGE('',*,*,#240,.F.);
#195=ORIENTED_EDGE('',*,*,#241,.F.);
#196=ORIENTED_EDGE('',*,*,#242,.F.);
#197=ORIENTED_EDGE('',*,*,#243,.F.);
#198=ORIENTED_EDGE('',*,*,#241,.T.);
#199=ORIENTED_EDGE('',*,*,#240,.T.);
#200=ORIENTED_EDGE('',*,*,#244,.T.);
#201=ORIENTED_EDGE('',*,*,#243,.T.);
#202=ORIENTED_EDGE('',*,*,#245,.T.);
#203=ORIENTED_EDGE('',*,*,#242,.T.);
#204=ORIENTED_EDGE('',*,*,#244,.F.);
#205=ORIENTED_EDGE('',*,*,#245,.F.);
#206=VERTEX_POINT('',#389);
#207=VERTEX_POINT('',#391);
#208=VERTEX_POINT('',#394);
#209=VERTEX_POINT('',#397);
#210=VERTEX_POINT('',#400);
#211=VERTEX_POINT('',#403);
#212=VERTEX_POINT('',#406);
#213=VERTEX_POINT('',#409);
#214=VERTEX_POINT('',#412);
#215=VERTEX_POINT('',#416);
#216=VERTEX_POINT('',#419);
#217=VERTEX_POINT('',#422);
#218=VERTEX_POINT('',#425);
#219=VERTEX_POINT('',#428);
#220=VERTEX_POINT('',#431);
#221=VERTEX_POINT('',#435);
#222=VERTEX_POINT('',#436);
#223=VERTEX_POINT('',#438);
#224=VERTEX_POINT('',#444);
#225=EDGE_CURVE('',#206,#206,#246,.T.);
#226=EDGE_CURVE('',#207,#207,#247,.T.);
#227=EDGE_CURVE('',#208,#208,#248,.T.);
#228=EDGE_CURVE('',#209,#209,#249,.T.);
#229=EDGE_CURVE('',#210,#210,#250,.T.);
#230=EDGE_CURVE('',#211,#211,#251,.T.);
#231=EDGE_CURVE('',#212,#212,#252,.T.);
#232=EDGE_CURVE('',#213,#213,#253,.T.);
#233=EDGE_CURVE('',#214,#214,#254,.T.);
#234=EDGE_CURVE('',#215,#215,#255,.T.);
#235=EDGE_CURVE('',#216,#216,#256,.T.);
#236=EDGE_CURVE('',#217,#217,#257,.T.);
#237=EDGE_CURVE('',#218,#218,#258,.T.);
#238=EDGE_CURVE('',#219,#219,#259,.T.);
#239=EDGE_CURVE('',#220,#220,#260,.T.);
#240=EDGE_CURVE('',#221,#222,#261,.T.);
#241=EDGE_CURVE('',#223,#221,#262,.T.);
#242=EDGE_CURVE('',#222,#223,#263,.T.);
#243=EDGE_CURVE('',#223,#222,#264,.T.);
#244=EDGE_CURVE('',#224,#223,#32,.T.);
#245=EDGE_CURVE('',#222,#224,#33,.T.);
#246=CIRCLE('',#266,3.573527618041);
#247=CIRCLE('',#267,3.07);
#248=CIRCLE('',#269,3.85);
#249=CIRCLE('',#271,4.7);
#250=CIRCLE('',#273,5.);
#251=CIRCLE('',#275,5.);
#252=CIRCLE('',#277,4.8);
#253=CIRCLE('',#279,5.25);
#254=CIRCLE('',#281,5.25);
#255=CIRCLE('',#284,2.1);
#256=CIRCLE('',#286,2.9);
#257=CIRCLE('',#288,2.9);
#258=CIRCLE('',#290,3.25);
#259=CIRCLE('',#292,3.25);
#260=CIRCLE('',#294,3.07);
#261=CIRCLE('',#297,6.);
#262=CIRCLE('',#298,6.);
#263=CIRCLE('',#299,4.47213595499958);
#264=CIRCLE('',#301,4.47213595499958);
#265=AXIS2_PLACEMENT_3D('',#387,#305,#306);
#266=AXIS2_PLACEMENT_3D('',#388,#307,#308);
#267=AXIS2_PLACEMENT_3D('',#390,#309,#310);
#268=AXIS2_PLACEMENT_3D('',#392,#311,#312);
#269=AXIS2_PLACEMENT_3D('',#393,#313,#314);
#270=AXIS2_PLACEMENT_3D('',#395,#315,#316);
#271=AXIS2_PLACEMENT_3D('',#396,#317,#318);
#272=AXIS2_PLACEMENT_3D('',#398,#319,#320);
#273=AXIS2_PLACEMENT_3D('',#399,#321,#322);
#274=AXIS2_PLACEMENT_3D('',#401,#323,#324);
#275=AXIS2_PLACEMENT_3D('',#402,#325,#326);
#276=AXIS2_PLACEMENT_3D('',#404,#327,#328);
#277=AXIS2_PLACEMENT_3D('',#405,#329,#330);
#278=AXIS2_PLACEMENT_3D('',#407,#331,#332);
#279=AXIS2_PLACEMENT_3D('',#408,#333,#334);
#280=AXIS2_PLACEMENT_3D('',#410,#335,#336);
#281=AXIS2_PLACEMENT_3D('',#411,#337,#338);
#282=AXIS2_PLACEMENT_3D('',#413,#339,#340);
#283=AXIS2_PLACEMENT_3D('',#414,#341,#342);
#284=AXIS2_PLACEMENT_3D('',#415,#343,#344);
#285=AXIS2_PLACEMENT_3D('',#417,#345,#346);
#286=AXIS2_PLACEMENT_3D('',#418,#347,#348);
#287=AXIS2_PLACEMENT_3D('',#420,#349,#350);
#288=AXIS2_PLACEMENT_3D('',#421,#351,#352);
#289=AXIS2_PLACEMENT_3D('',#423,#353,#354);
#290=AXIS2_PLACEMENT_3D('',#424,#355,#356);
#291=AXIS2_PLACEMENT_3D('',#426,#357,#358);
#292=AXIS2_PLACEMENT_3D('',#427,#359,#360);
#293=AXIS2_PLACEMENT_3D('',#429,#361,#362);
#294=AXIS2_PLACEMENT_3D('',#430,#363,#364);
#295=AXIS2_PLACEMENT_3D('',#432,#365,#366);
#296=AXIS2_PLACEMENT_3D('',#433,#367,#368);
#297=AXIS2_PLACEMENT_3D('',#434,#369,#370);
#298=AXIS2_PLACEMENT_3D('',#437,#371,#372);
#299=AXIS2_PLACEMENT_3D('',#439,#373,#374);
#300=AXIS2_PLACEMENT_3D('',#440,#375,#376);
#301=AXIS2_PLACEMENT_3D('',#441,#377,#378);
#302=AXIS2_PLACEMENT_3D('',#442,#379,#380);
#303=AXIS2_PLACEMENT_3D('',#446,#383,#384);
#304=AXIS2_PLACEMENT_3D('',#447,#385,#386);
#305=DIRECTION('',(0.,0.,1.));
#306=DIRECTION('',(1.,0.,0.));
#307=DIRECTION('',(-1.,0.,0.));
#308=DIRECTION('',(0.,0.,1.));
#309=DIRECTION('',(-1.,0.,0.));
#310=DIRECTION('',(0.,0.,1.));
#311=DIRECTION('',(-1.,0.,0.));
#312=DIRECTION('',(0.,0.,1.));
#313=DIRECTION('',(-1.,0.,0.));
#314=DIRECTION('',(0.,0.,1.));
#315=DIRECTION('',(1.,0.,0.));
#316=DIRECTION('',(5.5724772739171E-18,0.,-1.));
#317=DIRECTION('',(-1.,0.,0.));
#318=DIRECTION('',(0.,0.,1.));
#319=DIRECTION('',(-1.,0.,0.));
#320=DIRECTION('',(0.,0.,1.));
#321=DIRECTION('',(-1.,0.,0.));
#322=DIRECTION('',(0.,0.,1.));
#323=DIRECTION('',(-1.,0.,0.));
#324=DIRECTION('',(1.72660841641965E-17,0.,1.));
#325=DIRECTION('',(-1.,0.,0.));
#326=DIRECTION('',(0.,0.,1.));
#327=DIRECTION('',(-1.,0.,0.));
#328=DIRECTION('',(0.,0.,1.));
#329=DIRECTION('',(-1.,0.,0.));
#330=DIRECTION('',(0.,0.,1.));
#331=DIRECTION('',(1.,0.,0.));
#332=DIRECTION('',(1.60856914916691E-16,0.,-1.));
#333=DIRECTION('',(-1.,0.,0.));
#334=DIRECTION('',(0.,0.,1.));
#335=DIRECTION('',(-1.,0.,0.));
#336=DIRECTION('',(-5.62379181738118E-16,0.,1.));
#337=DIRECTION('',(-1.,0.,0.));
#338=DIRECTION('',(0.,0.,1.));
#339=DIRECTION('',(-1.,0.,0.));
#340=DIRECTION('',(0.,0.,1.));
#341=DIRECTION('',(-1.,6.12323399573677E-17,0.));
#342=DIRECTION('',(0.,1.,0.));
#343=DIRECTION('',(-1.,0.,0.));
#344=DIRECTION('',(0.,0.,1.));
#345=DIRECTION('',(-1.,0.,0.));
#346=DIRECTION('',(0.,0.,1.));
#347=DIRECTION('',(-1.,0.,0.));
#348=DIRECTION('',(0.,0.,1.));
#349=DIRECTION('',(-1.,0.,0.));
#350=DIRECTION('',(2.7697411052419E-17,0.,1.));
#351=DIRECTION('',(-1.,0.,0.));
#352=DIRECTION('',(0.,0.,1.));
#353=DIRECTION('',(-1.,0.,0.));
#354=DIRECTION('',(0.,0.,1.));
#355=DIRECTION('',(-1.,0.,0.));
#356=DIRECTION('',(0.,0.,1.));
#357=DIRECTION('',(-1.,0.,0.));
#358=DIRECTION('',(0.,0.,1.));
#359=DIRECTION('',(-1.,0.,0.));
#360=DIRECTION('',(0.,0.,1.));
#361=DIRECTION('',(-1.,0.,0.));
#362=DIRECTION('',(0.,0.,1.));
#363=DIRECTION('',(-1.,0.,0.));
#364=DIRECTION('',(0.,0.,1.));
#365=DIRECTION('',(1.,0.,0.));
#366=DIRECTION('',(-3.23022614506902E-16,0.,-1.));
#367=DIRECTION('',(-1.,0.,0.));
#368=DIRECTION('',(0.,0.,1.));
#369=DIRECTION('',(0.,1.,6.12323399573677E-17));
#370=DIRECTION('',(1.,0.,0.));
#371=DIRECTION('',(0.,0.,-1.));
#372=DIRECTION('',(1.,0.,0.));
#373=DIRECTION('',(1.,0.,0.));
#374=DIRECTION('',(0.,-6.12323399573677E-17,1.));
#375=DIRECTION('',(1.,3.74939945665465E-33,-6.12323399573677E-17));
#376=DIRECTION('',(0.,6.12323399573677E-17,-1.));
#377=DIRECTION('',(1.,0.,0.));
#378=DIRECTION('',(0.,-1.,0.));
#379=DIRECTION('',(1.,6.12323399573677E-17,0.));
#380=DIRECTION('',(0.,1.,0.));
#381=DIRECTION('',(-1.16368788433466E-15,-1.,0.));
#382=DIRECTION('',(1.16368788433466E-15,6.12323399573677E-17,-1.));
#383=DIRECTION('',(-1.,0.,0.));
#384=DIRECTION('',(0.,0.,1.));
#385=DIRECTION('',(-1.,0.,0.));
#386=DIRECTION('',(0.,0.,1.));
#387=CARTESIAN_POINT('',(0.,0.,0.));
#388=CARTESIAN_POINT('',(19.9259194485246,0.,0.));
#389=CARTESIAN_POINT('',(19.9259194485246,0.,3.573527618041));
#390=CARTESIAN_POINT('',(20.3122897790402,0.,0.));
#391=CARTESIAN_POINT('',(20.3122897790402,0.,3.07));
#392=CARTESIAN_POINT('',(20.3122897790402,0.,0.));
#393=CARTESIAN_POINT('',(20.,0.,0.));
#394=CARTESIAN_POINT('',(20.,0.,3.85));
#395=CARTESIAN_POINT('',(19.9259194485246,0.,0.));
#396=CARTESIAN_POINT('',(20.,0.,0.));
#397=CARTESIAN_POINT('',(20.,0.,4.7));
#398=CARTESIAN_POINT('',(20.,4.7,0.));
#399=CARTESIAN_POINT('',(19.7,0.,0.));
#400=CARTESIAN_POINT('',(19.7,0.,5.));
#401=CARTESIAN_POINT('',(20.,0.,0.));
#402=CARTESIAN_POINT('',(17.8464101615138,0.,0.));
#403=CARTESIAN_POINT('',(17.8464101615138,0.,5.));
#404=CARTESIAN_POINT('',(0.,0.,0.));
#405=CARTESIAN_POINT('',(17.5,0.,0.));
#406=CARTESIAN_POINT('',(17.5,0.,4.8));
#407=CARTESIAN_POINT('',(17.8464101615138,0.,0.));
#408=CARTESIAN_POINT('',(11.,0.,0.));
#409=CARTESIAN_POINT('',(11.,0.,5.25));
#410=CARTESIAN_POINT('',(17.5,0.,0.));
#411=CARTESIAN_POINT('',(6.,0.,0.));
#412=CARTESIAN_POINT('',(6.,0.,5.25));
#413=CARTESIAN_POINT('',(0.,0.,0.));
#414=CARTESIAN_POINT('',(6.,0.,0.));
#415=CARTESIAN_POINT('',(35.,0.,0.));
#416=CARTESIAN_POINT('',(35.,0.,2.1));
#417=CARTESIAN_POINT('',(35.,2.1,0.));
#418=CARTESIAN_POINT('',(34.2,0.,0.));
#419=CARTESIAN_POINT('',(34.2,0.,2.9));
#420=CARTESIAN_POINT('',(35.,0.,0.));
#421=CARTESIAN_POINT('',(26.1062177826491,0.,0.));
#422=CARTESIAN_POINT('',(26.1062177826491,0.,2.9));
#423=CARTESIAN_POINT('',(0.,0.,0.));
#424=CARTESIAN_POINT('',(25.5,0.,0.));
#425=CARTESIAN_POINT('',(25.5,0.,3.25));
#426=CARTESIAN_POINT('',(26.1062177826491,0.,0.));
#427=CARTESIAN_POINT('',(21.,0.,0.));
#428=CARTESIAN_POINT('',(21.,0.,3.25));
#429=CARTESIAN_POINT('',(0.,0.,0.));
#430=CARTESIAN_POINT('',(20.3722654001086,0.,0.));
#431=CARTESIAN_POINT('',(20.3722654001086,0.,3.07));
#432=CARTESIAN_POINT('',(21.,0.,0.));
#433=CARTESIAN_POINT('',(0.,0.,0.));
#434=CARTESIAN_POINT('',(6.,0.,0.));
#435=CARTESIAN_POINT('',(0.,7.34788079488412E-16,0.));
#436=CARTESIAN_POINT('',(10.,8.21518047396305E-16,4.47213595499958));
#437=CARTESIAN_POINT('',(6.,0.,0.));
#438=CARTESIAN_POINT('',(10.,-4.47213595499958,0.));
#439=CARTESIAN_POINT('',(10.,0.,0.));
#440=CARTESIAN_POINT('',(6.,0.,0.));
#441=CARTESIAN_POINT('',(10.,0.,0.));
#442=CARTESIAN_POINT('',(6.,0.,0.));
#443=CARTESIAN_POINT('',(10.,0.,0.));
#444=CARTESIAN_POINT('',(10.,0.,0.));
#445=CARTESIAN_POINT('',(10.,0.,0.));
#446=CARTESIAN_POINT('',(10.,0.,0.));
#447=CARTESIAN_POINT('',(10.,0.,0.));
#448=MECHANICAL_DESIGN_GEOMETRIC_PRESENTATION_REPRESENTATION('',(#37,#38),
#449);
#449=(
GEOMETRIC_REPRESENTATION_CONTEXT(3)
GLOBAL_UNCERTAINTY_ASSIGNED_CONTEXT((#450))
GLOBAL_UNIT_ASSIGNED_CONTEXT((#456,#452,#451))
REPRESENTATION_CONTEXT('APMR-BNM12-D12-M06-L20',
'TOP_LEVEL_ASSEMBLY_PART')
);
#450=UNCERTAINTY_MEASURE_WITH_UNIT(LENGTH_MEASURE(2.E-5),#456,
'DISTANCE_ACCURACY_VALUE','Maximum Tolerance applied to model');
#451=(
NAMED_UNIT(*)
SI_UNIT($,.STERADIAN.)
SOLID_ANGLE_UNIT()
);
#452=(
CONVERSION_BASED_UNIT('DEGREE',#454)
NAMED_UNIT(#453)
PLANE_ANGLE_UNIT()
);
#453=DIMENSIONAL_EXPONENTS(0.,0.,0.,0.,0.,0.,0.);
#454=PLANE_ANGLE_MEASURE_WITH_UNIT(PLANE_ANGLE_MEASURE(0.0174532925),#455);
#455=(
NAMED_UNIT(*)
PLANE_ANGLE_UNIT()
SI_UNIT($,.RADIAN.)
);
#456=(
LENGTH_UNIT()
NAMED_UNIT(*)
SI_UNIT(.MILLI.,.METRE.)
);
ENDSEC;
END-ISO-10303-21;
